ISO-10303-21;
HEADER;
FILE_DESCRIPTION (( 'STEP AP214' ),
    '1' );
FILE_NAME ('Micro_KC-500-1500-156.STEP',
    '2021-09-03T19:47:19',
    ( '' ),
    ( '' ),
    'SwSTEP 2.0',
    'SolidWorks 2020',
    '' );
FILE_SCHEMA (( 'AUTOMOTIVE_DESIGN' ));
ENDSEC;

DATA;
#1 = DIRECTION ( 'NONE',  ( 1.000000000000000000, 0.0000000000000000000, 0.0000000000000000000 ) ) ;
#2 = ORIENTED_EDGE ( 'NONE', *, *, #50, .T. ) ;
#3 = EDGE_CURVE ( 'NONE', #84, #47, #262, .T. ) ;
#4 = AXIS2_PLACEMENT_3D ( 'NONE', #263, #92, #281 ) ;
#5 = ORIENTED_EDGE ( 'NONE', *, *, #133, .T. ) ;
#6 = ORIENTED_EDGE ( 'NONE', *, *, #34, .F. ) ;
#7 = EDGE_CURVE ( 'NONE', #235, #28, #337, .T. ) ;
#8 = DIRECTION ( 'NONE',  ( -0.0000000000000000000, -0.0000000000000000000, -1.000000000000000000 ) ) ;
#9 = CIRCLE ( 'NONE', #338, 0.2500000000000000000 ) ;
#10 = LINE ( 'NONE', #217, #317 ) ;
#11 = AXIS2_PLACEMENT_3D ( 'NONE', #254, #376, #315 ) ;
#12 = CARTESIAN_POINT ( 'NONE',  ( -0.1250000000000001943, 2.296212748401288342E-17, 1.500000000000000222 ) ) ;
#13 = DIRECTION ( 'NONE',  ( 1.000000000000000000, 0.0000000000000000000, 0.0000000000000000000 ) ) ;
#14 = ADVANCED_FACE ( 'NONE', ( #274 ), #360, .T. ) ;
#15 = SURFACE_STYLE_USAGE ( .BOTH. , #159 ) ;
#16 = CARTESIAN_POINT ( 'NONE',  ( 0.2350000000000011524, 2.969768487932338510E-17, 3.000000000000000444 ) ) ;
#17 = PRODUCT ( 'Micro_KC-500-1500-156', 'Micro_KC-500-1500-156', '', ( #190 ) ) ;
#18 = CARTESIAN_POINT ( 'NONE',  ( 0.0000000000000000000, 0.0000000000000000000, 0.0000000000000000000 ) ) ;
#19 = EDGE_CURVE ( 'NONE', #323, #231, #108, .T. ) ;
#20 = DIRECTION ( 'NONE',  ( -1.000000000000000000, 0.0000000000000000000, 0.0000000000000000000 ) ) ;
#21 = FACE_OUTER_BOUND ( 'NONE', #202, .T. ) ;
#22 = CIRCLE ( 'NONE', #348, 0.2500000000000000555 ) ;
#23 = AXIS2_PLACEMENT_3D ( 'NONE', #302, #192, #309 ) ;
#24 = DIRECTION ( 'NONE',  ( -1.000000000000000000, 0.0000000000000000000, 0.0000000000000000000 ) ) ;
#25 = PLANE ( 'NONE',  #174 ) ;
#26 = VERTEX_POINT ( 'NONE', #16 ) ;
#27 = ORIENTED_EDGE ( 'NONE', *, *, #189, .F. ) ;
#28 = VERTEX_POINT ( 'NONE', #158 ) ;
#29 = CARTESIAN_POINT ( 'NONE',  ( 0.1250000000000001943, 0.0000000000000000000, 1.500000000000000222 ) ) ;
#30 = APPLICATION_CONTEXT ( 'automotive_design' ) ;
#31 = ORIENTED_EDGE ( 'NONE', *, *, #74, .T. ) ;
#32 = FACE_OUTER_BOUND ( 'NONE', #209, .T. ) ;
#33 = ORIENTED_EDGE ( 'NONE', *, *, #50, .F. ) ;
#34 = EDGE_CURVE ( 'NONE', #26, #228, #212, .T. ) ;
#35 =( NAMED_UNIT ( * ) PLANE_ANGLE_UNIT ( ) SI_UNIT ( $, .RADIAN. ) );
#36 = CARTESIAN_POINT ( 'NONE',  ( 0.0000000000000000000, 0.0000000000000000000, 1.500000000000000222 ) ) ;
#37 =( NAMED_UNIT ( * ) SI_UNIT ( $, .STERADIAN. ) SOLID_ANGLE_UNIT ( ) );
#38 = SURFACE_SIDE_STYLE ('',( #214 ) ) ;
#39 = FILL_AREA_STYLE_COLOUR ( '', #275 ) ;
#40 = LENGTH_MEASURE_WITH_UNIT ( LENGTH_MEASURE( 0.02539999999999999897 ), #330 );
#41 = ORIENTED_EDGE ( 'NONE', *, *, #113, .T. ) ;
#42 = CARTESIAN_POINT ( 'NONE',  ( -0.1250000000000001943, 1.530808498934193974E-17, 1.500000000000000222 ) ) ;
#43 = EDGE_CURVE ( 'NONE', #47, #122, #10, .T. ) ;
#44 = CARTESIAN_POINT ( 'NONE',  ( 0.0000000000000000000, 0.0000000000000000000, 2.985000000000001208 ) ) ;
#45 = CARTESIAN_POINT ( 'NONE',  ( 0.2500000000000000555, 3.061616997868383018E-17, 0.1559999999999999998 ) ) ;
#46 = CYLINDRICAL_SURFACE ( 'NONE', #53, 0.2500000000000000000 ) ;
#47 = VERTEX_POINT ( 'NONE', #12 ) ;
#48 = VECTOR ( 'NONE', #142, 39.37007874015748143 ) ;
#49 = CARTESIAN_POINT ( 'NONE',  ( -0.2350000000000011524, 0.0000000000000000000, 3.000000000000000444 ) ) ;
#50 = EDGE_CURVE ( 'NONE', #345, #122, #87, .T. ) ;
#51 = EDGE_LOOP ( 'NONE', ( #373, #123, #176, #56 ) ) ;
#52 = ORIENTED_EDGE ( 'NONE', *, *, #327, .F. ) ;
#53 = AXIS2_PLACEMENT_3D ( 'NONE', #137, #244, #112 ) ;
#54 = EDGE_CURVE ( 'NONE', #122, #345, #201, .T. ) ;
#55 = VECTOR ( 'NONE', #104, 39.37007874015748854 ) ;
#56 = ORIENTED_EDGE ( 'NONE', *, *, #113, .F. ) ;
#57 = DIRECTION ( 'NONE',  ( 0.0000000000000000000, 0.0000000000000000000, -1.000000000000000000 ) ) ;
#58 = PRODUCT_DEFINITION_SHAPE ( 'NONE', 'NONE',  #271 ) ;
#59 = EDGE_LOOP ( 'NONE', ( #285, #2 ) ) ;
#60 = DIRECTION ( 'NONE',  ( 0.0000000000000000000, 0.0000000000000000000, 1.000000000000000000 ) ) ;
#61 = ORIENTED_EDGE ( 'NONE', *, *, #144, .T. ) ;
#62 = LINE ( 'NONE', #289, #221 ) ;
#63 = DIRECTION ( 'NONE',  ( -1.000000000000000000, 0.0000000000000000000, 0.0000000000000000000 ) ) ;
#64 =( CONVERSION_BASED_UNIT ( 'INCH', #325 ) LENGTH_UNIT ( ) NAMED_UNIT ( #303 ) );
#65 = CARTESIAN_POINT ( 'NONE',  ( 0.1250000000000001943, 0.0000000000000000000, 1.500000000000000222 ) ) ;
#66 =( NAMED_UNIT ( * ) SI_UNIT ( $, .STERADIAN. ) SOLID_ANGLE_UNIT ( ) );
#67 = CARTESIAN_POINT ( 'NONE',  ( -0.2500000000000000555, 0.0000000000000000000, 0.1559999999999999998 ) ) ;
#68 = APPLICATION_PROTOCOL_DEFINITION ( 'draft international standard', 'automotive_design', 1998, #30 ) ;
#69 = CIRCLE ( 'NONE', #118, 0.2350000000000011524 ) ;
#70 = STYLED_ITEM ( 'NONE', ( #359 ), #89 ) ;
#71 =( NAMED_UNIT ( * ) PLANE_ANGLE_UNIT ( ) SI_UNIT ( $, .RADIAN. ) );
#72 =( NAMED_UNIT ( * ) PLANE_ANGLE_UNIT ( ) SI_UNIT ( $, .RADIAN. ) );
#73 = LINE ( 'NONE', #341, #297 ) ;
#74 = EDGE_CURVE ( 'NONE', #231, #323, #150, .T. ) ;
#75 = DIRECTION ( 'NONE',  ( 0.0000000000000000000, 0.0000000000000000000, 1.000000000000000000 ) ) ;
#76 = MECHANICAL_DESIGN_GEOMETRIC_PRESENTATION_REPRESENTATION (  '', ( #70 ), #270 ) ;
#77 = CARTESIAN_POINT ( 'NONE',  ( -0.1250000000000000278, 0.0000000000000000000, 0.1559999999999999998 ) ) ;
#78 = CARTESIAN_POINT ( 'NONE',  ( 0.2500000000000000000, 3.061616997868382402E-17, 1.624999999999999556 ) ) ;
#79 = ADVANCED_FACE ( 'NONE', ( #154 ), #249, .T. ) ;
#80 = VERTEX_POINT ( 'NONE', #355 ) ;
#81 = ORIENTED_EDGE ( 'NONE', *, *, #144, .F. ) ;
#82 = ADVANCED_FACE ( 'NONE', ( #294 ), #356, .T. ) ;
#83 = FACE_OUTER_BOUND ( 'NONE', #93, .T. ) ;
#84 = VERTEX_POINT ( 'NONE', #65 ) ;
#85 = CIRCLE ( 'NONE', #370, 0.2500000000000000000 ) ;
#86 = CARTESIAN_POINT ( 'NONE',  ( -0.2500000000000000000, 0.0000000000000000000, 3.000000000000000444 ) ) ;
#87 = CIRCLE ( 'NONE', #157, 0.1250000000000000278 ) ;
#88 = VERTEX_POINT ( 'NONE', #67 ) ;
#89 = MANIFOLD_SOLID_BREP ( 'Cut-Revolve1', #324 ) ;
#90 = LINE ( 'NONE', #29, #247 ) ;
#91 = ORIENTED_EDGE ( 'NONE', *, *, #166, .T. ) ;
#92 = DIRECTION ( 'NONE',  ( -0.0000000000000000000, -0.0000000000000000000, -1.000000000000000000 ) ) ;
#93 = EDGE_LOOP ( 'NONE', ( #253, #61, #181, #200 ) ) ;
#94 = DIRECTION ( 'NONE',  ( 1.000000000000000000, 0.0000000000000000000, 0.0000000000000000000 ) ) ;
#95 = DIRECTION ( 'NONE',  ( -0.0000000000000000000, -0.0000000000000000000, -1.000000000000000000 ) ) ;
#96 = ADVANCED_FACE ( 'NONE', ( #21 ), #243, .T. ) ;
#97 = SHAPE_DEFINITION_REPRESENTATION ( #58, #195 ) ;
#98 = DIMENSIONAL_EXPONENTS ( 1.000000000000000000, 0.0000000000000000000, 0.0000000000000000000, 0.0000000000000000000, 0.0000000000000000000, 0.0000000000000000000, 0.0000000000000000000 ) ;
#99 = AXIS2_PLACEMENT_3D ( 'NONE', #126, #347, #177 ) ;
#100 = PRODUCT_DEFINITION_FORMATION_WITH_SPECIFIED_SOURCE ( 'ANY', '', #17, .NOT_KNOWN. ) ;
#101 = DIRECTION ( 'NONE',  ( -0.0000000000000000000, -0.0000000000000000000, -1.000000000000000000 ) ) ;
#102 = AXIS2_PLACEMENT_3D ( 'NONE', #239, #162, #186 ) ;
#103 = UNCERTAINTY_MEASURE_WITH_UNIT (LENGTH_MEASURE( 1.000000000000000082E-05 ), #269, 'distance_accuracy_value', 'NONE');
#104 = DIRECTION ( 'NONE',  ( 0.7071067811865402453, 8.659560562354845344E-17, -0.7071067811865546782 ) ) ;
#105 = DIRECTION ( 'NONE',  ( -0.0000000000000000000, -0.0000000000000000000, -1.000000000000000000 ) ) ;
#106 = LENGTH_MEASURE_WITH_UNIT ( LENGTH_MEASURE( 0.02539999999999999897 ), #242 );
#107 = LINE ( 'NONE', #42, #336 ) ;
#108 = CIRCLE ( 'NONE', #267, 0.2500000000000000000 ) ;
#109 = DIRECTION ( 'NONE',  ( 0.0000000000000000000, 0.0000000000000000000, -1.000000000000000000 ) ) ;
#110 = CYLINDRICAL_SURFACE ( 'NONE', #188, 0.2500000000000000000 ) ;
#111 = ORIENTED_EDGE ( 'NONE', *, *, #43, .T. ) ;
#112 = DIRECTION ( 'NONE',  ( -1.000000000000000000, 0.0000000000000000000, 0.0000000000000000000 ) ) ;
#113 = EDGE_CURVE ( 'NONE', #206, #80, #165, .T. ) ;
#114 = ORIENTED_EDGE ( 'NONE', *, *, #233, .T. ) ;
#115 = ORIENTED_EDGE ( 'NONE', *, *, #375, .T. ) ;
#116 = FACE_OUTER_BOUND ( 'NONE', #255, .T. ) ;
#117 = ORIENTED_EDGE ( 'NONE', *, *, #189, .T. ) ;
#118 = AXIS2_PLACEMENT_3D ( 'NONE', #175, #351, #1 ) ;
#119 = VECTOR ( 'NONE', #120, 39.37007874015748143 ) ;
#120 = DIRECTION ( 'NONE',  ( -0.0000000000000000000, -0.0000000000000000000, -1.000000000000000000 ) ) ;
#121 = CIRCLE ( 'NONE', #246, 0.2350000000000011524 ) ;
#122 = VERTEX_POINT ( 'NONE', #77 ) ;
#123 = ORIENTED_EDGE ( 'NONE', *, *, #34, .T. ) ;
#124 = CARTESIAN_POINT ( 'NONE',  ( 0.2500000000000000555, 0.0000000000000000000, 0.1559999999999999998 ) ) ;
#125 = DIRECTION ( 'NONE',  ( -0.0000000000000000000, -0.0000000000000000000, -1.000000000000000000 ) ) ;
#126 = CARTESIAN_POINT ( 'NONE',  ( 0.0000000000000000000, 0.0000000000000000000, 0.0000000000000000000 ) ) ;
#127 = AXIS2_PLACEMENT_3D ( 'NONE', #130, #241, #265 ) ;
#128 = AXIS2_PLACEMENT_3D ( 'NONE', #18, #371, #220 ) ;
#129 = EDGE_CURVE ( 'NONE', #206, #26, #121, .T. ) ;
#130 = CARTESIAN_POINT ( 'NONE',  ( 0.0000000000000000000, 0.0000000000000000000, 1.500000000000000222 ) ) ;
#131 = DIRECTION ( 'NONE',  ( 0.0000000000000000000, 0.0000000000000000000, 1.000000000000000000 ) ) ;
#132 = DIRECTION ( 'NONE',  ( -1.000000000000000000, 0.0000000000000000000, 0.0000000000000000000 ) ) ;
#133 = EDGE_CURVE ( 'NONE', #28, #235, #85, .T. ) ;
#134 = FILL_AREA_STYLE ('',( #39 ) ) ;
#135 = DIRECTION ( 'NONE',  ( -0.0000000000000000000, -0.0000000000000000000, -1.000000000000000000 ) ) ;
#136 = FACE_OUTER_BOUND ( 'NONE', #349, .T. ) ;
#137 = CARTESIAN_POINT ( 'NONE',  ( 0.0000000000000000000, 0.0000000000000000000, 3.000000000000000444 ) ) ;
#138 = DIRECTION ( 'NONE',  ( 1.000000000000000000, 0.0000000000000000000, 0.0000000000000000000 ) ) ;
#139 = AXIS2_PLACEMENT_3D ( 'NONE', #44, #109, #223 ) ;
#140 = CARTESIAN_POINT ( 'NONE',  ( 0.2500000000000000000, 3.061616997868382402E-17, 0.0000000000000000000 ) ) ;
#141 = ORIENTED_EDGE ( 'NONE', *, *, #3, .T. ) ;
#142 = DIRECTION ( 'NONE',  ( -0.0000000000000000000, -0.0000000000000000000, -1.000000000000000000 ) ) ;
#143 = DIRECTION ( 'NONE',  ( 0.0000000000000000000, 0.0000000000000000000, 1.000000000000000000 ) ) ;
#144 = EDGE_CURVE ( 'NONE', #84, #345, #276, .T. ) ;
#145 = ORIENTED_EDGE ( 'NONE', *, *, #166, .F. ) ;
#146 = ORIENTED_EDGE ( 'NONE', *, *, #185, .T. ) ;
#147 = VERTEX_POINT ( 'NONE', #45 ) ;
#148 = LINE ( 'NONE', #236, #119 ) ;
#149 = EDGE_LOOP ( 'NONE', ( #320, #290, #266, #377 ) ) ;
#150 = CIRCLE ( 'NONE', #350, 0.2500000000000000000 ) ;
#151 = ORIENTED_EDGE ( 'NONE', *, *, #19, .F. ) ;
#152 = DIRECTION ( 'NONE',  ( -0.0000000000000000000, -0.0000000000000000000, -1.000000000000000000 ) ) ;
#153 = ADVANCED_FACE ( 'NONE', ( #224 ), #248, .T. ) ;
#154 = FACE_OUTER_BOUND ( 'NONE', #319, .T. ) ;
#155 = PRESENTATION_LAYER_ASSIGNMENT (  '', '', ( #70 ) ) ;
#156 = AXIS2_PLACEMENT_3D ( 'NONE', #362, #131, #273 ) ;
#157 = AXIS2_PLACEMENT_3D ( 'NONE', #216, #8, #63 ) ;
#158 = CARTESIAN_POINT ( 'NONE',  ( -0.2500000000000000000, 0.0000000000000000000, 0.0000000000000000000 ) ) ;
#159 = SURFACE_SIDE_STYLE ('',( #367 ) ) ;
#160 =( CONVERSION_BASED_UNIT ( 'INCH', #40 ) LENGTH_UNIT ( ) NAMED_UNIT ( #98 ) );
#161 = DIMENSIONAL_EXPONENTS ( 1.000000000000000000, 0.0000000000000000000, 0.0000000000000000000, 0.0000000000000000000, 0.0000000000000000000, 0.0000000000000000000, 0.0000000000000000000 ) ;
#162 = DIRECTION ( 'NONE',  ( 0.0000000000000000000, 0.0000000000000000000, 1.000000000000000000 ) ) ;
#163 = CONICAL_SURFACE ( 'NONE', #268, 0.2350000000000011524, 0.7853981633974380649 ) ;
#164 =( NAMED_UNIT ( * ) SI_UNIT ( $, .STERADIAN. ) SOLID_ANGLE_UNIT ( ) );
#165 = LINE ( 'NONE', #49, #280 ) ;
#166 = EDGE_CURVE ( 'NONE', #47, #323, #107, .T. ) ;
#167 = CARTESIAN_POINT ( 'NONE',  ( 0.0000000000000000000, 0.0000000000000000000, 2.985000000000001208 ) ) ;
#168 = DIRECTION ( 'NONE',  ( -0.0000000000000000000, -0.0000000000000000000, -1.000000000000000000 ) ) ;
#169 = CIRCLE ( 'NONE', #4, 0.1250000000000001943 ) ;
#170 =( GEOMETRIC_REPRESENTATION_CONTEXT ( 3 ) GLOBAL_UNCERTAINTY_ASSIGNED_CONTEXT ( ( #226 ) ) GLOBAL_UNIT_ASSIGNED_CONTEXT ( ( #64, #35, #37 ) ) REPRESENTATION_CONTEXT ( 'NONE', 'WORKASPACE' ) );
#171 = ADVANCED_FACE ( 'NONE', ( #339 ), #252, .T. ) ;
#172 = ORIENTED_EDGE ( 'NONE', *, *, #363, .T. ) ;
#173 = EDGE_LOOP ( 'NONE', ( #264, #114, #172, #5 ) ) ;
#174 = AXIS2_PLACEMENT_3D ( 'NONE', #124, #60, #379 ) ;
#175 = CARTESIAN_POINT ( 'NONE',  ( 0.0000000000000000000, 0.0000000000000000000, 3.000000000000000444 ) ) ;
#176 = ORIENTED_EDGE ( 'NONE', *, *, #185, .F. ) ;
#177 = DIRECTION ( 'NONE',  ( 1.000000000000000000, 0.0000000000000000000, -0.0000000000000000000 ) ) ;
#178 = ADVANCED_FACE ( 'NONE', ( #136 ), #46, .T. ) ;
#179 = CYLINDRICAL_SURFACE ( 'NONE', #11, 0.1250000000000001110 ) ;
#180 = ORIENTED_EDGE ( 'NONE', *, *, #193, .T. ) ;
#181 = ORIENTED_EDGE ( 'NONE', *, *, #54, .F. ) ;
#182 = PRESENTATION_LAYER_ASSIGNMENT (  '', '', ( #199 ) ) ;
#183 = DIRECTION ( 'NONE',  ( -0.0000000000000000000, -0.0000000000000000000, -1.000000000000000000 ) ) ;
#184 = DIRECTION ( 'NONE',  ( 1.000000000000000000, 0.0000000000000000000, 0.0000000000000000000 ) ) ;
#185 = EDGE_CURVE ( 'NONE', #80, #228, #9, .T. ) ;
#186 = DIRECTION ( 'NONE',  ( 1.000000000000000000, 0.0000000000000000000, 0.0000000000000000000 ) ) ;
#187 = FILL_AREA_STYLE ('',( #240 ) ) ;
#188 = AXIS2_PLACEMENT_3D ( 'NONE', #197, #311, #284 ) ;
#189 = EDGE_CURVE ( 'NONE', #88, #147, #259, .T. ) ;
#190 = PRODUCT_CONTEXT ( 'NONE', #30, 'mechanical' ) ;
#191 = DIRECTION ( 'NONE',  ( 0.0000000000000000000, 0.0000000000000000000, -1.000000000000000000 ) ) ;
#192 = DIRECTION ( 'NONE',  ( 0.0000000000000000000, 0.0000000000000000000, 1.000000000000000000 ) ) ;
#193 = EDGE_CURVE ( 'NONE', #147, #235, #73, .T. ) ;
#194 = DIRECTION ( 'NONE',  ( -0.0000000000000000000, -0.0000000000000000000, -1.000000000000000000 ) ) ;
#195 = ADVANCED_BREP_SHAPE_REPRESENTATION ( 'Micro_KC-500-1500-156', ( #89, #156 ), #170 ) ;
#196 = CARTESIAN_POINT ( 'NONE',  ( 0.0000000000000000000, 0.0000000000000000000, 3.000000000000000444 ) ) ;
#197 = CARTESIAN_POINT ( 'NONE',  ( 0.0000000000000000000, 0.0000000000000000000, 3.000000000000000444 ) ) ;
#198 = VECTOR ( 'NONE', #368, 39.37007874015748143 ) ;
#199 = STYLED_ITEM ( 'NONE', ( #328 ), #195 ) ;
#200 = ORIENTED_EDGE ( 'NONE', *, *, #43, .F. ) ;
#201 = CIRCLE ( 'NONE', #314, 0.1250000000000000278 ) ;
#202 = EDGE_LOOP ( 'NONE', ( #378, #346 ) ) ;
#203 = COLOUR_RGB ( '',0.7921568627450980005, 0.8196078431372548767, 0.9333333333333333481 ) ;
#204 = PRODUCT_RELATED_PRODUCT_CATEGORY ( 'part', '', ( #17 ) ) ;
#205 = CARTESIAN_POINT ( 'NONE',  ( 0.1250000000000000278, 1.530808498934192125E-17, 0.1559999999999999998 ) ) ;
#206 = VERTEX_POINT ( 'NONE', #218 ) ;
#207 =( LENGTH_UNIT ( ) NAMED_UNIT ( * ) SI_UNIT ( $, .METRE. ) );
#208 = FACE_OUTER_BOUND ( 'NONE', #260, .T. ) ;
#209 = EDGE_LOOP ( 'NONE', ( #27, #316 ) ) ;
#210 = CARTESIAN_POINT ( 'NONE',  ( 0.0000000000000000000, 0.0000000000000000000, 3.000000000000000444 ) ) ;
#211 = LINE ( 'NONE', #86, #48 ) ;
#212 = LINE ( 'NONE', #365, #55 ) ;
#213 = CARTESIAN_POINT ( 'NONE',  ( 0.0000000000000000000, 0.0000000000000000000, 1.624999999999999556 ) ) ;
#214 = SURFACE_STYLE_FILL_AREA ( #187 ) ;
#215 = AXIS2_PLACEMENT_3D ( 'NONE', #305, #194, #304 ) ;
#216 = CARTESIAN_POINT ( 'NONE',  ( 0.0000000000000000000, 0.0000000000000000000, 0.1559999999999999998 ) ) ;
#217 = CARTESIAN_POINT ( 'NONE',  ( -0.1250000000000001110, 0.0000000000000000000, 0.0000000000000000000 ) ) ;
#218 = CARTESIAN_POINT ( 'NONE',  ( -0.2350000000000011524, 0.0000000000000000000, 3.000000000000000444 ) ) ;
#219 = AXIS2_PLACEMENT_3D ( 'NONE', #196, #342, #20 ) ;
#220 = DIRECTION ( 'NONE',  ( -1.000000000000000000, 0.0000000000000000000, 0.0000000000000000000 ) ) ;
#221 = VECTOR ( 'NONE', #183, 39.37007874015748143 ) ;
#222 = DIRECTION ( 'NONE',  ( 0.0000000000000000000, 0.0000000000000000000, -1.000000000000000000 ) ) ;
#223 = DIRECTION ( 'NONE',  ( 1.000000000000000000, 0.0000000000000000000, 0.0000000000000000000 ) ) ;
#224 = FACE_OUTER_BOUND ( 'NONE', #149, .T. ) ;
#225 = EDGE_LOOP ( 'NONE', ( #81, #141, #111, #33 ) ) ;
#226 = UNCERTAINTY_MEASURE_WITH_UNIT (LENGTH_MEASURE( 1.000000000000000082E-05 ), #64, 'distance_accuracy_value', 'NONE');
#227 = ORIENTED_EDGE ( 'NONE', *, *, #19, .T. ) ;
#228 = VERTEX_POINT ( 'NONE', #335 ) ;
#229 = EDGE_CURVE ( 'NONE', #228, #80, #238, .T. ) ;
#230 = PLANE ( 'NONE',  #99 ) ;
#231 = VERTEX_POINT ( 'NONE', #78 ) ;
#232 = AXIS2_PLACEMENT_3D ( 'NONE', #300, #95, #272 ) ;
#233 = EDGE_CURVE ( 'NONE', #147, #88, #22, .T. ) ;
#234 = ORIENTED_EDGE ( 'NONE', *, *, #369, .T. ) ;
#235 = VERTEX_POINT ( 'NONE', #140 ) ;
#236 = CARTESIAN_POINT ( 'NONE',  ( 0.2500000000000000000, 3.061616997868382402E-17, 3.000000000000000444 ) ) ;
#237 = CARTESIAN_POINT ( 'NONE',  ( 0.0000000000000000000, 0.0000000000000000000, 1.500000000000000222 ) ) ;
#238 = CIRCLE ( 'NONE', #139, 0.2500000000000000000 ) ;
#239 = CARTESIAN_POINT ( 'NONE',  ( 0.0000000000000000000, 0.0000000000000000000, 0.0000000000000000000 ) ) ;
#240 = FILL_AREA_STYLE_COLOUR ( '', #203 ) ;
#241 = DIRECTION ( 'NONE',  ( -0.0000000000000000000, -0.0000000000000000000, -1.000000000000000000 ) ) ;
#242 =( LENGTH_UNIT ( ) NAMED_UNIT ( * ) SI_UNIT ( $, .METRE. ) );
#243 = PLANE ( 'NONE',  #23 ) ;
#244 = DIRECTION ( 'NONE',  ( -0.0000000000000000000, -0.0000000000000000000, -1.000000000000000000 ) ) ;
#245 = CARTESIAN_POINT ( 'NONE',  ( 0.0000000000000000000, 0.0000000000000000000, 0.0000000000000000000 ) ) ;
#246 = AXIS2_PLACEMENT_3D ( 'NONE', #282, #75, #277 ) ;
#247 = VECTOR ( 'NONE', #292, 39.37007874015748854 ) ;
#248 = CYLINDRICAL_SURFACE ( 'NONE', #219, 0.2500000000000000000 ) ;
#249 = CONICAL_SURFACE ( 'NONE', #361, 0.1250000000000001943, 0.7853981633974500554 ) ;
#250 = DIRECTION ( 'NONE',  ( -0.7071067811865486830, 8.659560562354947649E-17, 0.7071067811865462405 ) ) ;
#251 = ORIENTED_EDGE ( 'NONE', *, *, #133, .F. ) ;
#252 = CYLINDRICAL_SURFACE ( 'NONE', #128, 0.1250000000000001110 ) ;
#253 = ORIENTED_EDGE ( 'NONE', *, *, #327, .T. ) ;
#254 = CARTESIAN_POINT ( 'NONE',  ( 0.0000000000000000000, 0.0000000000000000000, 0.0000000000000000000 ) ) ;
#255 = EDGE_LOOP ( 'NONE', ( #251, #310 ) ) ;
#256 = CARTESIAN_POINT ( 'NONE',  ( -0.2500000000000000000, 0.0000000000000000000, 1.624999999999999556 ) ) ;
#257 = ORIENTED_EDGE ( 'NONE', *, *, #7, .T. ) ;
#258 = DIRECTION ( 'NONE',  ( -1.000000000000000000, 0.0000000000000000000, 0.0000000000000000000 ) ) ;
#259 = CIRCLE ( 'NONE', #215, 0.2500000000000000555 ) ;
#260 = EDGE_LOOP ( 'NONE', ( #6, #343, #41, #287 ) ) ;
#261 =( GEOMETRIC_REPRESENTATION_CONTEXT ( 3 ) GLOBAL_UNCERTAINTY_ASSIGNED_CONTEXT ( ( #103 ) ) GLOBAL_UNIT_ASSIGNED_CONTEXT ( ( #269, #72, #66 ) ) REPRESENTATION_CONTEXT ( 'NONE', 'WORKASPACE' ) );
#262 = CIRCLE ( 'NONE', #127, 0.1250000000000001943 ) ;
#263 = CARTESIAN_POINT ( 'NONE',  ( 0.0000000000000000000, 0.0000000000000000000, 1.500000000000000222 ) ) ;
#264 = ORIENTED_EDGE ( 'NONE', *, *, #193, .F. ) ;
#265 = DIRECTION ( 'NONE',  ( -1.000000000000000000, 0.0000000000000000000, 0.0000000000000000000 ) ) ;
#266 = ORIENTED_EDGE ( 'NONE', *, *, #332, .T. ) ;
#267 = AXIS2_PLACEMENT_3D ( 'NONE', #213, #152, #94 ) ;
#268 = AXIS2_PLACEMENT_3D ( 'NONE', #210, #57, #321 ) ;
#269 =( CONVERSION_BASED_UNIT ( 'INCH', #106 ) LENGTH_UNIT ( ) NAMED_UNIT ( #161 ) );
#270 =( GEOMETRIC_REPRESENTATION_CONTEXT ( 3 ) GLOBAL_UNCERTAINTY_ASSIGNED_CONTEXT ( ( #374 ) ) GLOBAL_UNIT_ASSIGNED_CONTEXT ( ( #160, #71, #164 ) ) REPRESENTATION_CONTEXT ( 'NONE', 'WORKASPACE' ) );
#271 = PRODUCT_DEFINITION ( 'UNKNOWN', '', #100, #306 ) ;
#272 = DIRECTION ( 'NONE',  ( -1.000000000000000000, 0.0000000000000000000, 0.0000000000000000000 ) ) ;
#273 = DIRECTION ( 'NONE',  ( 1.000000000000000000, 0.0000000000000000000, 0.0000000000000000000 ) ) ;
#274 = FACE_OUTER_BOUND ( 'NONE', #173, .T. ) ;
#275 = COLOUR_RGB ( '',0.7921568627450980005, 0.8196078431372548767, 0.9333333333333333481 ) ;
#276 = LINE ( 'NONE', #366, #198 ) ;
#277 = DIRECTION ( 'NONE',  ( 1.000000000000000000, 0.0000000000000000000, 0.0000000000000000000 ) ) ;
#278 = CONICAL_SURFACE ( 'NONE', #331, 0.2350000000000011524, 0.7853981633974380649 ) ;
#279 = DIRECTION ( 'NONE',  ( 1.000000000000000000, 0.0000000000000000000, 0.0000000000000000000 ) ) ;
#280 = VECTOR ( 'NONE', #333, 39.37007874015748854 ) ;
#281 = DIRECTION ( 'NONE',  ( -1.000000000000000000, 0.0000000000000000000, 0.0000000000000000000 ) ) ;
#282 = CARTESIAN_POINT ( 'NONE',  ( 0.0000000000000000000, 0.0000000000000000000, 3.000000000000000444 ) ) ;
#283 = EDGE_LOOP ( 'NONE', ( #145, #352, #234, #31 ) ) ;
#284 = DIRECTION ( 'NONE',  ( -1.000000000000000000, 0.0000000000000000000, 0.0000000000000000000 ) ) ;
#285 = ORIENTED_EDGE ( 'NONE', *, *, #54, .T. ) ;
#286 = ADVANCED_FACE ( 'NONE', ( #372 ), #110, .T. ) ;
#287 = ORIENTED_EDGE ( 'NONE', *, *, #229, .F. ) ;
#288 = ORIENTED_EDGE ( 'NONE', *, *, #332, .F. ) ;
#289 = CARTESIAN_POINT ( 'NONE',  ( -0.2500000000000000000, 0.0000000000000000000, 3.000000000000000444 ) ) ;
#290 = ORIENTED_EDGE ( 'NONE', *, *, #229, .T. ) ;
#291 = FACE_BOUND ( 'NONE', #59, .T. ) ;
#292 = DIRECTION ( 'NONE',  ( 0.7071067811865486830, 0.0000000000000000000, 0.7071067811865462405 ) ) ;
#293 = SURFACE_STYLE_USAGE ( .BOTH. , #38 ) ;
#294 = FACE_OUTER_BOUND ( 'NONE', #283, .T. ) ;
#295 = ADVANCED_FACE ( 'NONE', ( #83 ), #179, .T. ) ;
#296 = CARTESIAN_POINT ( 'NONE',  ( 0.0000000000000000000, 0.0000000000000000000, 1.624999999999999556 ) ) ;
#297 = VECTOR ( 'NONE', #105, 39.37007874015748143 ) ;
#298 = AXIS2_PLACEMENT_3D ( 'NONE', #36, #326, #299 ) ;
#299 = DIRECTION ( 'NONE',  ( 1.000000000000000000, 0.0000000000000000000, 0.0000000000000000000 ) ) ;
#300 = CARTESIAN_POINT ( 'NONE',  ( 0.0000000000000000000, 0.0000000000000000000, 3.000000000000000444 ) ) ;
#301 = EDGE_CURVE ( 'NONE', #26, #206, #69, .T. ) ;
#302 = CARTESIAN_POINT ( 'NONE',  ( 0.0000000000000000000, 0.0000000000000000000, 3.000000000000000444 ) ) ;
#303 = DIMENSIONAL_EXPONENTS ( 1.000000000000000000, 0.0000000000000000000, 0.0000000000000000000, 0.0000000000000000000, 0.0000000000000000000, 0.0000000000000000000, 0.0000000000000000000 ) ;
#304 = DIRECTION ( 'NONE',  ( -1.000000000000000000, 0.0000000000000000000, 0.0000000000000000000 ) ) ;
#305 = CARTESIAN_POINT ( 'NONE',  ( 0.0000000000000000000, 0.0000000000000000000, 0.1559999999999999998 ) ) ;
#306 = PRODUCT_DEFINITION_CONTEXT ( 'detailed design', #364, 'design' ) ;
#307 = CARTESIAN_POINT ( 'NONE',  ( 0.0000000000000000000, 0.0000000000000000000, 0.1559999999999999998 ) ) ;
#308 = ORIENTED_EDGE ( 'NONE', *, *, #363, .F. ) ;
#309 = DIRECTION ( 'NONE',  ( 1.000000000000000000, 0.0000000000000000000, -0.0000000000000000000 ) ) ;
#310 = ORIENTED_EDGE ( 'NONE', *, *, #7, .F. ) ;
#311 = DIRECTION ( 'NONE',  ( -0.0000000000000000000, -0.0000000000000000000, -1.000000000000000000 ) ) ;
#312 = ADVANCED_FACE ( 'NONE', ( #208 ), #278, .T. ) ;
#313 = ORIENTED_EDGE ( 'NONE', *, *, #369, .F. ) ;
#314 = AXIS2_PLACEMENT_3D ( 'NONE', #357, #135, #132 ) ;
#315 = DIRECTION ( 'NONE',  ( -1.000000000000000000, 0.0000000000000000000, 0.0000000000000000000 ) ) ;
#316 = ORIENTED_EDGE ( 'NONE', *, *, #233, .F. ) ;
#317 = VECTOR ( 'NONE', #101, 39.37007874015748143 ) ;
#318 = FACE_OUTER_BOUND ( 'NONE', #51, .T. ) ;
#319 = EDGE_LOOP ( 'NONE', ( #52, #91, #227, #313 ) ) ;
#320 = ORIENTED_EDGE ( 'NONE', *, *, #375, .F. ) ;
#321 = DIRECTION ( 'NONE',  ( -1.000000000000000000, 0.0000000000000000000, 0.0000000000000000000 ) ) ;
#322 = MECHANICAL_DESIGN_GEOMETRIC_PRESENTATION_REPRESENTATION (  '', ( #199 ), #261 ) ;
#323 = VERTEX_POINT ( 'NONE', #256 ) ;
#324 = CLOSED_SHELL ( 'NONE', ( #286, #295, #79, #354, #178, #153, #96, #312, #82, #171, #340, #344, #14 ) ) ;
#325 = LENGTH_MEASURE_WITH_UNIT ( LENGTH_MEASURE( 0.02539999999999999897 ), #207 );
#326 = DIRECTION ( 'NONE',  ( 0.0000000000000000000, 0.0000000000000000000, 1.000000000000000000 ) ) ;
#327 = EDGE_CURVE ( 'NONE', #47, #84, #169, .T. ) ;
#328 = PRESENTATION_STYLE_ASSIGNMENT (( #15 ) ) ;
#329 = DIRECTION ( 'NONE',  ( 0.0000000000000000000, 0.0000000000000000000, 1.000000000000000000 ) ) ;
#330 =( LENGTH_UNIT ( ) NAMED_UNIT ( * ) SI_UNIT ( $, .METRE. ) );
#331 = AXIS2_PLACEMENT_3D ( 'NONE', #334, #222, #258 ) ;
#332 = EDGE_CURVE ( 'NONE', #80, #323, #211, .T. ) ;
#333 = DIRECTION ( 'NONE',  ( -0.7071067811865402453, 0.0000000000000000000, -0.7071067811865546782 ) ) ;
#334 = CARTESIAN_POINT ( 'NONE',  ( 0.0000000000000000000, 0.0000000000000000000, 3.000000000000000444 ) ) ;
#335 = CARTESIAN_POINT ( 'NONE',  ( 0.2500000000000000000, 3.061616997868382402E-17, 2.985000000000001208 ) ) ;
#336 = VECTOR ( 'NONE', #250, 39.37007874015748854 ) ;
#337 = CIRCLE ( 'NONE', #102, 0.2500000000000000000 ) ;
#338 = AXIS2_PLACEMENT_3D ( 'NONE', #167, #191, #279 ) ;
#339 = FACE_OUTER_BOUND ( 'NONE', #225, .T. ) ;
#340 = ADVANCED_FACE ( 'NONE', ( #291, #32 ), #25, .T. ) ;
#341 = CARTESIAN_POINT ( 'NONE',  ( 0.2500000000000000000, 3.061616997868382402E-17, 3.000000000000000444 ) ) ;
#342 = DIRECTION ( 'NONE',  ( -0.0000000000000000000, -0.0000000000000000000, -1.000000000000000000 ) ) ;
#343 = ORIENTED_EDGE ( 'NONE', *, *, #129, .F. ) ;
#344 = ADVANCED_FACE ( 'NONE', ( #116 ), #230, .F. ) ;
#345 = VERTEX_POINT ( 'NONE', #205 ) ;
#346 = ORIENTED_EDGE ( 'NONE', *, *, #301, .T. ) ;
#347 = DIRECTION ( 'NONE',  ( 0.0000000000000000000, 0.0000000000000000000, 1.000000000000000000 ) ) ;
#348 = AXIS2_PLACEMENT_3D ( 'NONE', #307, #168, #24 ) ;
#349 = EDGE_LOOP ( 'NONE', ( #146, #115, #151, #288 ) ) ;
#350 = AXIS2_PLACEMENT_3D ( 'NONE', #296, #125, #13 ) ;
#351 = DIRECTION ( 'NONE',  ( 0.0000000000000000000, 0.0000000000000000000, 1.000000000000000000 ) ) ;
#352 = ORIENTED_EDGE ( 'NONE', *, *, #3, .F. ) ;
#353 = EDGE_LOOP ( 'NONE', ( #117, #180, #257, #308 ) ) ;
#354 = ADVANCED_FACE ( 'NONE', ( #318 ), #163, .T. ) ;
#355 = CARTESIAN_POINT ( 'NONE',  ( -0.2500000000000000000, 0.0000000000000000000, 2.985000000000001208 ) ) ;
#356 = CONICAL_SURFACE ( 'NONE', #298, 0.1250000000000001943, 0.7853981633974500554 ) ;
#357 = CARTESIAN_POINT ( 'NONE',  ( 0.0000000000000000000, 0.0000000000000000000, 0.1559999999999999998 ) ) ;
#358 = APPLICATION_PROTOCOL_DEFINITION ( 'draft international standard', 'automotive_design', 1998, #364 ) ;
#359 = PRESENTATION_STYLE_ASSIGNMENT (( #293 ) ) ;
#360 = CYLINDRICAL_SURFACE ( 'NONE', #232, 0.2500000000000000000 ) ;
#361 = AXIS2_PLACEMENT_3D ( 'NONE', #237, #329, #184 ) ;
#362 = CARTESIAN_POINT ( 'NONE',  ( 0.0000000000000000000, 0.0000000000000000000, 0.0000000000000000000 ) ) ;
#363 = EDGE_CURVE ( 'NONE', #88, #28, #62, .T. ) ;
#364 = APPLICATION_CONTEXT ( 'automotive_design' ) ;
#365 = CARTESIAN_POINT ( 'NONE',  ( 0.2350000000000011524, 2.877919977996294002E-17, 3.000000000000000444 ) ) ;
#366 = CARTESIAN_POINT ( 'NONE',  ( 0.1250000000000001110, 1.530808498934192742E-17, 0.0000000000000000000 ) ) ;
#367 = SURFACE_STYLE_FILL_AREA ( #134 ) ;
#368 = DIRECTION ( 'NONE',  ( -0.0000000000000000000, -0.0000000000000000000, -1.000000000000000000 ) ) ;
#369 = EDGE_CURVE ( 'NONE', #84, #231, #90, .T. ) ;
#370 = AXIS2_PLACEMENT_3D ( 'NONE', #245, #143, #138 ) ;
#371 = DIRECTION ( 'NONE',  ( -0.0000000000000000000, -0.0000000000000000000, -1.000000000000000000 ) ) ;
#372 = FACE_OUTER_BOUND ( 'NONE', #353, .T. ) ;
#373 = ORIENTED_EDGE ( 'NONE', *, *, #301, .F. ) ;
#374 = UNCERTAINTY_MEASURE_WITH_UNIT (LENGTH_MEASURE( 1.000000000000000082E-05 ), #160, 'distance_accuracy_value', 'NONE');
#375 = EDGE_CURVE ( 'NONE', #228, #231, #148, .T. ) ;
#376 = DIRECTION ( 'NONE',  ( -0.0000000000000000000, -0.0000000000000000000, -1.000000000000000000 ) ) ;
#377 = ORIENTED_EDGE ( 'NONE', *, *, #74, .F. ) ;
#378 = ORIENTED_EDGE ( 'NONE', *, *, #129, .T. ) ;
#379 = DIRECTION ( 'NONE',  ( 1.000000000000000000, 0.0000000000000000000, -0.0000000000000000000 ) ) ;
ENDSEC;
END-ISO-10303-21;
