ISO-10303-21;
HEADER;
FILE_DESCRIPTION (( 'STEP AP214' ),
    '1' );
FILE_NAME ('83305.STEP',
    '2023-06-23T09:03:40',
    ( '' ),
    ( '' ),
    'SwSTEP 2.0',
    'SolidWorks 2023',
    '' );
FILE_SCHEMA (( 'AUTOMOTIVE_DESIGN' ));
ENDSEC;

DATA;
#1 = EDGE_LOOP ( 'NONE', ( #185, #49 ) ) ;
#2 = CARTESIAN_POINT ( 'NONE',  ( 1.913510623667739463E-17, 0.000000000000000000, 0.1562500000000000000 ) ) ;
#3 = EDGE_CURVE ( 'NONE', #267, #122, #192, .T. ) ;
#4 = UNCERTAINTY_MEASURE_WITH_UNIT (LENGTH_MEASURE( 1.000000000000000082E-05 ), #228, 'distance_accuracy_value', 'NONE');
#5 = SURFACE_STYLE_USAGE ( .BOTH. , #235 ) ;
#6 = DIRECTION ( 'NONE',  ( 0.000000000000000000, 0.000000000000000000, 1.000000000000000000 ) ) ;
#7 =( CONVERSION_BASED_UNIT ( 'INCH', #79 ) LENGTH_UNIT ( ) NAMED_UNIT ( #60 ) );
#8 = CARTESIAN_POINT ( 'NONE',  ( 0.000000000000000000, 0.000000000000000000, 0.000000000000000000 ) ) ;
#9 = MECHANICAL_DESIGN_GEOMETRIC_PRESENTATION_REPRESENTATION (  '', ( #157 ), #234 ) ;
#10 =( LENGTH_UNIT ( ) NAMED_UNIT ( * ) SI_UNIT ( $, .METRE. ) );
#11 = DIMENSIONAL_EXPONENTS ( 1.000000000000000000, 0.000000000000000000, 0.000000000000000000, 0.000000000000000000, 0.000000000000000000, 0.000000000000000000, 0.000000000000000000 ) ;
#12 = CARTESIAN_POINT ( 'NONE',  ( -0.1562499999999998057, 2.000000000000000000, 0.000000000000000000 ) ) ;
#13 = VECTOR ( 'NONE', #105, 39.37007874015748143 ) ;
#14 = DIRECTION ( 'NONE',  ( -1.000000000000000000, 0.000000000000000000, 0.000000000000000000 ) ) ;
#15 = PRESENTATION_LAYER_ASSIGNMENT (  '', '', ( #157 ) ) ;
#16 = LENGTH_MEASURE_WITH_UNIT ( LENGTH_MEASURE( 0.02539999999999999897 ), #286 );
#17 = CYLINDRICAL_SURFACE ( 'NONE', #124, 0.1562500000000000000 ) ;
#18 = SURFACE_STYLE_USAGE ( .BOTH. , #237 ) ;
#19 = MECHANICAL_DESIGN_GEOMETRIC_PRESENTATION_REPRESENTATION (  '', ( #288 ), #187 ) ;
#20 = APPLICATION_PROTOCOL_DEFINITION ( 'draft international standard', 'automotive_design', 1998, #73 ) ;
#21 = DIRECTION ( 'NONE',  ( 0.000000000000000000, -0.000000000000000000, 1.000000000000000000 ) ) ;
#22 = SURFACE_STYLE_FILL_AREA ( #147 ) ;
#23 =( NAMED_UNIT ( * ) PLANE_ANGLE_UNIT ( ) SI_UNIT ( $, .RADIAN. ) );
#24 = VECTOR ( 'NONE', #294, 39.37007874015748143 ) ;
#25 = ORIENTED_EDGE ( 'NONE', *, *, #53, .F. ) ;
#26 = UNCERTAINTY_MEASURE_WITH_UNIT (LENGTH_MEASURE( 1.000000000000000082E-05 ), #172, 'distance_accuracy_value', 'NONE');
#27 = CARTESIAN_POINT ( 'NONE',  ( 0.000000000000000000, 0.4374999999999998890, 0.000000000000000000 ) ) ;
#28 = CARTESIAN_POINT ( 'NONE',  ( 0.000000000000000000, 0.000000000000000000, -0.1562500000000000000 ) ) ;
#29 = LINE ( 'NONE', #12, #244 ) ;
#30 = PRESENTATION_LAYER_ASSIGNMENT (  '', '', ( #84 ) ) ;
#31 = DIMENSIONAL_EXPONENTS ( 1.000000000000000000, 0.000000000000000000, 0.000000000000000000, 0.000000000000000000, 0.000000000000000000, 0.000000000000000000, 0.000000000000000000 ) ;
#32 = DIRECTION ( 'NONE',  ( 7.837739514543064125E-17, 1.000000000000000000, -0.000000000000000000 ) ) ;
#33 = CARTESIAN_POINT ( 'NONE',  ( 0.000000000000000000, 0.000000000000000000, 0.000000000000000000 ) ) ;
#34 =( NAMED_UNIT ( * ) PLANE_ANGLE_UNIT ( ) SI_UNIT ( $, .RADIAN. ) );
#35 = FACE_OUTER_BOUND ( 'NONE', #274, .T. ) ;
#36 = CARTESIAN_POINT ( 'NONE',  ( 0.1562500000000000000, 0.4374999999999998890, 1.913510623667738847E-17 ) ) ;
#37 = STYLED_ITEM ( 'NONE', ( #210 ), #81 ) ;
#38 = UNCERTAINTY_MEASURE_WITH_UNIT (LENGTH_MEASURE( 1.000000000000000082E-05 ), #163, 'distance_accuracy_value', 'NONE');
#39 = FACE_OUTER_BOUND ( 'NONE', #70, .T. ) ;
#40 = AXIS2_PLACEMENT_3D ( 'NONE', #128, #285, #14 ) ;
#41 = DIRECTION ( 'NONE',  ( -7.837739514543064125E-17, -1.000000000000000000, 0.000000000000000000 ) ) ;
#42 = EDGE_CURVE ( 'NONE', #97, #144, #154, .T. ) ;
#43 = ORIENTED_EDGE ( 'NONE', *, *, #218, .F. ) ;
#44 = PRODUCT_RELATED_PRODUCT_CATEGORY ( 'part', '', ( #133 ) ) ;
#45 = ORIENTED_EDGE ( 'NONE', *, *, #254, .T. ) ;
#46 = COLOUR_RGB ( '',0.7921568627450980005, 0.8196078431372548767, 0.9333333333333333481 ) ;
#47 = DIRECTION ( 'NONE',  ( -1.000000000000000000, 7.837739514543064125E-17, 0.000000000000000000 ) ) ;
#48 = UNCERTAINTY_MEASURE_WITH_UNIT (LENGTH_MEASURE( 1.000000000000000082E-05 ), #7, 'distance_accuracy_value', 'NONE');
#49 = ORIENTED_EDGE ( 'NONE', *, *, #120, .F. ) ;
#50 =( NAMED_UNIT ( * ) SI_UNIT ( $, .STERADIAN. ) SOLID_ANGLE_UNIT ( ) );
#51 = EDGE_LOOP ( 'NONE', ( #201, #94, #68, #290 ) ) ;
#52 = PRESENTATION_LAYER_ASSIGNMENT (  '', '', ( #190 ) ) ;
#53 = EDGE_CURVE ( 'NONE', #97, #146, #29, .T. ) ;
#54 = LINE ( 'NONE', #153, #67 ) ;
#55 = DIRECTION ( 'NONE',  ( 1.000000000000000000, 0.000000000000000000, 0.000000000000000000 ) ) ;
#56 = STYLED_ITEM ( 'NONE', ( #181 ), #242 ) ;
#57 = DIRECTION ( 'NONE',  ( 7.837739514543064125E-17, 1.000000000000000000, -0.000000000000000000 ) ) ;
#58 = SURFACE_STYLE_FILL_AREA ( #148 ) ;
#59 =( NAMED_UNIT ( * ) PLANE_ANGLE_UNIT ( ) SI_UNIT ( $, .RADIAN. ) );
#60 = DIMENSIONAL_EXPONENTS ( 1.000000000000000000, 0.000000000000000000, 0.000000000000000000, 0.000000000000000000, 0.000000000000000000, 0.000000000000000000, 0.000000000000000000 ) ;
#61 = DIRECTION ( 'NONE',  ( -0.000000000000000000, -1.000000000000000000, -0.000000000000000000 ) ) ;
#62 = DIRECTION ( 'NONE',  ( 0.000000000000000000, 0.000000000000000000, -1.000000000000000000 ) ) ;
#63 = DIMENSIONAL_EXPONENTS ( 1.000000000000000000, 0.000000000000000000, 0.000000000000000000, 0.000000000000000000, 0.000000000000000000, 0.000000000000000000, 0.000000000000000000 ) ;
#64 = ADVANCED_FACE ( 'NONE', ( #35 ), #134, .F. ) ;
#65 = DIRECTION ( 'NONE',  ( -0.000000000000000000, -1.000000000000000000, -0.000000000000000000 ) ) ;
#66 = FACE_OUTER_BOUND ( 'NONE', #225, .T. ) ;
#67 = VECTOR ( 'NONE', #103, 39.37007874015748143 ) ;
#68 = ORIENTED_EDGE ( 'NONE', *, *, #75, .T. ) ;
#69 = FACE_OUTER_BOUND ( 'NONE', #1, .T. ) ;
#70 = EDGE_LOOP ( 'NONE', ( #72, #309, #98, #141 ) ) ;
#71 = AXIS2_PLACEMENT_3D ( 'NONE', #231, #300, #155 ) ;
#72 = ORIENTED_EDGE ( 'NONE', *, *, #131, .T. ) ;
#73 = APPLICATION_CONTEXT ( 'automotive_design' ) ;
#74 = CARTESIAN_POINT ( 'NONE',  ( 0.000000000000000000, 0.000000000000000000, 0.000000000000000000 ) ) ;
#75 = EDGE_CURVE ( 'NONE', #196, #122, #291, .T. ) ;
#76 = AXIS2_PLACEMENT_3D ( 'NONE', #145, #202, #21 ) ;
#77 = SURFACE_STYLE_FILL_AREA ( #100 ) ;
#78 = DIRECTION ( 'NONE',  ( 0.000000000000000000, 0.000000000000000000, -1.000000000000000000 ) ) ;
#79 = LENGTH_MEASURE_WITH_UNIT ( LENGTH_MEASURE( 0.02539999999999999897 ), #127 );
#80 = CARTESIAN_POINT ( 'NONE',  ( 0.000000000000000000, 0.000000000000000000, 0.000000000000000000 ) ) ;
#81 = MANIFOLD_SOLID_BREP ( 'Revolve - Tool Body (Straight Shanked)', #101 ) ;
#82 = ORIENTED_EDGE ( 'NONE', *, *, #110, .F. ) ;
#83 = CYLINDRICAL_SURFACE ( 'NONE', #194, 0.1562499999999999445 ) ;
#84 = STYLED_ITEM ( 'NONE', ( #226 ), #208 ) ;
#85 =( GEOMETRIC_REPRESENTATION_CONTEXT ( 3 ) GLOBAL_UNCERTAINTY_ASSIGNED_CONTEXT ( ( #211 ) ) GLOBAL_UNIT_ASSIGNED_CONTEXT ( ( #176, #271, #50 ) ) REPRESENTATION_CONTEXT ( 'NONE', 'WORKASPACE' ) );
#86 = MANIFOLD_SOLID_BREP ( 'Revolve - Cutting Edge', #255 ) ;
#87 = LENGTH_MEASURE_WITH_UNIT ( LENGTH_MEASURE( 0.02539999999999999897 ), #216 );
#88 = AXIS2_PLACEMENT_3D ( 'NONE', #240, #215, #188 ) ;
#89 = FILL_AREA_STYLE ('',( #246 ) ) ;
#90 = SURFACE_STYLE_USAGE ( .BOTH. , #220 ) ;
#91 = APPLICATION_CONTEXT ( 'automotive_design' ) ;
#92 =( NAMED_UNIT ( * ) SI_UNIT ( $, .STERADIAN. ) SOLID_ANGLE_UNIT ( ) );
#93 = AXIS2_PLACEMENT_3D ( 'NONE', #266, #41, #138 ) ;
#94 = ORIENTED_EDGE ( 'NONE', *, *, #120, .T. ) ;
#95 = CARTESIAN_POINT ( 'NONE',  ( 0.000000000000000000, 0.4374999999999998890, 0.000000000000000000 ) ) ;
#96 = CARTESIAN_POINT ( 'NONE',  ( 0.000000000000000000, 0.4374999999999998890, -0.1562500000000000000 ) ) ;
#97 = VERTEX_POINT ( 'NONE', #256 ) ;
#98 = ORIENTED_EDGE ( 'NONE', *, *, #207, .F. ) ;
#99 = DIRECTION ( 'NONE',  ( 7.837739514543064125E-17, 1.000000000000000000, -0.000000000000000000 ) ) ;
#100 = FILL_AREA_STYLE ('',( #151 ) ) ;
#101 = CLOSED_SHELL ( 'NONE', ( #282, #64, #263, #183 ) ) ;
#102 = CIRCLE ( 'NONE', #111, 0.1562500000000000000 ) ;
#103 = DIRECTION ( 'NONE',  ( 7.837739514543064125E-17, 1.000000000000000000, -0.000000000000000000 ) ) ;
#104 = SURFACE_STYLE_FILL_AREA ( #230 ) ;
#105 = DIRECTION ( 'NONE',  ( -0.000000000000000000, -1.000000000000000000, -0.000000000000000000 ) ) ;
#106 = FILL_AREA_STYLE ('',( #184 ) ) ;
#107 = AXIS2_PLACEMENT_3D ( 'NONE', #8, #205, #78 ) ;
#108 = FILL_AREA_STYLE_COLOUR ( '', #270 ) ;
#109 = DIMENSIONAL_EXPONENTS ( 1.000000000000000000, 0.000000000000000000, 0.000000000000000000, 0.000000000000000000, 0.000000000000000000, 0.000000000000000000, 0.000000000000000000 ) ;
#110 = EDGE_CURVE ( 'NONE', #118, #146, #130, .T. ) ;
#111 = AXIS2_PLACEMENT_3D ( 'NONE', #142, #249, #251 ) ;
#112 = SURFACE_STYLE_FILL_AREA ( #89 ) ;
#113 = UNCERTAINTY_MEASURE_WITH_UNIT (LENGTH_MEASURE( 1.000000000000000082E-05 ), #114, 'distance_accuracy_value', 'NONE');
#114 =( CONVERSION_BASED_UNIT ( 'INCH', #87 ) LENGTH_UNIT ( ) NAMED_UNIT ( #109 ) );
#115 = ORIENTED_EDGE ( 'NONE', *, *, #53, .T. ) ;
#116 = DIRECTION ( 'NONE',  ( 0.000000000000000000, 0.000000000000000000, -1.000000000000000000 ) ) ;
#117 =( GEOMETRIC_REPRESENTATION_CONTEXT ( 3 ) GLOBAL_UNCERTAINTY_ASSIGNED_CONTEXT ( ( #4 ) ) GLOBAL_UNIT_ASSIGNED_CONTEXT ( ( #228, #179, #276 ) ) REPRESENTATION_CONTEXT ( 'NONE', 'WORKASPACE' ) );
#118 = VERTEX_POINT ( 'NONE', #217 ) ;
#119 = FILL_AREA_STYLE_COLOUR ( '', #169 ) ;
#120 = EDGE_CURVE ( 'NONE', #273, #196, #284, .T. ) ;
#121 = PRESENTATION_LAYER_ASSIGNMENT (  '', '', ( #37 ) ) ;
#122 = VERTEX_POINT ( 'NONE', #243 ) ;
#123 = DIRECTION ( 'NONE',  ( -1.000000000000000000, 0.000000000000000000, 0.000000000000000000 ) ) ;
#124 = AXIS2_PLACEMENT_3D ( 'NONE', #167, #287, #222 ) ;
#125 =( GEOMETRIC_REPRESENTATION_CONTEXT ( 3 ) GLOBAL_UNCERTAINTY_ASSIGNED_CONTEXT ( ( #200 ) ) GLOBAL_UNIT_ASSIGNED_CONTEXT ( ( #186, #23, #257 ) ) REPRESENTATION_CONTEXT ( 'NONE', 'WORKASPACE' ) );
#126 = SURFACE_SIDE_STYLE ('',( #104 ) ) ;
#127 =( LENGTH_UNIT ( ) NAMED_UNIT ( * ) SI_UNIT ( $, .METRE. ) );
#128 = CARTESIAN_POINT ( 'NONE',  ( 1.224646799147353700E-16, 2.000000000000000000, 0.000000000000000000 ) ) ;
#129 =( NAMED_UNIT ( * ) PLANE_ANGLE_UNIT ( ) SI_UNIT ( $, .RADIAN. ) );
#130 = CIRCLE ( 'NONE', #40, 0.1562499999999998612 ) ;
#131 = EDGE_CURVE ( 'NONE', #196, #273, #292, .T. ) ;
#132 = DIMENSIONAL_EXPONENTS ( 1.000000000000000000, 0.000000000000000000, 0.000000000000000000, 0.000000000000000000, 0.000000000000000000, 0.000000000000000000, 0.000000000000000000 ) ;
#133 = PRODUCT ( '83305', '83305', '', ( #277 ) ) ;
#134 = PLANE ( 'NONE',  #268 ) ;
#135 = CARTESIAN_POINT ( 'NONE',  ( 1.913510623667739463E-17, 0.4374999999999998890, 0.1562500000000000000 ) ) ;
#136 = PRESENTATION_LAYER_ASSIGNMENT (  '', '', ( #288 ) ) ;
#137 =( NAMED_UNIT ( * ) SI_UNIT ( $, .STERADIAN. ) SOLID_ANGLE_UNIT ( ) );
#138 = DIRECTION ( 'NONE',  ( 1.000000000000000000, -7.837739514543064125E-17, 0.000000000000000000 ) ) ;
#139 = ORIENTED_EDGE ( 'NONE', *, *, #207, .T. ) ;
#140 = DIRECTION ( 'NONE',  ( 0.000000000000000000, 0.000000000000000000, -1.000000000000000000 ) ) ;
#141 = ORIENTED_EDGE ( 'NONE', *, *, #75, .F. ) ;
#142 = CARTESIAN_POINT ( 'NONE',  ( 0.000000000000000000, 0.000000000000000000, 0.000000000000000000 ) ) ;
#143 = MECHANICAL_DESIGN_GEOMETRIC_PRESENTATION_REPRESENTATION (  '', ( #84 ), #117 ) ;
#144 = VERTEX_POINT ( 'NONE', #36 ) ;
#145 = CARTESIAN_POINT ( 'NONE',  ( 0.000000000000000000, 0.4374999999999998890, 0.000000000000000000 ) ) ;
#146 = VERTEX_POINT ( 'NONE', #262 ) ;
#147 = FILL_AREA_STYLE ('',( #119 ) ) ;
#148 = FILL_AREA_STYLE ('',( #108 ) ) ;
#149 = CIRCLE ( 'NONE', #229, 0.1562500000000000000 ) ;
#150 = AXIS2_PLACEMENT_3D ( 'NONE', #80, #6, #55 ) ;
#151 = FILL_AREA_STYLE_COLOUR ( '', #272 ) ;
#152 = PLANE ( 'NONE',  #76 ) ;
#153 = CARTESIAN_POINT ( 'NONE',  ( 0.1562500000000000833, 2.000000000000000000, 1.913510623667738539E-17 ) ) ;
#154 = CIRCLE ( 'NONE', #88, 0.1562500000000000000 ) ;
#155 = DIRECTION ( 'NONE',  ( -1.000000000000000000, 0.000000000000000000, 0.000000000000000000 ) ) ;
#156 = PRODUCT_DEFINITION ( 'UNKNOWN', '', #298, #182 ) ;
#157 = STYLED_ITEM ( 'NONE', ( #161 ), #295 ) ;
#158 = ORIENTED_EDGE ( 'NONE', *, *, #261, .F. ) ;
#159 = DIRECTION ( 'NONE',  ( -1.000000000000000000, 0.000000000000000000, 0.000000000000000000 ) ) ;
#160 = PRODUCT_DEFINITION_SHAPE ( 'NONE', 'NONE',  #156 ) ;
#161 = PRESENTATION_STYLE_ASSIGNMENT (( #219 ) ) ;
#162 = DIMENSIONAL_EXPONENTS ( 1.000000000000000000, 0.000000000000000000, 0.000000000000000000, 0.000000000000000000, 0.000000000000000000, 0.000000000000000000, 0.000000000000000000 ) ;
#163 =( CONVERSION_BASED_UNIT ( 'INCH', #16 ) LENGTH_UNIT ( ) NAMED_UNIT ( #132 ) );
#164 = PRESENTATION_STYLE_ASSIGNMENT (( #18 ) ) ;
#165 = CARTESIAN_POINT ( 'NONE',  ( 4.799231304517948929E-34, 0.4374999999999998890, 0.000000000000000000 ) ) ;
#166 = MECHANICAL_DESIGN_GEOMETRIC_PRESENTATION_REPRESENTATION (  '', ( #37 ), #125 ) ;
#167 = CARTESIAN_POINT ( 'NONE',  ( 0.000000000000000000, 0.000000000000000000, 0.000000000000000000 ) ) ;
#168 = AXIS2_PLACEMENT_3D ( 'NONE', #306, #239, #140 ) ;
#169 = COLOUR_RGB ( '',1.000000000000000000, 0.000000000000000000, 0.000000000000000000 ) ;
#170 = PLANE ( 'NONE',  #93 ) ;
#171 = ORIENTED_EDGE ( 'NONE', *, *, #3, .T. ) ;
#172 =( CONVERSION_BASED_UNIT ( 'INCH', #307 ) LENGTH_UNIT ( ) NAMED_UNIT ( #31 ) );
#173 = ADVANCED_FACE ( 'NONE', ( #39 ), #17, .T. ) ;
#174 = SURFACE_STYLE_USAGE ( .BOTH. , #253 ) ;
#175 =( LENGTH_UNIT ( ) NAMED_UNIT ( * ) SI_UNIT ( $, .METRE. ) );
#176 =( CONVERSION_BASED_UNIT ( 'INCH', #199 ) LENGTH_UNIT ( ) NAMED_UNIT ( #162 ) );
#177 = ORIENTED_EDGE ( 'NONE', *, *, #261, .T. ) ;
#178 = FACE_OUTER_BOUND ( 'NONE', #51, .T. ) ;
#179 =( NAMED_UNIT ( * ) PLANE_ANGLE_UNIT ( ) SI_UNIT ( $, .RADIAN. ) );
#180 = ADVANCED_BREP_SHAPE_REPRESENTATION ( '83305', ( #86, #81, #150 ), #85 ) ;
#181 = PRESENTATION_STYLE_ASSIGNMENT (( #212 ) ) ;
#182 = PRODUCT_DEFINITION_CONTEXT ( 'detailed design', #91, 'design' ) ;
#183 = ADVANCED_FACE ( 'NONE', ( #66 ), #170, .F. ) ;
#184 = FILL_AREA_STYLE_COLOUR ( '', #46 ) ;
#185 = ORIENTED_EDGE ( 'NONE', *, *, #131, .F. ) ;
#186 =( CONVERSION_BASED_UNIT ( 'INCH', #189 ) LENGTH_UNIT ( ) NAMED_UNIT ( #11 ) );
#187 =( GEOMETRIC_REPRESENTATION_CONTEXT ( 3 ) GLOBAL_UNCERTAINTY_ASSIGNED_CONTEXT ( ( #38 ) ) GLOBAL_UNIT_ASSIGNED_CONTEXT ( ( #163, #34, #137 ) ) REPRESENTATION_CONTEXT ( 'NONE', 'WORKASPACE' ) );
#188 = DIRECTION ( 'NONE',  ( -1.000000000000000000, 0.000000000000000000, 0.000000000000000000 ) ) ;
#189 = LENGTH_MEASURE_WITH_UNIT ( LENGTH_MEASURE( 0.02539999999999999897 ), #10 );
#190 = STYLED_ITEM ( 'NONE', ( #164 ), #86 ) ;
#191 =( NAMED_UNIT ( * ) PLANE_ANGLE_UNIT ( ) SI_UNIT ( $, .RADIAN. ) );
#192 = CIRCLE ( 'NONE', #281, 0.1562500000000000000 ) ;
#193 = EDGE_LOOP ( 'NONE', ( #299, #45, #43, #25 ) ) ;
#194 = AXIS2_PLACEMENT_3D ( 'NONE', #279, #259, #232 ) ;
#195 = ORIENTED_EDGE ( 'NONE', *, *, #254, .F. ) ;
#196 = VERTEX_POINT ( 'NONE', #96 ) ;
#197 = LENGTH_MEASURE_WITH_UNIT ( LENGTH_MEASURE( 0.02539999999999999897 ), #175 );
#198 = PRESENTATION_LAYER_ASSIGNMENT (  '', '', ( #56 ) ) ;
#199 = LENGTH_MEASURE_WITH_UNIT ( LENGTH_MEASURE( 0.02539999999999999897 ), #302 );
#200 = UNCERTAINTY_MEASURE_WITH_UNIT (LENGTH_MEASURE( 1.000000000000000082E-05 ), #186, 'distance_accuracy_value', 'NONE');
#201 = ORIENTED_EDGE ( 'NONE', *, *, #238, .F. ) ;
#202 = DIRECTION ( 'NONE',  ( 0.000000000000000000, 1.000000000000000000, 0.000000000000000000 ) ) ;
#203 = ORIENTED_EDGE ( 'NONE', *, *, #110, .T. ) ;
#204 = PLANE ( 'NONE',  #289 ) ;
#205 = DIRECTION ( 'NONE',  ( -0.000000000000000000, -1.000000000000000000, -0.000000000000000000 ) ) ;
#206 =( GEOMETRIC_REPRESENTATION_CONTEXT ( 3 ) GLOBAL_UNCERTAINTY_ASSIGNED_CONTEXT ( ( #26 ) ) GLOBAL_UNIT_ASSIGNED_CONTEXT ( ( #172, #191, #92 ) ) REPRESENTATION_CONTEXT ( 'NONE', 'WORKASPACE' ) );
#207 = EDGE_CURVE ( 'NONE', #122, #267, #102, .T. ) ;
#208 = ADVANCED_FACE ( 'NONE', ( #69 ), #152, .T. ) ;
#209 = FILL_AREA_STYLE_COLOUR ( '', #260 ) ;
#210 = PRESENTATION_STYLE_ASSIGNMENT (( #5 ) ) ;
#211 = UNCERTAINTY_MEASURE_WITH_UNIT (LENGTH_MEASURE( 1.000000000000000082E-05 ), #176, 'distance_accuracy_value', 'NONE');
#212 = SURFACE_STYLE_USAGE ( .BOTH. , #126 ) ;
#213 = FACE_OUTER_BOUND ( 'NONE', #247, .T. ) ;
#214 =( GEOMETRIC_REPRESENTATION_CONTEXT ( 3 ) GLOBAL_UNCERTAINTY_ASSIGNED_CONTEXT ( ( #48 ) ) GLOBAL_UNIT_ASSIGNED_CONTEXT ( ( #7, #59, #301 ) ) REPRESENTATION_CONTEXT ( 'NONE', 'WORKASPACE' ) );
#215 = DIRECTION ( 'NONE',  ( 7.837739514543064125E-17, 1.000000000000000000, -0.000000000000000000 ) ) ;
#216 =( LENGTH_UNIT ( ) NAMED_UNIT ( * ) SI_UNIT ( $, .METRE. ) );
#217 = CARTESIAN_POINT ( 'NONE',  ( 0.1562500000000000000, 2.000000000000000000, 1.913510623667738847E-17 ) ) ;
#218 = EDGE_CURVE ( 'NONE', #146, #118, #297, .T. ) ;
#219 = SURFACE_STYLE_USAGE ( .BOTH. , #278 ) ;
#220 = SURFACE_SIDE_STYLE ('',( #112 ) ) ;
#221 =( NAMED_UNIT ( * ) SI_UNIT ( $, .STERADIAN. ) SOLID_ANGLE_UNIT ( ) );
#222 = DIRECTION ( 'NONE',  ( 0.000000000000000000, 0.000000000000000000, -1.000000000000000000 ) ) ;
#223 = ORIENTED_EDGE ( 'NONE', *, *, #218, .T. ) ;
#224 = PRESENTATION_STYLE_ASSIGNMENT (( #90 ) ) ;
#225 = EDGE_LOOP ( 'NONE', ( #223, #203 ) ) ;
#226 = PRESENTATION_STYLE_ASSIGNMENT (( #174 ) ) ;
#227 = LINE ( 'NONE', #2, #24 ) ;
#228 =( CONVERSION_BASED_UNIT ( 'INCH', #197 ) LENGTH_UNIT ( ) NAMED_UNIT ( #63 ) );
#229 = AXIS2_PLACEMENT_3D ( 'NONE', #27, #57, #159 ) ;
#230 = FILL_AREA_STYLE ('',( #209 ) ) ;
#231 = CARTESIAN_POINT ( 'NONE',  ( 1.224646799147353700E-16, 2.000000000000000000, 0.000000000000000000 ) ) ;
#232 = DIRECTION ( 'NONE',  ( -1.000000000000000000, 0.000000000000000000, 0.000000000000000000 ) ) ;
#233 = MECHANICAL_DESIGN_GEOMETRIC_PRESENTATION_REPRESENTATION (  '', ( #56 ), #214 ) ;
#234 =( GEOMETRIC_REPRESENTATION_CONTEXT ( 3 ) GLOBAL_UNCERTAINTY_ASSIGNED_CONTEXT ( ( #113 ) ) GLOBAL_UNIT_ASSIGNED_CONTEXT ( ( #114, #129, #221 ) ) REPRESENTATION_CONTEXT ( 'NONE', 'WORKASPACE' ) );
#235 = SURFACE_SIDE_STYLE ('',( #58 ) ) ;
#236 = DIRECTION ( 'NONE',  ( 0.000000000000000000, -1.000000000000000000, -0.000000000000000000 ) ) ;
#237 = SURFACE_SIDE_STYLE ('',( #283 ) ) ;
#238 = EDGE_CURVE ( 'NONE', #273, #267, #227, .T. ) ;
#239 = DIRECTION ( 'NONE',  ( -0.000000000000000000, -1.000000000000000000, -0.000000000000000000 ) ) ;
#240 = CARTESIAN_POINT ( 'NONE',  ( 0.000000000000000000, 0.4374999999999998890, 0.000000000000000000 ) ) ;
#241 = AXIS2_PLACEMENT_3D ( 'NONE', #252, #99, #123 ) ;
#242 = ADVANCED_FACE ( 'NONE', ( #178 ), #275, .T. ) ;
#243 = CARTESIAN_POINT ( 'NONE',  ( 0.000000000000000000, 0.000000000000000000, -0.1562500000000000000 ) ) ;
#244 = VECTOR ( 'NONE', #32, 39.37007874015748143 ) ;
#245 = EDGE_LOOP ( 'NONE', ( #139, #171 ) ) ;
#246 = FILL_AREA_STYLE_COLOUR ( '', #248 ) ;
#247 = EDGE_LOOP ( 'NONE', ( #195, #177, #115, #82 ) ) ;
#248 = COLOUR_RGB ( '',1.000000000000000000, 0.000000000000000000, 0.000000000000000000 ) ;
#249 = DIRECTION ( 'NONE',  ( -0.000000000000000000, -1.000000000000000000, -0.000000000000000000 ) ) ;
#250 = DIRECTION ( 'NONE',  ( 7.837739514543064125E-17, 1.000000000000000000, -0.000000000000000000 ) ) ;
#251 = DIRECTION ( 'NONE',  ( 0.000000000000000000, 0.000000000000000000, -1.000000000000000000 ) ) ;
#252 = CARTESIAN_POINT ( 'NONE',  ( 1.224646799147353700E-16, 2.000000000000000000, 0.000000000000000000 ) ) ;
#253 = SURFACE_SIDE_STYLE ('',( #22 ) ) ;
#254 = EDGE_CURVE ( 'NONE', #144, #118, #54, .T. ) ;
#255 = CLOSED_SHELL ( 'NONE', ( #173, #208, #242, #295 ) ) ;
#256 = CARTESIAN_POINT ( 'NONE',  ( -0.1562500000000000000, 0.4374999999999998890, 0.000000000000000000 ) ) ;
#257 =( NAMED_UNIT ( * ) SI_UNIT ( $, .STERADIAN. ) SOLID_ANGLE_UNIT ( ) );
#258 = SHAPE_DEFINITION_REPRESENTATION ( #160, #180 ) ;
#259 = DIRECTION ( 'NONE',  ( 7.837739514543064125E-17, 1.000000000000000000, -0.000000000000000000 ) ) ;
#260 = COLOUR_RGB ( '',1.000000000000000000, 0.000000000000000000, 0.000000000000000000 ) ;
#261 = EDGE_CURVE ( 'NONE', #144, #97, #149, .T. ) ;
#262 = CARTESIAN_POINT ( 'NONE',  ( -0.1562499999999997224, 2.000000000000000000, 0.000000000000000000 ) ) ;
#263 = ADVANCED_FACE ( 'NONE', ( #213 ), #83, .T. ) ;
#264 = DIRECTION ( 'NONE',  ( 0.000000000000000000, 0.000000000000000000, -1.000000000000000000 ) ) ;
#265 = FACE_OUTER_BOUND ( 'NONE', #193, .T. ) ;
#266 = CARTESIAN_POINT ( 'NONE',  ( 0.1562500000000000000, 2.000000000000000000, 0.000000000000000000 ) ) ;
#267 = VERTEX_POINT ( 'NONE', #305 ) ;
#268 = AXIS2_PLACEMENT_3D ( 'NONE', #165, #250, #47 ) ;
#269 = CYLINDRICAL_SURFACE ( 'NONE', #71, 0.1562499999999999445 ) ;
#270 = COLOUR_RGB ( '',0.7921568627450980005, 0.8196078431372548767, 0.9333333333333333481 ) ;
#271 =( NAMED_UNIT ( * ) PLANE_ANGLE_UNIT ( ) SI_UNIT ( $, .RADIAN. ) );
#272 = COLOUR_RGB ( '',1.000000000000000000, 0.000000000000000000, 0.000000000000000000 ) ;
#273 = VERTEX_POINT ( 'NONE', #135 ) ;
#274 = EDGE_LOOP ( 'NONE', ( #293, #158 ) ) ;
#275 = CYLINDRICAL_SURFACE ( 'NONE', #107, 0.1562500000000000000 ) ;
#276 =( NAMED_UNIT ( * ) SI_UNIT ( $, .STERADIAN. ) SOLID_ANGLE_UNIT ( ) );
#277 = PRODUCT_CONTEXT ( 'NONE', #73, 'mechanical' ) ;
#278 = SURFACE_SIDE_STYLE ('',( #77 ) ) ;
#279 = CARTESIAN_POINT ( 'NONE',  ( 1.224646799147353700E-16, 2.000000000000000000, 0.000000000000000000 ) ) ;
#280 = FACE_OUTER_BOUND ( 'NONE', #245, .T. ) ;
#281 = AXIS2_PLACEMENT_3D ( 'NONE', #74, #65, #264 ) ;
#282 = ADVANCED_FACE ( 'NONE', ( #265 ), #269, .T. ) ;
#283 = SURFACE_STYLE_FILL_AREA ( #106 ) ;
#284 = CIRCLE ( 'NONE', #303, 0.1562500000000000000 ) ;
#285 = DIRECTION ( 'NONE',  ( 7.837739514543064125E-17, 1.000000000000000000, -0.000000000000000000 ) ) ;
#286 =( LENGTH_UNIT ( ) NAMED_UNIT ( * ) SI_UNIT ( $, .METRE. ) );
#287 = DIRECTION ( 'NONE',  ( -0.000000000000000000, -1.000000000000000000, -0.000000000000000000 ) ) ;
#288 = STYLED_ITEM ( 'NONE', ( #224 ), #173 ) ;
#289 = AXIS2_PLACEMENT_3D ( 'NONE', #33, #236, #62 ) ;
#290 = ORIENTED_EDGE ( 'NONE', *, *, #3, .F. ) ;
#291 = LINE ( 'NONE', #28, #13 ) ;
#292 = CIRCLE ( 'NONE', #168, 0.1562500000000000000 ) ;
#293 = ORIENTED_EDGE ( 'NONE', *, *, #42, .F. ) ;
#294 = DIRECTION ( 'NONE',  ( -0.000000000000000000, -1.000000000000000000, -0.000000000000000000 ) ) ;
#295 = ADVANCED_FACE ( 'NONE', ( #280 ), #204, .T. ) ;
#296 = APPLICATION_PROTOCOL_DEFINITION ( 'draft international standard', 'automotive_design', 1998, #91 ) ;
#297 = CIRCLE ( 'NONE', #241, 0.1562499999999998612 ) ;
#298 = PRODUCT_DEFINITION_FORMATION_WITH_SPECIFIED_SOURCE ( 'ANY', '', #133, .NOT_KNOWN. ) ;
#299 = ORIENTED_EDGE ( 'NONE', *, *, #42, .T. ) ;
#300 = DIRECTION ( 'NONE',  ( 7.837739514543064125E-17, 1.000000000000000000, -0.000000000000000000 ) ) ;
#301 =( NAMED_UNIT ( * ) SI_UNIT ( $, .STERADIAN. ) SOLID_ANGLE_UNIT ( ) );
#302 =( LENGTH_UNIT ( ) NAMED_UNIT ( * ) SI_UNIT ( $, .METRE. ) );
#303 = AXIS2_PLACEMENT_3D ( 'NONE', #95, #61, #116 ) ;
#304 =( LENGTH_UNIT ( ) NAMED_UNIT ( * ) SI_UNIT ( $, .METRE. ) );
#305 = CARTESIAN_POINT ( 'NONE',  ( 1.913510623667739463E-17, 0.000000000000000000, 0.1562500000000000000 ) ) ;
#306 = CARTESIAN_POINT ( 'NONE',  ( 0.000000000000000000, 0.4374999999999998890, 0.000000000000000000 ) ) ;
#307 = LENGTH_MEASURE_WITH_UNIT ( LENGTH_MEASURE( 0.02539999999999999897 ), #304 );
#308 = MECHANICAL_DESIGN_GEOMETRIC_PRESENTATION_REPRESENTATION (  '', ( #190 ), #206 ) ;
#309 = ORIENTED_EDGE ( 'NONE', *, *, #238, .T. ) ;
ENDSEC;
END-ISO-10303-21;
