ISO-10303-21;
HEADER;
FILE_DESCRIPTION (( 'STEP AP214' ),
    '1' );
FILE_NAME ('48510.STEP',
    '2023-06-22T21:43:23',
    ( '' ),
    ( '' ),
    'SwSTEP 2.0',
    'SolidWorks 2023',
    '' );
FILE_SCHEMA (( 'AUTOMOTIVE_DESIGN' ));
ENDSEC;

DATA;
#1 =( GEOMETRIC_REPRESENTATION_CONTEXT ( 3 ) GLOBAL_UNCERTAINTY_ASSIGNED_CONTEXT ( ( #189 ) ) GLOBAL_UNIT_ASSIGNED_CONTEXT ( ( #62, #219, #53 ) ) REPRESENTATION_CONTEXT ( 'NONE', 'WORKASPACE' ) );
#2 = PRODUCT_DEFINITION_FORMATION_WITH_SPECIFIED_SOURCE ( 'ANY', '', #157, .NOT_KNOWN. ) ;
#3 = DIRECTION ( 'NONE',  ( -0.000000000000000000, -1.000000000000000000, -0.000000000000000000 ) ) ;
#4 = EDGE_CURVE ( 'NONE', #165, #72, #299, .T. ) ;
#5 = PLANE ( 'NONE',  #293 ) ;
#6 = AXIS2_PLACEMENT_3D ( 'NONE', #127, #146, #148 ) ;
#7 = EDGE_LOOP ( 'NONE', ( #94, #210, #89, #151 ) ) ;
#8 = LINE ( 'NONE', #297, #173 ) ;
#9 = ORIENTED_EDGE ( 'NONE', *, *, #38, .T. ) ;
#10 = SURFACE_SIDE_STYLE ('',( #32 ) ) ;
#11 = CIRCLE ( 'NONE', #172, 0.3125000000000000000 ) ;
#12 = PRESENTATION_LAYER_ASSIGNMENT (  '', '', ( #241 ) ) ;
#13 = ORIENTED_EDGE ( 'NONE', *, *, #280, .T. ) ;
#14 = PLANE ( 'NONE',  #129 ) ;
#15 = CARTESIAN_POINT ( 'NONE',  ( 0.3125000000000000000, 3.500000000000000000, 0.000000000000000000 ) ) ;
#16 = CARTESIAN_POINT ( 'NONE',  ( 0.3124999999999999445, 3.500000000000000000, 3.827021247335478926E-17 ) ) ;
#17 = EDGE_CURVE ( 'NONE', #66, #36, #245, .T. ) ;
#18 = DIRECTION ( 'NONE',  ( 0.000000000000000000, -1.000000000000000000, -0.000000000000000000 ) ) ;
#19 = CARTESIAN_POINT ( 'NONE',  ( 0.000000000000000000, 1.250000000000000000, 0.000000000000000000 ) ) ;
#20 = PRESENTATION_LAYER_ASSIGNMENT (  '', '', ( #198 ) ) ;
#21 = VECTOR ( 'NONE', #294, 39.37007874015748143 ) ;
#22 = CARTESIAN_POINT ( 'NONE',  ( 0.3125000000000000000, 3.500000000000000000, 3.827021247335478926E-17 ) ) ;
#23 = EDGE_CURVE ( 'NONE', #66, #186, #233, .T. ) ;
#24 = CARTESIAN_POINT ( 'NONE',  ( 3.827021247335478926E-17, 0.000000000000000000, 0.3125000000000000000 ) ) ;
#25 = DIMENSIONAL_EXPONENTS ( 1.000000000000000000, 0.000000000000000000, 0.000000000000000000, 0.000000000000000000, 0.000000000000000000, 0.000000000000000000, 0.000000000000000000 ) ;
#26 = AXIS2_PLACEMENT_3D ( 'NONE', #19, #143, #302 ) ;
#27 = AXIS2_PLACEMENT_3D ( 'NONE', #65, #135, #134 ) ;
#28 = CARTESIAN_POINT ( 'NONE',  ( -0.3125000000000000000, 1.250000000000000000, 0.000000000000000000 ) ) ;
#29 = STYLED_ITEM ( 'NONE', ( #281 ), #49 ) ;
#30 = CYLINDRICAL_SURFACE ( 'NONE', #204, 0.3125000000000000000 ) ;
#31 =( NAMED_UNIT ( * ) SI_UNIT ( $, .STERADIAN. ) SOLID_ANGLE_UNIT ( ) );
#32 = SURFACE_STYLE_FILL_AREA ( #234 ) ;
#33 = AXIS2_PLACEMENT_3D ( 'NONE', #249, #18, #125 ) ;
#34 = FILL_AREA_STYLE_COLOUR ( '', #117 ) ;
#35 = UNCERTAINTY_MEASURE_WITH_UNIT (LENGTH_MEASURE( 1.000000000000000082E-05 ), #188, 'distance_accuracy_value', 'NONE');
#36 = VERTEX_POINT ( 'NONE', #22 ) ;
#37 = DIRECTION ( 'NONE',  ( 0.000000000000000000, 0.000000000000000000, -1.000000000000000000 ) ) ;
#38 = EDGE_CURVE ( 'NONE', #118, #36, #187, .T. ) ;
#39 = EDGE_LOOP ( 'NONE', ( #291, #87 ) ) ;
#40 = DIRECTION ( 'NONE',  ( -0.000000000000000000, -1.000000000000000000, -0.000000000000000000 ) ) ;
#41 =( LENGTH_UNIT ( ) NAMED_UNIT ( * ) SI_UNIT ( $, .METRE. ) );
#42 = EDGE_LOOP ( 'NONE', ( #262, #64 ) ) ;
#43 = ORIENTED_EDGE ( 'NONE', *, *, #243, .T. ) ;
#44 = AXIS2_PLACEMENT_3D ( 'NONE', #99, #201, #121 ) ;
#45 =( GEOMETRIC_REPRESENTATION_CONTEXT ( 3 ) GLOBAL_UNCERTAINTY_ASSIGNED_CONTEXT ( ( #63 ) ) GLOBAL_UNIT_ASSIGNED_CONTEXT ( ( #88, #194, #275 ) ) REPRESENTATION_CONTEXT ( 'NONE', 'WORKASPACE' ) );
#46 = CARTESIAN_POINT ( 'NONE',  ( -0.3125000000000001665, 3.500000000000000000, 0.000000000000000000 ) ) ;
#47 = UNCERTAINTY_MEASURE_WITH_UNIT (LENGTH_MEASURE( 1.000000000000000082E-05 ), #216, 'distance_accuracy_value', 'NONE');
#48 = SURFACE_SIDE_STYLE ('',( #179 ) ) ;
#49 = MANIFOLD_SOLID_BREP ( 'Revolve - Tool Body (Straight Shanked)', #272 ) ;
#50 = FACE_OUTER_BOUND ( 'NONE', #111, .T. ) ;
#51 = CARTESIAN_POINT ( 'NONE',  ( 1.157222054523036369E-34, 1.250000000000000000, 0.000000000000000000 ) ) ;
#52 = SURFACE_SIDE_STYLE ('',( #270 ) ) ;
#53 =( NAMED_UNIT ( * ) SI_UNIT ( $, .STERADIAN. ) SOLID_ANGLE_UNIT ( ) );
#54 = LENGTH_MEASURE_WITH_UNIT ( LENGTH_MEASURE( 0.02539999999999999897 ), #209 );
#55 = FACE_OUTER_BOUND ( 'NONE', #136, .T. ) ;
#56 = FILL_AREA_STYLE_COLOUR ( '', #81 ) ;
#57 = SURFACE_SIDE_STYLE ('',( #309 ) ) ;
#58 = UNCERTAINTY_MEASURE_WITH_UNIT (LENGTH_MEASURE( 1.000000000000000082E-05 ), #159, 'distance_accuracy_value', 'NONE');
#59 = DIMENSIONAL_EXPONENTS ( 1.000000000000000000, 0.000000000000000000, 0.000000000000000000, 0.000000000000000000, 0.000000000000000000, 0.000000000000000000, 0.000000000000000000 ) ;
#60 = DIRECTION ( 'NONE',  ( -1.000000000000000000, 0.000000000000000000, 0.000000000000000000 ) ) ;
#61 = ORIENTED_EDGE ( 'NONE', *, *, #259, .F. ) ;
#62 =( CONVERSION_BASED_UNIT ( 'INCH', #217 ) LENGTH_UNIT ( ) NAMED_UNIT ( #108 ) );
#63 = UNCERTAINTY_MEASURE_WITH_UNIT (LENGTH_MEASURE( 1.000000000000000082E-05 ), #88, 'distance_accuracy_value', 'NONE');
#64 = ORIENTED_EDGE ( 'NONE', *, *, #23, .F. ) ;
#65 = CARTESIAN_POINT ( 'NONE',  ( -6.123233995736759873E-17, 3.500000000000000000, 0.000000000000000000 ) ) ;
#66 = VERTEX_POINT ( 'NONE', #70 ) ;
#67 = LENGTH_MEASURE_WITH_UNIT ( LENGTH_MEASURE( 0.02539999999999999897 ), #41 );
#68 = FILL_AREA_STYLE ('',( #304 ) ) ;
#69 = COLOUR_RGB ( '',1.000000000000000000, 0.000000000000000000, 0.000000000000000000 ) ;
#70 = CARTESIAN_POINT ( 'NONE',  ( 0.3125000000000000000, 1.250000000000000000, 3.827021247335478926E-17 ) ) ;
#71 = AXIS2_PLACEMENT_3D ( 'NONE', #244, #137, #37 ) ;
#72 = VERTEX_POINT ( 'NONE', #155 ) ;
#73 = FILL_AREA_STYLE_COLOUR ( '', #77 ) ;
#74 = STYLED_ITEM ( 'NONE', ( #168 ), #208 ) ;
#75 = SURFACE_STYLE_USAGE ( .BOTH. , #185 ) ;
#76 = ADVANCED_FACE ( 'NONE', ( #50 ), #149, .T. ) ;
#77 = COLOUR_RGB ( '',0.7921568627450980005, 0.8196078431372548767, 0.9333333333333333481 ) ;
#78 = CARTESIAN_POINT ( 'NONE',  ( 0.000000000000000000, 1.250000000000000000, 0.000000000000000000 ) ) ;
#79 =( LENGTH_UNIT ( ) NAMED_UNIT ( * ) SI_UNIT ( $, .METRE. ) );
#80 = CIRCLE ( 'NONE', #192, 0.3125000000000000000 ) ;
#81 = COLOUR_RGB ( '',1.000000000000000000, 0.000000000000000000, 0.000000000000000000 ) ;
#82 = FACE_OUTER_BOUND ( 'NONE', #7, .T. ) ;
#83 = DIRECTION ( 'NONE',  ( -2.721437331438560697E-17, 1.000000000000000000, -0.000000000000000000 ) ) ;
#84 = PRODUCT_DEFINITION ( 'UNKNOWN', '', #2, #176 ) ;
#85 = ORIENTED_EDGE ( 'NONE', *, *, #184, .T. ) ;
#86 = MECHANICAL_DESIGN_GEOMETRIC_PRESENTATION_REPRESENTATION (  '', ( #198 ), #1 ) ;
#87 = ORIENTED_EDGE ( 'NONE', *, *, #205, .F. ) ;
#88 =( CONVERSION_BASED_UNIT ( 'INCH', #120 ) LENGTH_UNIT ( ) NAMED_UNIT ( #59 ) );
#89 = ORIENTED_EDGE ( 'NONE', *, *, #306, .T. ) ;
#90 = DIRECTION ( 'NONE',  ( -2.721437331438560389E-17, 1.000000000000000000, -0.000000000000000000 ) ) ;
#91 = EDGE_CURVE ( 'NONE', #186, #66, #11, .T. ) ;
#92 = CARTESIAN_POINT ( 'NONE',  ( 0.000000000000000000, 1.250000000000000000, 0.000000000000000000 ) ) ;
#93 =( GEOMETRIC_REPRESENTATION_CONTEXT ( 3 ) GLOBAL_UNCERTAINTY_ASSIGNED_CONTEXT ( ( #305 ) ) GLOBAL_UNIT_ASSIGNED_CONTEXT ( ( #254, #158, #257 ) ) REPRESENTATION_CONTEXT ( 'NONE', 'WORKASPACE' ) );
#94 = ORIENTED_EDGE ( 'NONE', *, *, #17, .F. ) ;
#95 = DIRECTION ( 'NONE',  ( -0.000000000000000000, -1.000000000000000000, -0.000000000000000000 ) ) ;
#96 = FACE_OUTER_BOUND ( 'NONE', #285, .T. ) ;
#97 = FACE_OUTER_BOUND ( 'NONE', #42, .T. ) ;
#98 = ADVANCED_FACE ( 'NONE', ( #96 ), #199, .T. ) ;
#99 = CARTESIAN_POINT ( 'NONE',  ( -6.123233995736759873E-17, 3.500000000000000000, 0.000000000000000000 ) ) ;
#100 = LINE ( 'NONE', #292, #21 ) ;
#101 = MECHANICAL_DESIGN_GEOMETRIC_PRESENTATION_REPRESENTATION (  '', ( #74 ), #123 ) ;
#102 =( LENGTH_UNIT ( ) NAMED_UNIT ( * ) SI_UNIT ( $, .METRE. ) );
#103 = DIRECTION ( 'NONE',  ( 0.000000000000000000, 0.000000000000000000, -1.000000000000000000 ) ) ;
#104 =( GEOMETRIC_REPRESENTATION_CONTEXT ( 3 ) GLOBAL_UNCERTAINTY_ASSIGNED_CONTEXT ( ( #226 ) ) GLOBAL_UNIT_ASSIGNED_CONTEXT ( ( #227, #268, #171 ) ) REPRESENTATION_CONTEXT ( 'NONE', 'WORKASPACE' ) );
#105 = CIRCLE ( 'NONE', #278, 0.3125000000000000000 ) ;
#106 = DIRECTION ( 'NONE',  ( 0.000000000000000000, 1.000000000000000000, 0.000000000000000000 ) ) ;
#107 = DIRECTION ( 'NONE',  ( -0.000000000000000000, -1.000000000000000000, -0.000000000000000000 ) ) ;
#108 = DIMENSIONAL_EXPONENTS ( 1.000000000000000000, 0.000000000000000000, 0.000000000000000000, 0.000000000000000000, 0.000000000000000000, 0.000000000000000000, 0.000000000000000000 ) ;
#109 = ADVANCED_BREP_SHAPE_REPRESENTATION ( '48510', ( #152, #49, #110 ), #256 ) ;
#110 = AXIS2_PLACEMENT_3D ( 'NONE', #251, #147, #119 ) ;
#111 = EDGE_LOOP ( 'NONE', ( #195, #144, #164, #182 ) ) ;
#112 = DIRECTION ( 'NONE',  ( 2.721437331438560697E-17, -1.000000000000000000, 0.000000000000000000 ) ) ;
#113 =( NAMED_UNIT ( * ) SI_UNIT ( $, .STERADIAN. ) SOLID_ANGLE_UNIT ( ) );
#114 = DIRECTION ( 'NONE',  ( -2.721437331438560697E-17, 1.000000000000000000, -0.000000000000000000 ) ) ;
#115 = PLANE ( 'NONE',  #289 ) ;
#116 = VECTOR ( 'NONE', #95, 39.37007874015748143 ) ;
#117 = COLOUR_RGB ( '',1.000000000000000000, 0.000000000000000000, 0.000000000000000000 ) ;
#118 = VERTEX_POINT ( 'NONE', #46 ) ;
#119 = DIRECTION ( 'NONE',  ( 1.000000000000000000, 0.000000000000000000, 0.000000000000000000 ) ) ;
#120 = LENGTH_MEASURE_WITH_UNIT ( LENGTH_MEASURE( 0.02539999999999999897 ), #178 );
#121 = DIRECTION ( 'NONE',  ( -1.000000000000000000, 0.000000000000000000, 0.000000000000000000 ) ) ;
#122 = FILL_AREA_STYLE_COLOUR ( '', #230 ) ;
#123 =( GEOMETRIC_REPRESENTATION_CONTEXT ( 3 ) GLOBAL_UNCERTAINTY_ASSIGNED_CONTEXT ( ( #47 ) ) GLOBAL_UNIT_ASSIGNED_CONTEXT ( ( #216, #296, #113 ) ) REPRESENTATION_CONTEXT ( 'NONE', 'WORKASPACE' ) );
#124 = EDGE_CURVE ( 'NONE', #72, #279, #269, .T. ) ;
#125 = DIRECTION ( 'NONE',  ( 0.000000000000000000, 0.000000000000000000, -1.000000000000000000 ) ) ;
#126 = FILL_AREA_STYLE ('',( #122 ) ) ;
#127 = CARTESIAN_POINT ( 'NONE',  ( -6.123233995736759873E-17, 3.500000000000000000, 0.000000000000000000 ) ) ;
#128 = VECTOR ( 'NONE', #114, 39.37007874015748143 ) ;
#129 = AXIS2_PLACEMENT_3D ( 'NONE', #15, #112, #218 ) ;
#130 = CARTESIAN_POINT ( 'NONE',  ( 0.000000000000000000, 1.250000000000000000, -0.3125000000000000000 ) ) ;
#131 = ORIENTED_EDGE ( 'NONE', *, *, #205, .T. ) ;
#132 = ORIENTED_EDGE ( 'NONE', *, *, #124, .T. ) ;
#133 = PRESENTATION_LAYER_ASSIGNMENT (  '', '', ( #74 ) ) ;
#134 = DIRECTION ( 'NONE',  ( -1.000000000000000000, 0.000000000000000000, 0.000000000000000000 ) ) ;
#135 = DIRECTION ( 'NONE',  ( -2.721437331438560389E-17, 1.000000000000000000, -0.000000000000000000 ) ) ;
#136 = EDGE_LOOP ( 'NONE', ( #167, #132, #61, #141 ) ) ;
#137 = DIRECTION ( 'NONE',  ( -0.000000000000000000, -1.000000000000000000, -0.000000000000000000 ) ) ;
#138 = ORIENTED_EDGE ( 'NONE', *, *, #280, .F. ) ;
#139 = AXIS2_PLACEMENT_3D ( 'NONE', #92, #90, #267 ) ;
#140 = FACE_OUTER_BOUND ( 'NONE', #191, .T. ) ;
#141 = ORIENTED_EDGE ( 'NONE', *, *, #184, .F. ) ;
#142 = DIRECTION ( 'NONE',  ( 0.000000000000000000, 0.000000000000000000, -1.000000000000000000 ) ) ;
#143 = DIRECTION ( 'NONE',  ( -0.000000000000000000, -1.000000000000000000, -0.000000000000000000 ) ) ;
#144 = ORIENTED_EDGE ( 'NONE', *, *, #17, .T. ) ;
#145 = CIRCLE ( 'NONE', #27, 0.3125000000000000555 ) ;
#146 = DIRECTION ( 'NONE',  ( -2.721437331438560389E-17, 1.000000000000000000, -0.000000000000000000 ) ) ;
#147 = DIRECTION ( 'NONE',  ( 0.000000000000000000, 0.000000000000000000, 1.000000000000000000 ) ) ;
#148 = DIRECTION ( 'NONE',  ( -1.000000000000000000, 0.000000000000000000, 0.000000000000000000 ) ) ;
#149 = CYLINDRICAL_SURFACE ( 'NONE', #6, 0.3125000000000000000 ) ;
#150 = ADVANCED_FACE ( 'NONE', ( #97 ), #115, .F. ) ;
#151 = ORIENTED_EDGE ( 'NONE', *, *, #243, .F. ) ;
#152 = MANIFOLD_SOLID_BREP ( 'Revolve - Cutting Edge', #223 ) ;
#153 = SURFACE_STYLE_FILL_AREA ( #68 ) ;
#154 = SURFACE_STYLE_USAGE ( .BOTH. , #52 ) ;
#155 = CARTESIAN_POINT ( 'NONE',  ( 3.827021247335478926E-17, 1.250000000000000000, 0.3125000000000000000 ) ) ;
#156 = DIMENSIONAL_EXPONENTS ( 1.000000000000000000, 0.000000000000000000, 0.000000000000000000, 0.000000000000000000, 0.000000000000000000, 0.000000000000000000, 0.000000000000000000 ) ;
#157 = PRODUCT ( '48510', '48510', '', ( #300 ) ) ;
#158 =( NAMED_UNIT ( * ) PLANE_ANGLE_UNIT ( ) SI_UNIT ( $, .RADIAN. ) );
#159 =( CONVERSION_BASED_UNIT ( 'INCH', #181 ) LENGTH_UNIT ( ) NAMED_UNIT ( #307 ) );
#160 = ADVANCED_FACE ( 'NONE', ( #206 ), #5, .T. ) ;
#161 = LENGTH_MEASURE_WITH_UNIT ( LENGTH_MEASURE( 0.02539999999999999897 ), #79 );
#162 = MECHANICAL_DESIGN_GEOMETRIC_PRESENTATION_REPRESENTATION (  '', ( #29 ), #104 ) ;
#163 = CIRCLE ( 'NONE', #211, 0.3125000000000000000 ) ;
#164 = ORIENTED_EDGE ( 'NONE', *, *, #38, .F. ) ;
#165 = VERTEX_POINT ( 'NONE', #130 ) ;
#166 = DIRECTION ( 'NONE',  ( -0.000000000000000000, -1.000000000000000000, -0.000000000000000000 ) ) ;
#167 = ORIENTED_EDGE ( 'NONE', *, *, #4, .T. ) ;
#168 = PRESENTATION_STYLE_ASSIGNMENT (( #220 ) ) ;
#169 = MECHANICAL_DESIGN_GEOMETRIC_PRESENTATION_REPRESENTATION (  '', ( #241 ), #276 ) ;
#170 = APPLICATION_PROTOCOL_DEFINITION ( 'draft international standard', 'automotive_design', 1998, #207 ) ;
#171 =( NAMED_UNIT ( * ) SI_UNIT ( $, .STERADIAN. ) SOLID_ANGLE_UNIT ( ) );
#172 = AXIS2_PLACEMENT_3D ( 'NONE', #248, #175, #308 ) ;
#173 = VECTOR ( 'NONE', #83, 39.37007874015748143 ) ;
#174 = SURFACE_STYLE_USAGE ( .BOTH. , #48 ) ;
#175 = DIRECTION ( 'NONE',  ( -2.721437331438560389E-17, 1.000000000000000000, -0.000000000000000000 ) ) ;
#176 = PRODUCT_DEFINITION_CONTEXT ( 'detailed design', #207, 'design' ) ;
#177 = FILL_AREA_STYLE ('',( #286 ) ) ;
#178 =( LENGTH_UNIT ( ) NAMED_UNIT ( * ) SI_UNIT ( $, .METRE. ) );
#179 = SURFACE_STYLE_FILL_AREA ( #252 ) ;
#180 = PRESENTATION_STYLE_ASSIGNMENT (( #75 ) ) ;
#181 = LENGTH_MEASURE_WITH_UNIT ( LENGTH_MEASURE( 0.02539999999999999897 ), #202 );
#182 = ORIENTED_EDGE ( 'NONE', *, *, #306, .F. ) ;
#183 = PRESENTATION_STYLE_ASSIGNMENT (( #154 ) ) ;
#184 = EDGE_CURVE ( 'NONE', #165, #298, #100, .T. ) ;
#185 = SURFACE_SIDE_STYLE ('',( #290 ) ) ;
#186 = VERTEX_POINT ( 'NONE', #28 ) ;
#187 = CIRCLE ( 'NONE', #44, 0.3125000000000000555 ) ;
#188 =( CONVERSION_BASED_UNIT ( 'INCH', #161 ) LENGTH_UNIT ( ) NAMED_UNIT ( #156 ) );
#189 = UNCERTAINTY_MEASURE_WITH_UNIT (LENGTH_MEASURE( 1.000000000000000082E-05 ), #62, 'distance_accuracy_value', 'NONE');
#190 = ORIENTED_EDGE ( 'NONE', *, *, #124, .F. ) ;
#191 = EDGE_LOOP ( 'NONE', ( #190, #131, #85, #138 ) ) ;
#192 = AXIS2_PLACEMENT_3D ( 'NONE', #78, #40, #236 ) ;
#193 =( NAMED_UNIT ( * ) PLANE_ANGLE_UNIT ( ) SI_UNIT ( $, .RADIAN. ) );
#194 =( NAMED_UNIT ( * ) PLANE_ANGLE_UNIT ( ) SI_UNIT ( $, .RADIAN. ) );
#195 = ORIENTED_EDGE ( 'NONE', *, *, #91, .T. ) ;
#196 = ADVANCED_FACE ( 'NONE', ( #55 ), #30, .T. ) ;
#197 = SHAPE_DEFINITION_REPRESENTATION ( #287, #109 ) ;
#198 = STYLED_ITEM ( 'NONE', ( #183 ), #98 ) ;
#199 = PLANE ( 'NONE',  #33 ) ;
#200 = SURFACE_STYLE_USAGE ( .BOTH. , #224 ) ;
#201 = DIRECTION ( 'NONE',  ( -2.721437331438560389E-17, 1.000000000000000000, -0.000000000000000000 ) ) ;
#202 =( LENGTH_UNIT ( ) NAMED_UNIT ( * ) SI_UNIT ( $, .METRE. ) );
#203 = STYLED_ITEM ( 'NONE', ( #288 ), #152 ) ;
#204 = AXIS2_PLACEMENT_3D ( 'NONE', #232, #3, #103 ) ;
#205 = EDGE_CURVE ( 'NONE', #72, #165, #80, .T. ) ;
#206 = FACE_OUTER_BOUND ( 'NONE', #39, .T. ) ;
#207 = APPLICATION_CONTEXT ( 'automotive_design' ) ;
#208 = ADVANCED_FACE ( 'NONE', ( #140 ), #295, .T. ) ;
#209 =( LENGTH_UNIT ( ) NAMED_UNIT ( * ) SI_UNIT ( $, .METRE. ) );
#210 = ORIENTED_EDGE ( 'NONE', *, *, #23, .T. ) ;
#211 = AXIS2_PLACEMENT_3D ( 'NONE', #242, #107, #277 ) ;
#212 = DIRECTION ( 'NONE',  ( 0.000000000000000000, -0.000000000000000000, 1.000000000000000000 ) ) ;
#213 = CARTESIAN_POINT ( 'NONE',  ( 0.000000000000000000, 0.000000000000000000, -0.3125000000000000000 ) ) ;
#214 = CARTESIAN_POINT ( 'NONE',  ( -6.123233995736759873E-17, 3.500000000000000000, 0.000000000000000000 ) ) ;
#215 = PRESENTATION_LAYER_ASSIGNMENT (  '', '', ( #29 ) ) ;
#216 =( CONVERSION_BASED_UNIT ( 'INCH', #67 ) LENGTH_UNIT ( ) NAMED_UNIT ( #235 ) );
#217 = LENGTH_MEASURE_WITH_UNIT ( LENGTH_MEASURE( 0.02539999999999999897 ), #102 );
#218 = DIRECTION ( 'NONE',  ( 1.000000000000000000, 2.721437331438560697E-17, 0.000000000000000000 ) ) ;
#219 =( NAMED_UNIT ( * ) PLANE_ANGLE_UNIT ( ) SI_UNIT ( $, .RADIAN. ) );
#220 = SURFACE_STYLE_USAGE ( .BOTH. , #10 ) ;
#221 = LENGTH_MEASURE_WITH_UNIT ( LENGTH_MEASURE( 0.02539999999999999897 ), #265 );
#222 = APPLICATION_PROTOCOL_DEFINITION ( 'draft international standard', 'automotive_design', 1998, #283 ) ;
#223 = CLOSED_SHELL ( 'NONE', ( #196, #160, #208, #98 ) ) ;
#224 = SURFACE_SIDE_STYLE ('',( #153 ) ) ;
#225 = PRESENTATION_LAYER_ASSIGNMENT (  '', '', ( #273 ) ) ;
#226 = UNCERTAINTY_MEASURE_WITH_UNIT (LENGTH_MEASURE( 1.000000000000000082E-05 ), #227, 'distance_accuracy_value', 'NONE');
#227 =( CONVERSION_BASED_UNIT ( 'INCH', #221 ) LENGTH_UNIT ( ) NAMED_UNIT ( #250 ) );
#228 = SURFACE_STYLE_USAGE ( .BOTH. , #57 ) ;
#229 = MECHANICAL_DESIGN_GEOMETRIC_PRESENTATION_REPRESENTATION (  '', ( #273 ), #93 ) ;
#230 = COLOUR_RGB ( '',1.000000000000000000, 0.000000000000000000, 0.000000000000000000 ) ;
#231 = FILL_AREA_STYLE ('',( #56 ) ) ;
#232 = CARTESIAN_POINT ( 'NONE',  ( 0.000000000000000000, 0.000000000000000000, 0.000000000000000000 ) ) ;
#233 = CIRCLE ( 'NONE', #139, 0.3125000000000000000 ) ;
#234 = FILL_AREA_STYLE ('',( #34 ) ) ;
#235 = DIMENSIONAL_EXPONENTS ( 1.000000000000000000, 0.000000000000000000, 0.000000000000000000, 0.000000000000000000, 0.000000000000000000, 0.000000000000000000, 0.000000000000000000 ) ;
#236 = DIRECTION ( 'NONE',  ( 0.000000000000000000, 0.000000000000000000, -1.000000000000000000 ) ) ;
#237 = ADVANCED_FACE ( 'NONE', ( #82 ), #260, .T. ) ;
#238 = DIRECTION ( 'NONE',  ( -2.721437331438560389E-17, 1.000000000000000000, -0.000000000000000000 ) ) ;
#239 = ORIENTED_EDGE ( 'NONE', *, *, #259, .T. ) ;
#240 = MECHANICAL_DESIGN_GEOMETRIC_PRESENTATION_REPRESENTATION (  '', ( #203 ), #45 ) ;
#241 = STYLED_ITEM ( 'NONE', ( #274 ), #160 ) ;
#242 = CARTESIAN_POINT ( 'NONE',  ( 0.000000000000000000, 0.000000000000000000, 0.000000000000000000 ) ) ;
#243 = EDGE_CURVE ( 'NONE', #36, #118, #145, .T. ) ;
#244 = CARTESIAN_POINT ( 'NONE',  ( 0.000000000000000000, 0.000000000000000000, 0.000000000000000000 ) ) ;
#245 = LINE ( 'NONE', #16, #128 ) ;
#246 = DIRECTION ( 'NONE',  ( -1.000000000000000000, -2.721437331438560697E-17, 0.000000000000000000 ) ) ;
#247 = PRODUCT_RELATED_PRODUCT_CATEGORY ( 'part', '', ( #157 ) ) ;
#248 = CARTESIAN_POINT ( 'NONE',  ( 0.000000000000000000, 1.250000000000000000, 0.000000000000000000 ) ) ;
#249 = CARTESIAN_POINT ( 'NONE',  ( 0.000000000000000000, 0.000000000000000000, 0.000000000000000000 ) ) ;
#250 = DIMENSIONAL_EXPONENTS ( 1.000000000000000000, 0.000000000000000000, 0.000000000000000000, 0.000000000000000000, 0.000000000000000000, 0.000000000000000000, 0.000000000000000000 ) ;
#251 = CARTESIAN_POINT ( 'NONE',  ( 0.000000000000000000, 0.000000000000000000, 0.000000000000000000 ) ) ;
#252 = FILL_AREA_STYLE ('',( #73 ) ) ;
#253 = CARTESIAN_POINT ( 'NONE',  ( 0.000000000000000000, 1.250000000000000000, 0.000000000000000000 ) ) ;
#254 =( CONVERSION_BASED_UNIT ( 'INCH', #54 ) LENGTH_UNIT ( ) NAMED_UNIT ( #25 ) );
#255 = PRESENTATION_LAYER_ASSIGNMENT (  '', '', ( #203 ) ) ;
#256 =( GEOMETRIC_REPRESENTATION_CONTEXT ( 3 ) GLOBAL_UNCERTAINTY_ASSIGNED_CONTEXT ( ( #35 ) ) GLOBAL_UNIT_ASSIGNED_CONTEXT ( ( #188, #193, #284 ) ) REPRESENTATION_CONTEXT ( 'NONE', 'WORKASPACE' ) );
#257 =( NAMED_UNIT ( * ) SI_UNIT ( $, .STERADIAN. ) SOLID_ANGLE_UNIT ( ) );
#258 = FACE_OUTER_BOUND ( 'NONE', #264, .T. ) ;
#259 = EDGE_CURVE ( 'NONE', #298, #279, #105, .T. ) ;
#260 = CYLINDRICAL_SURFACE ( 'NONE', #266, 0.3125000000000000000 ) ;
#261 = CARTESIAN_POINT ( 'NONE',  ( 3.827021247335478926E-17, 0.000000000000000000, 0.3125000000000000000 ) ) ;
#262 = ORIENTED_EDGE ( 'NONE', *, *, #91, .F. ) ;
#263 = CARTESIAN_POINT ( 'NONE',  ( 0.000000000000000000, 0.000000000000000000, 0.000000000000000000 ) ) ;
#264 = EDGE_LOOP ( 'NONE', ( #9, #43 ) ) ;
#265 =( LENGTH_UNIT ( ) NAMED_UNIT ( * ) SI_UNIT ( $, .METRE. ) );
#266 = AXIS2_PLACEMENT_3D ( 'NONE', #214, #238, #60 ) ;
#267 = DIRECTION ( 'NONE',  ( -1.000000000000000000, 0.000000000000000000, 0.000000000000000000 ) ) ;
#268 =( NAMED_UNIT ( * ) PLANE_ANGLE_UNIT ( ) SI_UNIT ( $, .RADIAN. ) );
#269 = LINE ( 'NONE', #24, #116 ) ;
#270 = SURFACE_STYLE_FILL_AREA ( #177 ) ;
#271 =( NAMED_UNIT ( * ) PLANE_ANGLE_UNIT ( ) SI_UNIT ( $, .RADIAN. ) );
#272 = CLOSED_SHELL ( 'NONE', ( #76, #150, #237, #301 ) ) ;
#273 = STYLED_ITEM ( 'NONE', ( #180 ), #196 ) ;
#274 = PRESENTATION_STYLE_ASSIGNMENT (( #228 ) ) ;
#275 =( NAMED_UNIT ( * ) SI_UNIT ( $, .STERADIAN. ) SOLID_ANGLE_UNIT ( ) );
#276 =( GEOMETRIC_REPRESENTATION_CONTEXT ( 3 ) GLOBAL_UNCERTAINTY_ASSIGNED_CONTEXT ( ( #58 ) ) GLOBAL_UNIT_ASSIGNED_CONTEXT ( ( #159, #271, #31 ) ) REPRESENTATION_CONTEXT ( 'NONE', 'WORKASPACE' ) );
#277 = DIRECTION ( 'NONE',  ( 0.000000000000000000, 0.000000000000000000, -1.000000000000000000 ) ) ;
#278 = AXIS2_PLACEMENT_3D ( 'NONE', #263, #166, #142 ) ;
#279 = VERTEX_POINT ( 'NONE', #261 ) ;
#280 = EDGE_CURVE ( 'NONE', #279, #298, #163, .T. ) ;
#281 = PRESENTATION_STYLE_ASSIGNMENT (( #174 ) ) ;
#282 = COLOUR_RGB ( '',0.7921568627450980005, 0.8196078431372548767, 0.9333333333333333481 ) ;
#283 = APPLICATION_CONTEXT ( 'automotive_design' ) ;
#284 =( NAMED_UNIT ( * ) SI_UNIT ( $, .STERADIAN. ) SOLID_ANGLE_UNIT ( ) );
#285 = EDGE_LOOP ( 'NONE', ( #239, #13 ) ) ;
#286 = FILL_AREA_STYLE_COLOUR ( '', #69 ) ;
#287 = PRODUCT_DEFINITION_SHAPE ( 'NONE', 'NONE',  #84 ) ;
#288 = PRESENTATION_STYLE_ASSIGNMENT (( #200 ) ) ;
#289 = AXIS2_PLACEMENT_3D ( 'NONE', #51, #303, #246 ) ;
#290 = SURFACE_STYLE_FILL_AREA ( #231 ) ;
#291 = ORIENTED_EDGE ( 'NONE', *, *, #4, .F. ) ;
#292 = CARTESIAN_POINT ( 'NONE',  ( 0.000000000000000000, 0.000000000000000000, -0.3125000000000000000 ) ) ;
#293 = AXIS2_PLACEMENT_3D ( 'NONE', #253, #106, #212 ) ;
#294 = DIRECTION ( 'NONE',  ( -0.000000000000000000, -1.000000000000000000, -0.000000000000000000 ) ) ;
#295 = CYLINDRICAL_SURFACE ( 'NONE', #71, 0.3125000000000000000 ) ;
#296 =( NAMED_UNIT ( * ) PLANE_ANGLE_UNIT ( ) SI_UNIT ( $, .RADIAN. ) );
#297 = CARTESIAN_POINT ( 'NONE',  ( -0.3125000000000000555, 3.500000000000000000, 0.000000000000000000 ) ) ;
#298 = VERTEX_POINT ( 'NONE', #213 ) ;
#299 = CIRCLE ( 'NONE', #26, 0.3125000000000000000 ) ;
#300 = PRODUCT_CONTEXT ( 'NONE', #283, 'mechanical' ) ;
#301 = ADVANCED_FACE ( 'NONE', ( #258 ), #14, .F. ) ;
#302 = DIRECTION ( 'NONE',  ( 0.000000000000000000, 0.000000000000000000, -1.000000000000000000 ) ) ;
#303 = DIRECTION ( 'NONE',  ( -2.721437331438560697E-17, 1.000000000000000000, 0.000000000000000000 ) ) ;
#304 = FILL_AREA_STYLE_COLOUR ( '', #282 ) ;
#305 = UNCERTAINTY_MEASURE_WITH_UNIT (LENGTH_MEASURE( 1.000000000000000082E-05 ), #254, 'distance_accuracy_value', 'NONE');
#306 = EDGE_CURVE ( 'NONE', #186, #118, #8, .T. ) ;
#307 = DIMENSIONAL_EXPONENTS ( 1.000000000000000000, 0.000000000000000000, 0.000000000000000000, 0.000000000000000000, 0.000000000000000000, 0.000000000000000000, 0.000000000000000000 ) ;
#308 = DIRECTION ( 'NONE',  ( -1.000000000000000000, 0.000000000000000000, 0.000000000000000000 ) ) ;
#309 = SURFACE_STYLE_FILL_AREA ( #126 ) ;
ENDSEC;
END-ISO-10303-21;
