ISO-10303-21;
HEADER;
FILE_DESCRIPTION (( 'STEP AP214' ),
    '1' );
FILE_NAME ('Micro_BMR-021-2.STEP',
    '2021-09-03T13:51:48',
    ( '' ),
    ( '' ),
    'SwSTEP 2.0',
    'SolidWorks 2020',
    '' );
FILE_SCHEMA (( 'AUTOMOTIVE_DESIGN' ));
ENDSEC;

DATA;
#1 = ORIENTED_EDGE ( 'NONE', *, *, #195, .T. ) ;
#2 = PRESENTATION_LAYER_ASSIGNMENT (  '', '', ( #110 ) ) ;
#3 = LINE ( 'NONE', #29, #288 ) ;
#4 = DIRECTION ( 'NONE',  ( 0.7071067811865462405, 8.659560562354916834E-17, -0.7071067811865486830 ) ) ;
#5 = ADVANCED_FACE ( 'NONE', ( #318 ), #275, .T. ) ;
#6 = CARTESIAN_POINT ( 'NONE',  ( -0.01048949999999999362, 4.469317877318288976E-18, 0.06300000000000000044 ) ) ;
#7 = CIRCLE ( 'NONE', #209, 0.01048950000000000229 ) ;
#8 = SURFACE_SIDE_STYLE ('',( #132 ) ) ;
#9 =( LENGTH_UNIT ( ) NAMED_UNIT ( * ) SI_UNIT ( $, .METRE. ) );
#10 = PRODUCT_DEFINITION_SHAPE ( 'NONE', 'NONE',  #102 ) ;
#11 =( CONVERSION_BASED_UNIT ( 'INCH', #40 ) LENGTH_UNIT ( ) NAMED_UNIT ( #71 ) );
#12 = EDGE_LOOP ( 'NONE', ( #233, #187, #72, #77 ) ) ;
#13 = DIRECTION ( 'NONE',  ( -1.224646799147353454E-16, -0.0000000000000000000, -1.000000000000000000 ) ) ;
#14 = AXIS2_PLACEMENT_3D ( 'NONE', #75, #273, #194 ) ;
#15 = CIRCLE ( 'NONE', #312, 0.06250000000000002776 ) ;
#16 = VERTEX_POINT ( 'NONE', #270 ) ;
#17 = FACE_OUTER_BOUND ( 'NONE', #50, .T. ) ;
#18 = ORIENTED_EDGE ( 'NONE', *, *, #95, .F. ) ;
#19 = VERTEX_POINT ( 'NONE', #279 ) ;
#20 = ORIENTED_EDGE ( 'NONE', *, *, #162, .F. ) ;
#21 = AXIS2_PLACEMENT_3D ( 'NONE', #204, #90, #206 ) ;
#22 = CARTESIAN_POINT ( 'NONE',  ( -0.06250000000000002776, 0.0000000000000000000, 1.485000000000000764 ) ) ;
#23 = ADVANCED_FACE ( 'NONE', ( #242 ), #99, .T. ) ;
#24 = CARTESIAN_POINT ( 'NONE',  ( 0.06250000000000002776, 7.654042494670959086E-18, 1.500000000000000222 ) ) ;
#25 = DIRECTION ( 'NONE',  ( -1.224646799147353454E-16, -0.0000000000000000000, -1.000000000000000000 ) ) ;
#26 = VECTOR ( 'NONE', #222, 39.37007874015748143 ) ;
#27 = VECTOR ( 'NONE', #254, 39.37007874015748854 ) ;
#28 = CARTESIAN_POINT ( 'NONE',  ( 0.0000000000000000000, 0.0000000000000000000, 0.0000000000000000000 ) ) ;
#29 = CARTESIAN_POINT ( 'NONE',  ( -0.01048950000000000229, 0.0000000000000000000, 1.284593259965616749E-18 ) ) ;
#30 = ADVANCED_BREP_SHAPE_REPRESENTATION ( 'Micro_BMR-021-2', ( #226, #202 ), #223 ) ;
#31 =( LENGTH_UNIT ( ) NAMED_UNIT ( * ) SI_UNIT ( $, .METRE. ) );
#32 = CONICAL_SURFACE ( 'NONE', #213, 0.01048950000000000229, 0.1745329251994339192 ) ;
#33 = FACE_OUTER_BOUND ( 'NONE', #138, .T. ) ;
#34 = EDGE_CURVE ( 'NONE', #169, #96, #304, .T. ) ;
#35 = EDGE_CURVE ( 'NONE', #97, #235, #324, .T. ) ;
#36 = CARTESIAN_POINT ( 'NONE',  ( 0.0000000000000000000, 0.0000000000000000000, 1.500000000000000222 ) ) ;
#37 = FACE_OUTER_BOUND ( 'NONE', #211, .T. ) ;
#38 = CONICAL_SURFACE ( 'NONE', #51, 0.04750000000000064587, 0.7853981633974466137 ) ;
#39 = DIRECTION ( 'NONE',  ( 1.000000000000000000, 0.0000000000000000000, 0.0000000000000000000 ) ) ;
#40 = LENGTH_MEASURE_WITH_UNIT ( LENGTH_MEASURE( 0.02539999999999999897 ), #91 );
#41 = CARTESIAN_POINT ( 'NONE',  ( 4.383821648039047744E-17, 0.0000000000000000000, 0.3579662030792253868 ) ) ;
#42 = ORIENTED_EDGE ( 'NONE', *, *, #280, .T. ) ;
#43 = CARTESIAN_POINT ( 'NONE',  ( 4.383821648039047744E-17, 0.0000000000000000000, 0.3579662030792253868 ) ) ;
#44 = CIRCLE ( 'NONE', #208, 0.04750000000000064587 ) ;
#45 = PRODUCT_RELATED_PRODUCT_CATEGORY ( 'part', '', ( #320 ) ) ;
#46 = DIRECTION ( 'NONE',  ( 0.0000000000000000000, 0.0000000000000000000, -1.000000000000000000 ) ) ;
#47 = EDGE_LOOP ( 'NONE', ( #171, #293, #65 ) ) ;
#48 =( NAMED_UNIT ( * ) SI_UNIT ( $, .STERADIAN. ) SOLID_ANGLE_UNIT ( ) );
#49 = ORIENTED_EDGE ( 'NONE', *, *, #35, .F. ) ;
#50 = EDGE_LOOP ( 'NONE', ( #241, #301, #185, #313 ) ) ;
#51 = AXIS2_PLACEMENT_3D ( 'NONE', #167, #314, #239 ) ;
#52 = DIRECTION ( 'NONE',  ( -1.224646799147353454E-16, -0.0000000000000000000, -1.000000000000000000 ) ) ;
#53 = DIRECTION ( 'NONE',  ( -1.000000000000000000, 0.0000000000000000000, 0.0000000000000000000 ) ) ;
#54 = APPLICATION_PROTOCOL_DEFINITION ( 'draft international standard', 'automotive_design', 1998, #269 ) ;
#55 = DIRECTION ( 'NONE',  ( -0.1736481776669312194, 2.126576849575783625E-17, 0.9848077530122080203 ) ) ;
#56 = SURFACE_STYLE_USAGE ( .BOTH. , #8 ) ;
#57 = LINE ( 'NONE', #282, #126 ) ;
#58 = DIRECTION ( 'NONE',  ( -0.0000000000000000000, -0.0000000000000000000, -1.000000000000000000 ) ) ;
#59 = CARTESIAN_POINT ( 'NONE',  ( -0.06249999999999997918, 0.0000000000000000000, 0.3579662030792253868 ) ) ;
#60 = AXIS2_PLACEMENT_3D ( 'NONE', #135, #155, #178 ) ;
#61 =( NAMED_UNIT ( * ) SI_UNIT ( $, .STERADIAN. ) SOLID_ANGLE_UNIT ( ) );
#62 = EDGE_LOOP ( 'NONE', ( #140, #258 ) ) ;
#63 = ORIENTED_EDGE ( 'NONE', *, *, #104, .F. ) ;
#64 = DIRECTION ( 'NONE',  ( 1.224646799147353454E-16, 0.0000000000000000000, 1.000000000000000000 ) ) ;
#65 = ORIENTED_EDGE ( 'NONE', *, *, #123, .F. ) ;
#66 = EDGE_CURVE ( 'NONE', #169, #19, #244, .T. ) ;
#67 = VECTOR ( 'NONE', #52, 39.37007874015748143 ) ;
#68 = SURFACE_SIDE_STYLE ('',( #232 ) ) ;
#69 = CIRCLE ( 'NONE', #192, 0.01048950000000000229 ) ;
#70 = ORIENTED_EDGE ( 'NONE', *, *, #35, .T. ) ;
#71 = DIMENSIONAL_EXPONENTS ( 1.000000000000000000, 0.0000000000000000000, 0.0000000000000000000, 0.0000000000000000000, 0.0000000000000000000, 0.0000000000000000000, 0.0000000000000000000 ) ;
#72 = ORIENTED_EDGE ( 'NONE', *, *, #280, .F. ) ;
#73 = EDGE_CURVE ( 'NONE', #235, #189, #79, .T. ) ;
#74 = DIRECTION ( 'NONE',  ( 0.0000000000000000000, 0.0000000000000000000, 1.000000000000000000 ) ) ;
#75 = CARTESIAN_POINT ( 'NONE',  ( 0.0000000000000000000, 0.0000000000000000000, 1.500000000000000222 ) ) ;
#76 = UNCERTAINTY_MEASURE_WITH_UNIT (LENGTH_MEASURE( 1.000000000000000082E-05 ), #108, 'distance_accuracy_value', 'NONE');
#77 = ORIENTED_EDGE ( 'NONE', *, *, #238, .F. ) ;
#78 = AXIS2_PLACEMENT_3D ( 'NONE', #122, #101, #53 ) ;
#79 = LINE ( 'NONE', #243, #152 ) ;
#80 = UNCERTAINTY_MEASURE_WITH_UNIT (LENGTH_MEASURE( 1.000000000000000082E-05 ), #11, 'distance_accuracy_value', 'NONE');
#81 =( NAMED_UNIT ( * ) PLANE_ANGLE_UNIT ( ) SI_UNIT ( $, .RADIAN. ) );
#82 = DIRECTION ( 'NONE',  ( -1.000000000000000000, 1.224646799147353207E-16, 0.0000000000000000000 ) ) ;
#83 = ORIENTED_EDGE ( 'NONE', *, *, #162, .T. ) ;
#84 = CARTESIAN_POINT ( 'NONE',  ( 0.04750000000000064587, 5.817072295950006528E-18, 1.500000000000000222 ) ) ;
#85 = EDGE_CURVE ( 'NONE', #166, #16, #44, .T. ) ;
#86 = FACE_OUTER_BOUND ( 'NONE', #316, .T. ) ;
#87 = DIRECTION ( 'NONE',  ( 1.224646799147353454E-16, 0.0000000000000000000, 1.000000000000000000 ) ) ;
#88 =( GEOMETRIC_REPRESENTATION_CONTEXT ( 3 ) GLOBAL_UNCERTAINTY_ASSIGNED_CONTEXT ( ( #76 ) ) GLOBAL_UNIT_ASSIGNED_CONTEXT ( ( #108, #111, #203 ) ) REPRESENTATION_CONTEXT ( 'NONE', 'WORKASPACE' ) );
#89 = DIRECTION ( 'NONE',  ( 0.1736481776669314137, 0.0000000000000000000, 0.9848077530122077983 ) ) ;
#90 = DIRECTION ( 'NONE',  ( 1.224646799147353454E-16, 0.0000000000000000000, 1.000000000000000000 ) ) ;
#91 =( LENGTH_UNIT ( ) NAMED_UNIT ( * ) SI_UNIT ( $, .METRE. ) );
#92 = VECTOR ( 'NONE', #4, 39.37007874015748854 ) ;
#93 = CARTESIAN_POINT ( 'NONE',  ( 0.0000000000000000000, 0.0000000000000000000, 1.500000000000000222 ) ) ;
#94 = EDGE_LOOP ( 'NONE', ( #116, #49, #299, #236 ) ) ;
#95 = EDGE_CURVE ( 'NONE', #97, #115, #121, .T. ) ;
#96 = VERTEX_POINT ( 'NONE', #22 ) ;
#97 = VERTEX_POINT ( 'NONE', #319 ) ;
#98 = SHAPE_DEFINITION_REPRESENTATION ( #10, #30 ) ;
#99 = SPHERICAL_SURFACE ( 'NONE', #287, 0.01048950000000000056 ) ;
#100 = DIRECTION ( 'NONE',  ( 0.0000000000000000000, 0.0000000000000000000, -1.000000000000000000 ) ) ;
#101 = DIRECTION ( 'NONE',  ( -1.224646799147353454E-16, -0.0000000000000000000, -1.000000000000000000 ) ) ;
#102 = PRODUCT_DEFINITION ( 'UNKNOWN', '', #290, #245 ) ;
#103 = DIRECTION ( 'NONE',  ( -1.224646799147353454E-16, -0.0000000000000000000, -1.000000000000000000 ) ) ;
#104 = EDGE_CURVE ( 'NONE', #172, #240, #201, .T. ) ;
#105 = ORIENTED_EDGE ( 'NONE', *, *, #124, .F. ) ;
#106 = AXIS2_PLACEMENT_3D ( 'NONE', #43, #13, #256 ) ;
#107 = FACE_OUTER_BOUND ( 'NONE', #12, .T. ) ;
#108 =( CONVERSION_BASED_UNIT ( 'INCH', #229 ) LENGTH_UNIT ( ) NAMED_UNIT ( #131 ) );
#109 = DIRECTION ( 'NONE',  ( 0.0000000000000000000, 0.0000000000000000000, 1.000000000000000000 ) ) ;
#110 = STYLED_ITEM ( 'NONE', ( #217 ), #30 ) ;
#111 =( NAMED_UNIT ( * ) PLANE_ANGLE_UNIT ( ) SI_UNIT ( $, .RADIAN. ) );
#112 = EDGE_LOOP ( 'NONE', ( #295, #83, #264, #191 ) ) ;
#113 = EDGE_LOOP ( 'NONE', ( #63, #289, #260 ) ) ;
#114 = CONICAL_SURFACE ( 'NONE', #21, 0.01048950000000000229, 0.1745329251994339192 ) ;
#115 = VERTEX_POINT ( 'NONE', #173 ) ;
#116 = ORIENTED_EDGE ( 'NONE', *, *, #73, .F. ) ;
#117 = DIRECTION ( 'NONE',  ( -1.000000000000000000, 0.0000000000000000000, 2.034659654940850495E-16 ) ) ;
#118 = ORIENTED_EDGE ( 'NONE', *, *, #214, .F. ) ;
#119 =( GEOMETRIC_REPRESENTATION_CONTEXT ( 3 ) GLOBAL_UNCERTAINTY_ASSIGNED_CONTEXT ( ( #80 ) ) GLOBAL_UNIT_ASSIGNED_CONTEXT ( ( #11, #81, #48 ) ) REPRESENTATION_CONTEXT ( 'NONE', 'WORKASPACE' ) );
#120 = DIRECTION ( 'NONE',  ( 1.000000000000000000, 0.0000000000000000000, 0.0000000000000000000 ) ) ;
#121 = LINE ( 'NONE', #221, #67 ) ;
#122 = CARTESIAN_POINT ( 'NONE',  ( 7.715274834628326610E-18, 0.0000000000000000000, 0.06300000000000000044 ) ) ;
#123 = EDGE_CURVE ( 'NONE', #115, #240, #7, .T. ) ;
#124 = EDGE_CURVE ( 'NONE', #235, #97, #266, .T. ) ;
#125 = AXIS2_PLACEMENT_3D ( 'NONE', #174, #100, #120 ) ;
#126 = VECTOR ( 'NONE', #58, 39.37007874015748143 ) ;
#127 = DIRECTION ( 'NONE',  ( -1.000000000000000000, 0.0000000000000000000, 0.0000000000000000000 ) ) ;
#128 = MECHANICAL_DESIGN_GEOMETRIC_PRESENTATION_REPRESENTATION (  '', ( #159 ), #88 ) ;
#129 = DIRECTION ( 'NONE',  ( 1.224646799147353207E-16, 1.000000000000000000, -0.0000000000000000000 ) ) ;
#130 = DIRECTION ( 'NONE',  ( -1.224646799147353454E-16, -0.0000000000000000000, -1.000000000000000000 ) ) ;
#131 = DIMENSIONAL_EXPONENTS ( 1.000000000000000000, 0.0000000000000000000, 0.0000000000000000000, 0.0000000000000000000, 0.0000000000000000000, 0.0000000000000000000, 0.0000000000000000000 ) ;
#132 = SURFACE_STYLE_FILL_AREA ( #134 ) ;
#133 = APPLICATION_CONTEXT ( 'automotive_design' ) ;
#134 = FILL_AREA_STYLE ('',( #230 ) ) ;
#135 = CARTESIAN_POINT ( 'NONE',  ( 0.0000000000000000000, 0.0000000000000000000, 0.0000000000000000000 ) ) ;
#136 = APPLICATION_PROTOCOL_DEFINITION ( 'draft international standard', 'automotive_design', 1998, #133 ) ;
#137 = CYLINDRICAL_SURFACE ( 'NONE', #176, 0.06250000000000002776 ) ;
#138 = EDGE_LOOP ( 'NONE', ( #105, #302, #42, #297 ) ) ;
#139 = EDGE_CURVE ( 'NONE', #172, #115, #231, .T. ) ;
#140 = ORIENTED_EDGE ( 'NONE', *, *, #251, .T. ) ;
#141 = AXIS2_PLACEMENT_3D ( 'NONE', #259, #46, #267 ) ;
#142 = CARTESIAN_POINT ( 'NONE',  ( 1.284593259965616364E-18, 0.0000000000000000000, 0.01048950000000000056 ) ) ;
#143 = ORIENTED_EDGE ( 'NONE', *, *, #124, .T. ) ;
#144 = DIRECTION ( 'NONE',  ( 1.000000000000000000, 0.0000000000000000000, 0.0000000000000000000 ) ) ;
#145 = CARTESIAN_POINT ( 'NONE',  ( 0.0000000000000000000, 0.0000000000000000000, 1.500000000000000222 ) ) ;
#146 = AXIS2_PLACEMENT_3D ( 'NONE', #224, #129, #82 ) ;
#147 = CIRCLE ( 'NONE', #237, 0.06250000000000002776 ) ;
#148 = DIRECTION ( 'NONE',  ( 1.000000000000000000, 0.0000000000000000000, 0.0000000000000000000 ) ) ;
#149 = DIRECTION ( 'NONE',  ( -1.000000000000000000, 0.0000000000000000000, 2.034659654940850495E-16 ) ) ;
#150 = ADVANCED_FACE ( 'NONE', ( #278 ), #246, .T. ) ;
#151 = DIRECTION ( 'NONE',  ( 0.0000000000000000000, -1.000000000000000000, 0.0000000000000000000 ) ) ;
#152 = VECTOR ( 'NONE', #55, 39.37007874015747433 ) ;
#153 = AXIS2_PLACEMENT_3D ( 'NONE', #175, #151, #199 ) ;
#154 = DIRECTION ( 'NONE',  ( 1.224646799147353454E-16, 0.0000000000000000000, 1.000000000000000000 ) ) ;
#155 = DIRECTION ( 'NONE',  ( -1.224646799147353454E-16, -0.0000000000000000000, -1.000000000000000000 ) ) ;
#156 = DIMENSIONAL_EXPONENTS ( 1.000000000000000000, 0.0000000000000000000, 0.0000000000000000000, 0.0000000000000000000, 0.0000000000000000000, 0.0000000000000000000, 0.0000000000000000000 ) ;
#157 = FACE_OUTER_BOUND ( 'NONE', #94, .T. ) ;
#158 = CLOSED_SHELL ( 'NONE', ( #23, #150, #215, #322, #228, #277, #5, #252, #180, #205, #310 ) ) ;
#159 = STYLED_ITEM ( 'NONE', ( #225 ), #226 ) ;
#160 = CARTESIAN_POINT ( 'NONE',  ( -0.01048950000000000056, 0.0000000000000000000, 0.01048950000000000229 ) ) ;
#161 = EDGE_CURVE ( 'NONE', #97, #19, #200, .T. ) ;
#162 = EDGE_CURVE ( 'NONE', #166, #169, #305, .T. ) ;
#163 = DIRECTION ( 'NONE',  ( -0.0000000000000000000, -0.0000000000000000000, -1.000000000000000000 ) ) ;
#164 = AXIS2_PLACEMENT_3D ( 'NONE', #303, #103, #127 ) ;
#165 = AXIS2_PLACEMENT_3D ( 'NONE', #28, #25, #248 ) ;
#166 = VERTEX_POINT ( 'NONE', #284 ) ;
#167 = CARTESIAN_POINT ( 'NONE',  ( 0.0000000000000000000, 0.0000000000000000000, 1.500000000000000222 ) ) ;
#168 = FACE_OUTER_BOUND ( 'NONE', #113, .T. ) ;
#169 = VERTEX_POINT ( 'NONE', #249 ) ;
#170 = SURFACE_STYLE_USAGE ( .BOTH. , #68 ) ;
#171 = ORIENTED_EDGE ( 'NONE', *, *, #139, .F. ) ;
#172 = VERTEX_POINT ( 'NONE', #179 ) ;
#173 = CARTESIAN_POINT ( 'NONE',  ( 0.01048950000000000403, 1.284593259965616364E-18, 0.01048949999999999882 ) ) ;
#174 = CARTESIAN_POINT ( 'NONE',  ( 0.0000000000000000000, 0.0000000000000000000, 1.485000000000000764 ) ) ;
#175 = CARTESIAN_POINT ( 'NONE',  ( 1.284593259965616364E-18, 0.0000000000000000000, 0.01048950000000000056 ) ) ;
#176 = AXIS2_PLACEMENT_3D ( 'NONE', #93, #163, #292 ) ;
#177 = CARTESIAN_POINT ( 'NONE',  ( 1.284593259965616364E-18, 0.0000000000000000000, 0.01048950000000000056 ) ) ;
#178 = DIRECTION ( 'NONE',  ( -1.000000000000000000, 0.0000000000000000000, 1.224646799147353454E-16 ) ) ;
#179 = CARTESIAN_POINT ( 'NONE',  ( 1.926889889948424834E-18, 0.0000000000000000000, 0.0000000000000000000 ) ) ;
#180 = ADVANCED_FACE ( 'NONE', ( #157 ), #114, .T. ) ;
#181 = AXIS2_PLACEMENT_3D ( 'NONE', #142, #234, #39 ) ;
#182 = CARTESIAN_POINT ( 'NONE',  ( -0.04750000000000064587, 0.0000000000000000000, 1.500000000000000222 ) ) ;
#183 = CYLINDRICAL_SURFACE ( 'NONE', #60, 0.01048950000000000229 ) ;
#184 = FILL_AREA_STYLE ('',( #294 ) ) ;
#185 = ORIENTED_EDGE ( 'NONE', *, *, #238, .T. ) ;
#186 = LENGTH_MEASURE_WITH_UNIT ( LENGTH_MEASURE( 0.02539999999999999897 ), #9 );
#187 = ORIENTED_EDGE ( 'NONE', *, *, #66, .T. ) ;
#188 = FACE_OUTER_BOUND ( 'NONE', #112, .T. ) ;
#189 = VERTEX_POINT ( 'NONE', #59 ) ;
#190 = CARTESIAN_POINT ( 'NONE',  ( 1.284593259965616364E-18, 0.0000000000000000000, 0.01048950000000000056 ) ) ;
#191 = ORIENTED_EDGE ( 'NONE', *, *, #195, .F. ) ;
#192 = AXIS2_PLACEMENT_3D ( 'NONE', #190, #64, #117 ) ;
#193 = EDGE_LOOP ( 'NONE', ( #143, #218, #268, #118 ) ) ;
#194 = DIRECTION ( 'NONE',  ( 1.000000000000000000, 0.0000000000000000000, -0.0000000000000000000 ) ) ;
#195 = EDGE_CURVE ( 'NONE', #16, #96, #307, .T. ) ;
#196 = DIRECTION ( 'NONE',  ( 1.000000000000000000, 0.0000000000000000000, 0.0000000000000000000 ) ) ;
#197 = CIRCLE ( 'NONE', #106, 0.06250000000000002776 ) ;
#198 = DIRECTION ( 'NONE',  ( 0.0000000000000000000, 0.0000000000000000000, 1.000000000000000000 ) ) ;
#199 = DIRECTION ( 'NONE',  ( 0.0000000000000000000, 0.0000000000000000000, -1.000000000000000000 ) ) ;
#200 = LINE ( 'NONE', #210, #253 ) ;
#201 = CIRCLE ( 'NONE', #146, 0.01048950000000000056 ) ;
#202 = AXIS2_PLACEMENT_3D ( 'NONE', #274, #74, #321 ) ;
#203 =( NAMED_UNIT ( * ) SI_UNIT ( $, .STERADIAN. ) SOLID_ANGLE_UNIT ( ) );
#204 = CARTESIAN_POINT ( 'NONE',  ( 7.715274834628326610E-18, 0.0000000000000000000, 0.06300000000000000044 ) ) ;
#205 = ADVANCED_FACE ( 'NONE', ( #86 ), #183, .T. ) ;
#206 = DIRECTION ( 'NONE',  ( 1.000000000000000000, 0.0000000000000000000, 0.0000000000000000000 ) ) ;
#207 = DIRECTION ( 'NONE',  ( 1.000000000000000000, 0.0000000000000000000, 0.0000000000000000000 ) ) ;
#208 = AXIS2_PLACEMENT_3D ( 'NONE', #145, #198, #196 ) ;
#209 = AXIS2_PLACEMENT_3D ( 'NONE', #177, #154, #149 ) ;
#210 = CARTESIAN_POINT ( 'NONE',  ( 0.01048950000000001097, 0.0000000000000000000, 0.06300000000000000044 ) ) ;
#211 = EDGE_LOOP ( 'NONE', ( #20, #315, #1, #216 ) ) ;
#212 = DIRECTION ( 'NONE',  ( 0.0000000000000000000, 0.0000000000000000000, -1.000000000000000000 ) ) ;
#213 = AXIS2_PLACEMENT_3D ( 'NONE', #250, #87, #308 ) ;
#214 = EDGE_CURVE ( 'NONE', #235, #240, #3, .T. ) ;
#215 = ADVANCED_FACE ( 'NONE', ( #33 ), #32, .T. ) ;
#216 = ORIENTED_EDGE ( 'NONE', *, *, #34, .F. ) ;
#217 = PRESENTATION_STYLE_ASSIGNMENT (( #170 ) ) ;
#218 = ORIENTED_EDGE ( 'NONE', *, *, #95, .T. ) ;
#219 = ORIENTED_EDGE ( 'NONE', *, *, #276, .T. ) ;
#220 = PRODUCT_CONTEXT ( 'NONE', #133, 'mechanical' ) ;
#221 = CARTESIAN_POINT ( 'NONE',  ( 0.01048950000000000229, 1.284593259965616364E-18, -1.284593259965616749E-18 ) ) ;
#222 = DIRECTION ( 'NONE',  ( -0.0000000000000000000, -0.0000000000000000000, -1.000000000000000000 ) ) ;
#223 =( GEOMETRIC_REPRESENTATION_CONTEXT ( 3 ) GLOBAL_UNCERTAINTY_ASSIGNED_CONTEXT ( ( #271 ) ) GLOBAL_UNIT_ASSIGNED_CONTEXT ( ( #285, #291, #61 ) ) REPRESENTATION_CONTEXT ( 'NONE', 'WORKASPACE' ) );
#224 = CARTESIAN_POINT ( 'NONE',  ( 1.284593259965616364E-18, 0.0000000000000000000, 0.01048950000000000056 ) ) ;
#225 = PRESENTATION_STYLE_ASSIGNMENT (( #56 ) ) ;
#226 = MANIFOLD_SOLID_BREP ( 'Fillet1', #158 ) ;
#227 = CONICAL_SURFACE ( 'NONE', #141, 0.04750000000000064587, 0.7853981633974466137 ) ;
#228 = ADVANCED_FACE ( 'NONE', ( #107 ), #255, .T. ) ;
#229 = LENGTH_MEASURE_WITH_UNIT ( LENGTH_MEASURE( 0.02539999999999999897 ), #31 );
#230 = FILL_AREA_STYLE_COLOUR ( '', #265 ) ;
#231 = CIRCLE ( 'NONE', #153, 0.01048950000000000056 ) ;
#232 = SURFACE_STYLE_FILL_AREA ( #184 ) ;
#233 = ORIENTED_EDGE ( 'NONE', *, *, #261, .T. ) ;
#234 = DIRECTION ( 'NONE',  ( 0.0000000000000000000, 1.000000000000000000, 0.0000000000000000000 ) ) ;
#235 = VERTEX_POINT ( 'NONE', #6 ) ;
#236 = ORIENTED_EDGE ( 'NONE', *, *, #262, .T. ) ;
#237 = AXIS2_PLACEMENT_3D ( 'NONE', #41, #286, #144 ) ;
#238 = EDGE_CURVE ( 'NONE', #96, #189, #57, .T. ) ;
#239 = DIRECTION ( 'NONE',  ( -1.000000000000000000, 0.0000000000000000000, 0.0000000000000000000 ) ) ;
#240 = VERTEX_POINT ( 'NONE', #160 ) ;
#241 = ORIENTED_EDGE ( 'NONE', *, *, #66, .F. ) ;
#242 = FACE_OUTER_BOUND ( 'NONE', #47, .T. ) ;
#243 = CARTESIAN_POINT ( 'NONE',  ( -0.01048949999999999362, 1.284593259965616364E-18, 0.06300000000000000044 ) ) ;
#244 = LINE ( 'NONE', #24, #26 ) ;
#245 = PRODUCT_DEFINITION_CONTEXT ( 'detailed design', #269, 'design' ) ;
#246 = CYLINDRICAL_SURFACE ( 'NONE', #165, 0.01048950000000000229 ) ;
#247 = COLOUR_RGB ( '',0.7921568627450980005, 0.8196078431372548767, 0.9333333333333333481 ) ;
#248 = DIRECTION ( 'NONE',  ( -1.000000000000000000, 0.0000000000000000000, 1.224646799147353454E-16 ) ) ;
#249 = CARTESIAN_POINT ( 'NONE',  ( 0.06250000000000002776, 7.654042494670959086E-18, 1.485000000000000764 ) ) ;
#250 = CARTESIAN_POINT ( 'NONE',  ( 7.715274834628326610E-18, 0.0000000000000000000, 0.06300000000000000044 ) ) ;
#251 = EDGE_CURVE ( 'NONE', #16, #166, #257, .T. ) ;
#252 = ADVANCED_FACE ( 'NONE', ( #37 ), #227, .T. ) ;
#253 = VECTOR ( 'NONE', #89, 39.37007874015748143 ) ;
#254 = DIRECTION ( 'NONE',  ( -0.7071067811865462405, 0.0000000000000000000, -0.7071067811865486830 ) ) ;
#255 = CYLINDRICAL_SURFACE ( 'NONE', #272, 0.06250000000000002776 ) ;
#256 = DIRECTION ( 'NONE',  ( 1.000000000000000000, 0.0000000000000000000, 0.0000000000000000000 ) ) ;
#257 = CIRCLE ( 'NONE', #300, 0.04750000000000064587 ) ;
#258 = ORIENTED_EDGE ( 'NONE', *, *, #85, .T. ) ;
#259 = CARTESIAN_POINT ( 'NONE',  ( 0.0000000000000000000, 0.0000000000000000000, 1.500000000000000222 ) ) ;
#260 = ORIENTED_EDGE ( 'NONE', *, *, #276, .F. ) ;
#261 = EDGE_CURVE ( 'NONE', #96, #169, #15, .T. ) ;
#262 = EDGE_CURVE ( 'NONE', #19, #189, #197, .T. ) ;
#263 = CARTESIAN_POINT ( 'NONE',  ( 0.0000000000000000000, 0.0000000000000000000, 1.485000000000000764 ) ) ;
#264 = ORIENTED_EDGE ( 'NONE', *, *, #261, .F. ) ;
#265 = COLOUR_RGB ( '',0.7921568627450980005, 0.8196078431372548767, 0.9333333333333333481 ) ;
#266 = CIRCLE ( 'NONE', #78, 0.01048950000000000229 ) ;
#267 = DIRECTION ( 'NONE',  ( -1.000000000000000000, 0.0000000000000000000, 0.0000000000000000000 ) ) ;
#268 = ORIENTED_EDGE ( 'NONE', *, *, #123, .T. ) ;
#269 = APPLICATION_CONTEXT ( 'automotive_design' ) ;
#270 = CARTESIAN_POINT ( 'NONE',  ( -0.04750000000000064587, 0.0000000000000000000, 1.500000000000000222 ) ) ;
#271 = UNCERTAINTY_MEASURE_WITH_UNIT (LENGTH_MEASURE( 1.000000000000000082E-05 ), #285, 'distance_accuracy_value', 'NONE');
#272 = AXIS2_PLACEMENT_3D ( 'NONE', #281, #283, #306 ) ;
#273 = DIRECTION ( 'NONE',  ( 0.0000000000000000000, 0.0000000000000000000, 1.000000000000000000 ) ) ;
#274 = CARTESIAN_POINT ( 'NONE',  ( 0.0000000000000000000, 0.0000000000000000000, 0.0000000000000000000 ) ) ;
#275 = PLANE ( 'NONE',  #14 ) ;
#276 = EDGE_CURVE ( 'NONE', #240, #115, #69, .T. ) ;
#277 = ADVANCED_FACE ( 'NONE', ( #17 ), #137, .T. ) ;
#278 = FACE_OUTER_BOUND ( 'NONE', #193, .T. ) ;
#279 = CARTESIAN_POINT ( 'NONE',  ( 0.06250000000000006939, 7.654042494670963708E-18, 0.3579662030792253868 ) ) ;
#280 = EDGE_CURVE ( 'NONE', #189, #19, #147, .T. ) ;
#281 = CARTESIAN_POINT ( 'NONE',  ( 0.0000000000000000000, 0.0000000000000000000, 1.500000000000000222 ) ) ;
#282 = CARTESIAN_POINT ( 'NONE',  ( -0.06250000000000002776, 0.0000000000000000000, 1.500000000000000222 ) ) ;
#283 = DIRECTION ( 'NONE',  ( -0.0000000000000000000, -0.0000000000000000000, -1.000000000000000000 ) ) ;
#284 = CARTESIAN_POINT ( 'NONE',  ( 0.04750000000000064587, 6.735557395310483192E-18, 1.500000000000000222 ) ) ;
#285 =( CONVERSION_BASED_UNIT ( 'INCH', #186 ) LENGTH_UNIT ( ) NAMED_UNIT ( #156 ) );
#286 = DIRECTION ( 'NONE',  ( -1.224646799147353454E-16, -0.0000000000000000000, -1.000000000000000000 ) ) ;
#287 = AXIS2_PLACEMENT_3D ( 'NONE', #298, #325, #148 ) ;
#288 = VECTOR ( 'NONE', #130, 39.37007874015748143 ) ;
#289 = ORIENTED_EDGE ( 'NONE', *, *, #139, .T. ) ;
#290 = PRODUCT_DEFINITION_FORMATION_WITH_SPECIFIED_SOURCE ( 'ANY', '', #320, .NOT_KNOWN. ) ;
#291 =( NAMED_UNIT ( * ) PLANE_ANGLE_UNIT ( ) SI_UNIT ( $, .RADIAN. ) );
#292 = DIRECTION ( 'NONE',  ( -1.000000000000000000, 0.0000000000000000000, 0.0000000000000000000 ) ) ;
#293 = ORIENTED_EDGE ( 'NONE', *, *, #104, .T. ) ;
#294 = FILL_AREA_STYLE_COLOUR ( '', #247 ) ;
#295 = ORIENTED_EDGE ( 'NONE', *, *, #85, .F. ) ;
#296 = MECHANICAL_DESIGN_GEOMETRIC_PRESENTATION_REPRESENTATION (  '', ( #110 ), #119 ) ;
#297 = ORIENTED_EDGE ( 'NONE', *, *, #161, .F. ) ;
#298 = CARTESIAN_POINT ( 'NONE',  ( 1.284593259965616364E-18, 0.0000000000000000000, 0.01048950000000000056 ) ) ;
#299 = ORIENTED_EDGE ( 'NONE', *, *, #161, .T. ) ;
#300 = AXIS2_PLACEMENT_3D ( 'NONE', #36, #109, #207 ) ;
#301 = ORIENTED_EDGE ( 'NONE', *, *, #34, .T. ) ;
#302 = ORIENTED_EDGE ( 'NONE', *, *, #73, .T. ) ;
#303 = CARTESIAN_POINT ( 'NONE',  ( 7.715274834628326610E-18, 0.0000000000000000000, 0.06300000000000000044 ) ) ;
#304 = CIRCLE ( 'NONE', #125, 0.06250000000000002776 ) ;
#305 = LINE ( 'NONE', #84, #92 ) ;
#306 = DIRECTION ( 'NONE',  ( -1.000000000000000000, 0.0000000000000000000, 0.0000000000000000000 ) ) ;
#307 = LINE ( 'NONE', #182, #27 ) ;
#308 = DIRECTION ( 'NONE',  ( 1.000000000000000000, 0.0000000000000000000, 0.0000000000000000000 ) ) ;
#309 = DIRECTION ( 'NONE',  ( 1.000000000000000000, 0.0000000000000000000, 0.0000000000000000000 ) ) ;
#310 = ADVANCED_FACE ( 'NONE', ( #168 ), #311, .T. ) ;
#311 = SPHERICAL_SURFACE ( 'NONE', #181, 0.01048950000000000056 ) ;
#312 = AXIS2_PLACEMENT_3D ( 'NONE', #263, #212, #309 ) ;
#313 = ORIENTED_EDGE ( 'NONE', *, *, #262, .F. ) ;
#314 = DIRECTION ( 'NONE',  ( 0.0000000000000000000, 0.0000000000000000000, -1.000000000000000000 ) ) ;
#315 = ORIENTED_EDGE ( 'NONE', *, *, #251, .F. ) ;
#316 = EDGE_LOOP ( 'NONE', ( #18, #70, #323, #219 ) ) ;
#317 = PRESENTATION_LAYER_ASSIGNMENT (  '', '', ( #159 ) ) ;
#318 = FACE_OUTER_BOUND ( 'NONE', #62, .T. ) ;
#319 = CARTESIAN_POINT ( 'NONE',  ( 0.01048950000000001097, 0.0000000000000000000, 0.06300000000000000044 ) ) ;
#320 = PRODUCT ( 'Micro_BMR-021-2', 'Micro_BMR-021-2', '', ( #220 ) ) ;
#321 = DIRECTION ( 'NONE',  ( 1.000000000000000000, 0.0000000000000000000, 0.0000000000000000000 ) ) ;
#322 = ADVANCED_FACE ( 'NONE', ( #188 ), #38, .T. ) ;
#323 = ORIENTED_EDGE ( 'NONE', *, *, #214, .T. ) ;
#324 = CIRCLE ( 'NONE', #164, 0.01048950000000000229 ) ;
#325 = DIRECTION ( 'NONE',  ( 0.0000000000000000000, 1.000000000000000000, 0.0000000000000000000 ) ) ;
ENDSEC;
END-ISO-10303-21;
