ISO-10303-21;
HEADER;
FILE_DESCRIPTION (( 'STEP AP214' ),
    '1' );
FILE_NAME ('81928.STEP',
    '2023-06-30T22:34:00',
    ( '' ),
    ( '' ),
    'SwSTEP 2.0',
    'SolidWorks 2023',
    '' );
FILE_SCHEMA (( 'AUTOMOTIVE_DESIGN' ));
ENDSEC;

DATA;
#1 = DIMENSIONAL_EXPONENTS ( 1.000000000000000000, 0.000000000000000000, 0.000000000000000000, 0.000000000000000000, 0.000000000000000000, 0.000000000000000000, 0.000000000000000000 ) ;
#2 = EDGE_LOOP ( 'NONE', ( #308, #76, #333, #56, #191 ) ) ;
#3 = ORIENTED_EDGE ( 'NONE', *, *, #30, .T. ) ;
#4 =( NAMED_UNIT ( * ) SI_UNIT ( $, .STERADIAN. ) SOLID_ANGLE_UNIT ( ) );
#5 = AXIS2_PLACEMENT_3D ( 'NONE', #11, #347, #265 ) ;
#6 = PRODUCT_DEFINITION_FORMATION_WITH_SPECIFIED_SOURCE ( 'ANY', '', #252, .NOT_KNOWN. ) ;
#7 =( CONVERSION_BASED_UNIT ( 'INCH', #260 ) LENGTH_UNIT ( ) NAMED_UNIT ( #51 ) );
#8 =( NAMED_UNIT ( * ) PLANE_ANGLE_UNIT ( ) SI_UNIT ( $, .RADIAN. ) );
#9 = DIRECTION ( 'NONE',  ( -1.205004597867861339E-16, 1.000000000000000000, -0.000000000000000000 ) ) ;
#10 = LENGTH_MEASURE_WITH_UNIT ( LENGTH_MEASURE( 0.02539999999999999897 ), #121 );
#11 = CARTESIAN_POINT ( 'NONE',  ( 0.000000000000000000, 0.1875000000000000555, 0.000000000000000000 ) ) ;
#12 = DIRECTION ( 'NONE',  ( -1.000000000000000000, 0.000000000000000000, 0.000000000000000000 ) ) ;
#13 = CIRCLE ( 'NONE', #135, 0.1875000000000000555 ) ;
#14 = FILL_AREA_STYLE ('',( #92 ) ) ;
#15 = FACE_OUTER_BOUND ( 'NONE', #338, .T. ) ;
#16 = CLOSED_SHELL ( 'NONE', ( #239, #18, #52, #35 ) ) ;
#17 = CARTESIAN_POINT ( 'NONE',  ( 0.000000000000000000, 0.000000000000000000, 0.000000000000000000 ) ) ;
#18 = ADVANCED_FACE ( 'NONE', ( #20 ), #112, .F. ) ;
#19 = COLOUR_RGB ( '',0.7921568627450980005, 0.8196078431372548767, 0.9333333333333333481 ) ;
#20 = FACE_OUTER_BOUND ( 'NONE', #247, .T. ) ;
#21 = DIMENSIONAL_EXPONENTS ( 1.000000000000000000, 0.000000000000000000, 0.000000000000000000, 0.000000000000000000, 0.000000000000000000, 0.000000000000000000, 0.000000000000000000 ) ;
#22 = EDGE_LOOP ( 'NONE', ( #303, #3, #336, #53 ) ) ;
#23 = EDGE_CURVE ( 'NONE', #28, #195, #327, .T. ) ;
#24 = CARTESIAN_POINT ( 'NONE',  ( 1.224646799147353700E-16, 2.000000000000000000, 0.000000000000000000 ) ) ;
#25 = CIRCLE ( 'NONE', #98, 0.1874999999999999722 ) ;
#26 = DIMENSIONAL_EXPONENTS ( 1.000000000000000000, 0.000000000000000000, 0.000000000000000000, 0.000000000000000000, 0.000000000000000000, 0.000000000000000000, 0.000000000000000000 ) ;
#27 = ORIENTED_EDGE ( 'NONE', *, *, #287, .T. ) ;
#28 = VERTEX_POINT ( 'NONE', #170 ) ;
#29 = SURFACE_STYLE_FILL_AREA ( #203 ) ;
#30 = EDGE_CURVE ( 'NONE', #195, #284, #84, .T. ) ;
#31 = DIRECTION ( 'NONE',  ( -1.000000000000000000, 0.000000000000000000, 0.000000000000000000 ) ) ;
#32 = AXIS2_PLACEMENT_3D ( 'NONE', #111, #86, #90 ) ;
#33 = AXIS2_PLACEMENT_3D ( 'NONE', #261, #149, #297 ) ;
#34 = DIRECTION ( 'NONE',  ( -0.000000000000000000, -1.000000000000000000, -0.000000000000000000 ) ) ;
#35 = ADVANCED_FACE ( 'NONE', ( #309 ), #315, .F. ) ;
#36 = DIRECTION ( 'NONE',  ( -1.205004597867861339E-16, 1.000000000000000000, -0.000000000000000000 ) ) ;
#37 =( CONVERSION_BASED_UNIT ( 'INCH', #350 ) LENGTH_UNIT ( ) NAMED_UNIT ( #26 ) );
#38 = SURFACE_STYLE_USAGE ( .BOTH. , #94 ) ;
#39 = FILL_AREA_STYLE_COLOUR ( '', #319 ) ;
#40 = DIRECTION ( 'NONE',  ( -1.205004597867861339E-16, 1.000000000000000000, -0.000000000000000000 ) ) ;
#41 = STYLED_ITEM ( 'NONE', ( #292 ), #81 ) ;
#42 = DIRECTION ( 'NONE',  ( -1.000000000000000000, 0.000000000000000000, 0.000000000000000000 ) ) ;
#43 = FILL_AREA_STYLE ('',( #330 ) ) ;
#44 = AXIS2_PLACEMENT_3D ( 'NONE', #24, #140, #255 ) ;
#45 = VECTOR ( 'NONE', #364, 39.37007874015748143 ) ;
#46 = SURFACE_STYLE_USAGE ( .BOTH. , #49 ) ;
#47 = PRODUCT_CONTEXT ( 'NONE', #241, 'mechanical' ) ;
#48 = EDGE_CURVE ( 'NONE', #195, #218, #69, .T. ) ;
#49 = SURFACE_SIDE_STYLE ('',( #159 ) ) ;
#50 = AXIS2_PLACEMENT_3D ( 'NONE', #209, #291, #326 ) ;
#51 = DIMENSIONAL_EXPONENTS ( 1.000000000000000000, 0.000000000000000000, 0.000000000000000000, 0.000000000000000000, 0.000000000000000000, 0.000000000000000000, 0.000000000000000000 ) ;
#52 = ADVANCED_FACE ( 'NONE', ( #370 ), #224, .T. ) ;
#53 = ORIENTED_EDGE ( 'NONE', *, *, #194, .T. ) ;
#54 = ORIENTED_EDGE ( 'NONE', *, *, #287, .F. ) ;
#55 = PRODUCT_DEFINITION_CONTEXT ( 'detailed design', #298, 'design' ) ;
#56 = ORIENTED_EDGE ( 'NONE', *, *, #130, .F. ) ;
#57 = CIRCLE ( 'NONE', #313, 0.1874999999999998335 ) ;
#58 = DIRECTION ( 'NONE',  ( 1.000000000000000000, 1.205004597867861339E-16, 0.000000000000000000 ) ) ;
#59 = MANIFOLD_SOLID_BREP ( 'Revolve - Cutting Edge', #192 ) ;
#60 = CARTESIAN_POINT ( 'NONE',  ( -2.296212748401288034E-17, 0.1875000000000000555, 0.000000000000000000 ) ) ;
#61 = UNCERTAINTY_MEASURE_WITH_UNIT (LENGTH_MEASURE( 1.000000000000000082E-05 ), #361, 'distance_accuracy_value', 'NONE');
#62 = CARTESIAN_POINT ( 'NONE',  ( 0.1874999999999999167, 2.000000000000000000, 2.296212748401284644E-17 ) ) ;
#63 = COLOUR_RGB ( '',0.7921568627450980005, 0.8196078431372548767, 0.9333333333333333481 ) ;
#64 = DIRECTION ( 'NONE',  ( 0.000000000000000000, 0.000000000000000000, -1.000000000000000000 ) ) ;
#65 = CARTESIAN_POINT ( 'NONE',  ( 0.1874999999999999722, 2.000000000000000000, 2.296212748401284952E-17 ) ) ;
#66 = CARTESIAN_POINT ( 'NONE',  ( 0.000000000000000000, 0.1875000000000000555, -0.1875000000000000555 ) ) ;
#67 = DIRECTION ( 'NONE',  ( 0.000000000000000000, 1.000000000000000000, 0.000000000000000000 ) ) ;
#68 = FILL_AREA_STYLE_COLOUR ( '', #70 ) ;
#69 = CIRCLE ( 'NONE', #172, 0.1875000000000000555 ) ;
#70 = COLOUR_RGB ( '',1.000000000000000000, 0.000000000000000000, 0.000000000000000000 ) ;
#71 = SPHERICAL_SURFACE ( 'NONE', #153, 0.1875000000000000555 ) ;
#72 = ORIENTED_EDGE ( 'NONE', *, *, #276, .T. ) ;
#73 = VERTEX_POINT ( 'NONE', #65 ) ;
#74 = CARTESIAN_POINT ( 'NONE',  ( 0.000000000000000000, 0.000000000000000000, -0.1875000000000000278 ) ) ;
#75 =( CONVERSION_BASED_UNIT ( 'INCH', #162 ) LENGTH_UNIT ( ) NAMED_UNIT ( #310 ) );
#76 = ORIENTED_EDGE ( 'NONE', *, *, #164, .T. ) ;
#77 = EDGE_CURVE ( 'NONE', #73, #367, #57, .T. ) ;
#78 = STYLED_ITEM ( 'NONE', ( #207 ), #59 ) ;
#79 = ORIENTED_EDGE ( 'NONE', *, *, #335, .T. ) ;
#80 =( CONVERSION_BASED_UNIT ( 'INCH', #300 ) LENGTH_UNIT ( ) NAMED_UNIT ( #1 ) );
#81 = ADVANCED_FACE ( 'NONE', ( #316 ), #123, .T. ) ;
#82 = DIMENSIONAL_EXPONENTS ( 1.000000000000000000, 0.000000000000000000, 0.000000000000000000, 0.000000000000000000, 0.000000000000000000, 0.000000000000000000, 0.000000000000000000 ) ;
#83 = CARTESIAN_POINT ( 'NONE',  ( 0.000000000000000000, 0.1875000000000000555, 0.000000000000000000 ) ) ;
#84 = CIRCLE ( 'NONE', #263, 0.1875000000000000555 ) ;
#85 = STYLED_ITEM ( 'NONE', ( #122 ), #324 ) ;
#86 = DIRECTION ( 'NONE',  ( -1.205004597867861339E-16, 1.000000000000000000, 0.000000000000000000 ) ) ;
#87 = FILL_AREA_STYLE ('',( #340 ) ) ;
#88 = ORIENTED_EDGE ( 'NONE', *, *, #258, .F. ) ;
#89 =( LENGTH_UNIT ( ) NAMED_UNIT ( * ) SI_UNIT ( $, .METRE. ) );
#90 = DIRECTION ( 'NONE',  ( -1.000000000000000000, -1.205004597867861339E-16, 0.000000000000000000 ) ) ;
#91 = LENGTH_MEASURE_WITH_UNIT ( LENGTH_MEASURE( 0.02539999999999999897 ), #89 );
#92 = FILL_AREA_STYLE_COLOUR ( '', #337 ) ;
#93 = CARTESIAN_POINT ( 'NONE',  ( -2.296212748401288034E-17, 0.1875000000000000555, 0.000000000000000000 ) ) ;
#94 = SURFACE_SIDE_STYLE ('',( #311 ) ) ;
#95 =( NAMED_UNIT ( * ) PLANE_ANGLE_UNIT ( ) SI_UNIT ( $, .RADIAN. ) );
#96 = CYLINDRICAL_SURFACE ( 'NONE', #193, 0.1874999999999997780 ) ;
#97 = COLOUR_RGB ( '',1.000000000000000000, 0.000000000000000000, 0.000000000000000000 ) ;
#98 = AXIS2_PLACEMENT_3D ( 'NONE', #155, #204, #269 ) ;
#99 = DIRECTION ( 'NONE',  ( -1.205004597867861339E-16, 1.000000000000000000, -0.000000000000000000 ) ) ;
#100 = FILL_AREA_STYLE ('',( #68 ) ) ;
#101 =( LENGTH_UNIT ( ) NAMED_UNIT ( * ) SI_UNIT ( $, .METRE. ) );
#102 = LINE ( 'NONE', #348, #235 ) ;
#103 = AXIS2_PLACEMENT_3D ( 'NONE', #354, #67, #182 ) ;
#104 = DIRECTION ( 'NONE',  ( 0.000000000000000000, 0.000000000000000000, 1.000000000000000000 ) ) ;
#105 = LINE ( 'NONE', #74, #45 ) ;
#106 = ORIENTED_EDGE ( 'NONE', *, *, #48, .T. ) ;
#107 = SHAPE_DEFINITION_REPRESENTATION ( #366, #133 ) ;
#108 = CARTESIAN_POINT ( 'NONE',  ( 2.296212748401287726E-17, 0.000000000000000000, 0.1875000000000000278 ) ) ;
#109 = CARTESIAN_POINT ( 'NONE',  ( 0.000000000000000000, 0.1875000000000000555, 0.000000000000000000 ) ) ;
#110 = CIRCLE ( 'NONE', #33, 0.1874999999999996669 ) ;
#111 = CARTESIAN_POINT ( 'NONE',  ( 3.032153695949145708E-16, 0.5000000000000000000, 0.000000000000000000 ) ) ;
#112 = PLANE ( 'NONE',  #32 ) ;
#113 = VECTOR ( 'NONE', #262, 39.37007874015748143 ) ;
#114 = VERTEX_POINT ( 'NONE', #145 ) ;
#115 = DIMENSIONAL_EXPONENTS ( 1.000000000000000000, 0.000000000000000000, 0.000000000000000000, 0.000000000000000000, 0.000000000000000000, 0.000000000000000000, 0.000000000000000000 ) ;
#116 = DIRECTION ( 'NONE',  ( 0.000000000000000000, 0.000000000000000000, -1.000000000000000000 ) ) ;
#117 = UNCERTAINTY_MEASURE_WITH_UNIT (LENGTH_MEASURE( 1.000000000000000082E-05 ), #251, 'distance_accuracy_value', 'NONE');
#118 = PRESENTATION_LAYER_ASSIGNMENT (  '', '', ( #41 ) ) ;
#119 = CARTESIAN_POINT ( 'NONE',  ( -2.296212748401288034E-17, 0.1875000000000000555, 0.000000000000000000 ) ) ;
#120 = AXIS2_PLACEMENT_3D ( 'NONE', #93, #64, #12 ) ;
#121 =( LENGTH_UNIT ( ) NAMED_UNIT ( * ) SI_UNIT ( $, .METRE. ) );
#122 = PRESENTATION_STYLE_ASSIGNMENT (( #293 ) ) ;
#123 = SPHERICAL_SURFACE ( 'NONE', #225, 0.1875000000000000555 ) ;
#124 =( NAMED_UNIT ( * ) SI_UNIT ( $, .STERADIAN. ) SOLID_ANGLE_UNIT ( ) );
#125 = CARTESIAN_POINT ( 'NONE',  ( 3.032153695949145708E-16, 0.5000000000000001110, 0.000000000000000000 ) ) ;
#126 = STYLED_ITEM ( 'NONE', ( #214 ), #152 ) ;
#127 = COLOUR_RGB ( '',1.000000000000000000, 0.000000000000000000, 0.000000000000000000 ) ;
#128 = PRESENTATION_STYLE_ASSIGNMENT (( #148 ) ) ;
#129 = FILL_AREA_STYLE_COLOUR ( '', #127 ) ;
#130 = EDGE_CURVE ( 'NONE', #218, #114, #271, .T. ) ;
#131 = FILL_AREA_STYLE ('',( #187 ) ) ;
#132 = CARTESIAN_POINT ( 'NONE',  ( -2.296212748401288034E-17, 0.1875000000000000555, 0.000000000000000000 ) ) ;
#133 = ADVANCED_BREP_SHAPE_REPRESENTATION ( '81928', ( #59, #180, #226 ), #199 ) ;
#134 = MECHANICAL_DESIGN_GEOMETRIC_PRESENTATION_REPRESENTATION (  '', ( #41 ), #295 ) ;
#135 = AXIS2_PLACEMENT_3D ( 'NONE', #109, #216, #189 ) ;
#136 = ADVANCED_FACE ( 'NONE', ( #230 ), #346, .T. ) ;
#137 =( NAMED_UNIT ( * ) SI_UNIT ( $, .STERADIAN. ) SOLID_ANGLE_UNIT ( ) );
#138 = DIRECTION ( 'NONE',  ( 1.205004597867861339E-16, -1.000000000000000000, 0.000000000000000000 ) ) ;
#139 = DIRECTION ( 'NONE',  ( 0.000000000000000000, 0.000000000000000000, -1.000000000000000000 ) ) ;
#140 = DIRECTION ( 'NONE',  ( -1.205004597867861339E-16, 1.000000000000000000, -0.000000000000000000 ) ) ;
#141 =( GEOMETRIC_REPRESENTATION_CONTEXT ( 3 ) GLOBAL_UNCERTAINTY_ASSIGNED_CONTEXT ( ( #201 ) ) GLOBAL_UNIT_ASSIGNED_CONTEXT ( ( #202, #205, #325 ) ) REPRESENTATION_CONTEXT ( 'NONE', 'WORKASPACE' ) );
#142 = ORIENTED_EDGE ( 'NONE', *, *, #30, .F. ) ;
#143 = LENGTH_MEASURE_WITH_UNIT ( LENGTH_MEASURE( 0.02539999999999999897 ), #304 );
#144 = ORIENTED_EDGE ( 'NONE', *, *, #190, .T. ) ;
#145 = CARTESIAN_POINT ( 'NONE',  ( 0.1875000000000000555, 0.1875000000000000555, 0.000000000000000000 ) ) ;
#146 =( GEOMETRIC_REPRESENTATION_CONTEXT ( 3 ) GLOBAL_UNCERTAINTY_ASSIGNED_CONTEXT ( ( #306 ) ) GLOBAL_UNIT_ASSIGNED_CONTEXT ( ( #80, #331, #167 ) ) REPRESENTATION_CONTEXT ( 'NONE', 'WORKASPACE' ) );
#147 = SURFACE_SIDE_STYLE ('',( #178 ) ) ;
#148 = SURFACE_STYLE_USAGE ( .BOTH. , #147 ) ;
#149 = DIRECTION ( 'NONE',  ( -1.205004597867861339E-16, 1.000000000000000000, -0.000000000000000000 ) ) ;
#150 =( NAMED_UNIT ( * ) SI_UNIT ( $, .STERADIAN. ) SOLID_ANGLE_UNIT ( ) );
#151 = DIRECTION ( 'NONE',  ( 0.000000000000000000, 0.000000000000000000, -1.000000000000000000 ) ) ;
#152 = ADVANCED_FACE ( 'NONE', ( #15 ), #71, .T. ) ;
#153 = AXIS2_PLACEMENT_3D ( 'NONE', #132, #272, #242 ) ;
#154 = CARTESIAN_POINT ( 'NONE',  ( -0.1874999999999996947, 2.000000000000000000, 0.000000000000000000 ) ) ;
#155 = CARTESIAN_POINT ( 'NONE',  ( 0.000000000000000000, 0.5000000000000000000, 0.000000000000000000 ) ) ;
#156 = LINE ( 'NONE', #62, #113 ) ;
#157 = APPLICATION_PROTOCOL_DEFINITION ( 'draft international standard', 'automotive_design', 1998, #298 ) ;
#158 = SURFACE_STYLE_USAGE ( .BOTH. , #332 ) ;
#159 = SURFACE_STYLE_FILL_AREA ( #356 ) ;
#160 =( GEOMETRIC_REPRESENTATION_CONTEXT ( 3 ) GLOBAL_UNCERTAINTY_ASSIGNED_CONTEXT ( ( #344 ) ) GLOBAL_UNIT_ASSIGNED_CONTEXT ( ( #349, #95, #176 ) ) REPRESENTATION_CONTEXT ( 'NONE', 'WORKASPACE' ) );
#161 =( GEOMETRIC_REPRESENTATION_CONTEXT ( 3 ) GLOBAL_UNCERTAINTY_ASSIGNED_CONTEXT ( ( #163 ) ) GLOBAL_UNIT_ASSIGNED_CONTEXT ( ( #37, #8, #124 ) ) REPRESENTATION_CONTEXT ( 'NONE', 'WORKASPACE' ) );
#162 = LENGTH_MEASURE_WITH_UNIT ( LENGTH_MEASURE( 0.02539999999999999897 ), #101 );
#163 = UNCERTAINTY_MEASURE_WITH_UNIT (LENGTH_MEASURE( 1.000000000000000082E-05 ), #37, 'distance_accuracy_value', 'NONE');
#164 = EDGE_CURVE ( 'NONE', #222, #28, #362, .T. ) ;
#165 = VERTEX_POINT ( 'NONE', #248 ) ;
#166 = CIRCLE ( 'NONE', #285, 0.1874999999999996669 ) ;
#167 =( NAMED_UNIT ( * ) SI_UNIT ( $, .STERADIAN. ) SOLID_ANGLE_UNIT ( ) );
#168 = EDGE_LOOP ( 'NONE', ( #280, #27, #144, #274, #257 ) ) ;
#169 = CARTESIAN_POINT ( 'NONE',  ( -0.1875000000000000555, 0.1875000000000000555, 2.296212748401287726E-17 ) ) ;
#170 = CARTESIAN_POINT ( 'NONE',  ( 2.296212748401288034E-17, 0.1875000000000000555, 0.1875000000000000555 ) ) ;
#171 = EDGE_LOOP ( 'NONE', ( #186, #72, #79, #373 ) ) ;
#172 = AXIS2_PLACEMENT_3D ( 'NONE', #83, #177, #139 ) ;
#173 = AXIS2_PLACEMENT_3D ( 'NONE', #206, #34, #151 ) ;
#174 = DIMENSIONAL_EXPONENTS ( 1.000000000000000000, 0.000000000000000000, 0.000000000000000000, 0.000000000000000000, 0.000000000000000000, 0.000000000000000000, 0.000000000000000000 ) ;
#175 = VERTEX_POINT ( 'NONE', #213 ) ;
#176 =( NAMED_UNIT ( * ) SI_UNIT ( $, .STERADIAN. ) SOLID_ANGLE_UNIT ( ) );
#177 = DIRECTION ( 'NONE',  ( -0.000000000000000000, -1.000000000000000000, -0.000000000000000000 ) ) ;
#178 = SURFACE_STYLE_FILL_AREA ( #14 ) ;
#179 = SURFACE_SIDE_STYLE ('',( #212 ) ) ;
#180 = MANIFOLD_SOLID_BREP ( 'Revolve - Tool Body (Straight Shanked)', #16 ) ;
#181 = DIRECTION ( 'NONE',  ( -1.000000000000000000, 0.000000000000000000, 0.000000000000000000 ) ) ;
#182 = DIRECTION ( 'NONE',  ( 0.000000000000000000, -0.000000000000000000, 1.000000000000000000 ) ) ;
#183 = MECHANICAL_DESIGN_GEOMETRIC_PRESENTATION_REPRESENTATION (  '', ( #372 ), #146 ) ;
#184 = DIRECTION ( 'NONE',  ( 1.000000000000000000, 0.000000000000000000, 0.000000000000000000 ) ) ;
#185 = FACE_OUTER_BOUND ( 'NONE', #196, .T. ) ;
#186 = ORIENTED_EDGE ( 'NONE', *, *, #317, .F. ) ;
#187 = FILL_AREA_STYLE_COLOUR ( '', #97 ) ;
#188 = AXIS2_PLACEMENT_3D ( 'NONE', #360, #268, #355 ) ;
#189 = DIRECTION ( 'NONE',  ( 0.000000000000000000, 0.000000000000000000, -1.000000000000000000 ) ) ;
#190 = EDGE_CURVE ( 'NONE', #253, #218, #105, .T. ) ;
#191 = ORIENTED_EDGE ( 'NONE', *, *, #190, .F. ) ;
#192 = CLOSED_SHELL ( 'NONE', ( #81, #324, #359, #136, #152 ) ) ;
#193 = AXIS2_PLACEMENT_3D ( 'NONE', #210, #9, #294 ) ;
#194 = EDGE_CURVE ( 'NONE', #114, #28, #13, .T. ) ;
#195 = VERTEX_POINT ( 'NONE', #169 ) ;
#196 = EDGE_LOOP ( 'NONE', ( #244, #286, #357, #305 ) ) ;
#197 = CARTESIAN_POINT ( 'NONE',  ( 0.1874999999999999722, 2.000000000000000000, 0.000000000000000000 ) ) ;
#198 = AXIS2_PLACEMENT_3D ( 'NONE', #228, #341, #116 ) ;
#199 =( GEOMETRIC_REPRESENTATION_CONTEXT ( 3 ) GLOBAL_UNCERTAINTY_ASSIGNED_CONTEXT ( ( #61 ) ) GLOBAL_UNIT_ASSIGNED_CONTEXT ( ( #361, #245, #275 ) ) REPRESENTATION_CONTEXT ( 'NONE', 'WORKASPACE' ) );
#200 = DIRECTION ( 'NONE',  ( 1.000000000000000000, 0.000000000000000000, -1.224646799147353207E-16 ) ) ;
#201 = UNCERTAINTY_MEASURE_WITH_UNIT (LENGTH_MEASURE( 1.000000000000000082E-05 ), #202, 'distance_accuracy_value', 'NONE');
#202 =( CONVERSION_BASED_UNIT ( 'INCH', #10 ) LENGTH_UNIT ( ) NAMED_UNIT ( #115 ) );
#203 = FILL_AREA_STYLE ('',( #39 ) ) ;
#204 = DIRECTION ( 'NONE',  ( -0.000000000000000000, -1.000000000000000000, -0.000000000000000000 ) ) ;
#205 =( NAMED_UNIT ( * ) PLANE_ANGLE_UNIT ( ) SI_UNIT ( $, .RADIAN. ) );
#206 = CARTESIAN_POINT ( 'NONE',  ( 0.000000000000000000, 0.000000000000000000, 0.000000000000000000 ) ) ;
#207 = PRESENTATION_STYLE_ASSIGNMENT (( #38 ) ) ;
#208 = SURFACE_SIDE_STYLE ('',( #29 ) ) ;
#209 = CARTESIAN_POINT ( 'NONE',  ( 0.000000000000000000, 0.5000000000000000000, 0.000000000000000000 ) ) ;
#210 = CARTESIAN_POINT ( 'NONE',  ( 1.224646799147353700E-16, 2.000000000000000000, 0.000000000000000000 ) ) ;
#211 = PRESENTATION_LAYER_ASSIGNMENT (  '', '', ( #351 ) ) ;
#212 = SURFACE_STYLE_FILL_AREA ( #100 ) ;
#213 = CARTESIAN_POINT ( 'NONE',  ( -0.1874999999999993616, 0.5000000000000001110, 0.000000000000000000 ) ) ;
#214 = PRESENTATION_STYLE_ASSIGNMENT (( #158 ) ) ;
#215 = UNCERTAINTY_MEASURE_WITH_UNIT (LENGTH_MEASURE( 1.000000000000000082E-05 ), #7, 'distance_accuracy_value', 'NONE');
#216 = DIRECTION ( 'NONE',  ( -0.000000000000000000, -1.000000000000000000, -0.000000000000000000 ) ) ;
#217 = PRESENTATION_LAYER_ASSIGNMENT (  '', '', ( #78 ) ) ;
#218 = VERTEX_POINT ( 'NONE', #66 ) ;
#219 = EDGE_CURVE ( 'NONE', #367, #73, #358, .T. ) ;
#220 = UNCERTAINTY_MEASURE_WITH_UNIT (LENGTH_MEASURE( 1.000000000000000082E-05 ), #75, 'distance_accuracy_value', 'NONE');
#221 = PRESENTATION_STYLE_ASSIGNMENT (( #46 ) ) ;
#222 = VERTEX_POINT ( 'NONE', #353 ) ;
#223 = PRODUCT_RELATED_PRODUCT_CATEGORY ( 'part', '', ( #252 ) ) ;
#224 = CYLINDRICAL_SURFACE ( 'NONE', #44, 0.1874999999999997780 ) ;
#225 = AXIS2_PLACEMENT_3D ( 'NONE', #119, #233, #314 ) ;
#226 = AXIS2_PLACEMENT_3D ( 'NONE', #17, #104, #184 ) ;
#227 = CARTESIAN_POINT ( 'NONE',  ( 1.224646799147353700E-16, 2.000000000000000000, 0.000000000000000000 ) ) ;
#228 = CARTESIAN_POINT ( 'NONE',  ( 0.000000000000000000, 0.1875000000000000555, 0.000000000000000000 ) ) ;
#229 = DIRECTION ( 'NONE',  ( 1.224646799147353207E-16, -0.000000000000000000, 1.000000000000000000 ) ) ;
#230 = FACE_OUTER_BOUND ( 'NONE', #168, .T. ) ;
#231 =( NAMED_UNIT ( * ) PLANE_ANGLE_UNIT ( ) SI_UNIT ( $, .RADIAN. ) );
#232 = CYLINDRICAL_SURFACE ( 'NONE', #173, 0.1875000000000000278 ) ;
#233 = DIRECTION ( 'NONE',  ( 0.000000000000000000, 0.000000000000000000, 1.000000000000000000 ) ) ;
#234 =( LENGTH_UNIT ( ) NAMED_UNIT ( * ) SI_UNIT ( $, .METRE. ) );
#235 = VECTOR ( 'NONE', #322, 39.37007874015748143 ) ;
#236 = CARTESIAN_POINT ( 'NONE',  ( 0.000000000000000000, 0.5000000000000000000, -0.1874999999999999722 ) ) ;
#237 = SURFACE_SIDE_STYLE ('',( #365 ) ) ;
#238 = FACE_OUTER_BOUND ( 'NONE', #282, .T. ) ;
#239 = ADVANCED_FACE ( 'NONE', ( #185 ), #96, .T. ) ;
#240 = SURFACE_STYLE_FILL_AREA ( #131 ) ;
#241 = APPLICATION_CONTEXT ( 'automotive_design' ) ;
#242 = DIRECTION ( 'NONE',  ( 1.000000000000000000, 0.000000000000000000, 0.000000000000000000 ) ) ;
#243 = PRESENTATION_LAYER_ASSIGNMENT (  '', '', ( #307 ) ) ;
#244 = ORIENTED_EDGE ( 'NONE', *, *, #345, .T. ) ;
#245 =( NAMED_UNIT ( * ) PLANE_ANGLE_UNIT ( ) SI_UNIT ( $, .RADIAN. ) );
#246 = DIRECTION ( 'NONE',  ( -0.000000000000000000, -1.000000000000000000, -0.000000000000000000 ) ) ;
#247 = EDGE_LOOP ( 'NONE', ( #259, #254 ) ) ;
#248 = CARTESIAN_POINT ( 'NONE',  ( 0.1874999999999999722, 0.5000000000000001110, 2.296212748401284952E-17 ) ) ;
#249 =( LENGTH_UNIT ( ) NAMED_UNIT ( * ) SI_UNIT ( $, .METRE. ) );
#250 = MECHANICAL_DESIGN_GEOMETRIC_PRESENTATION_REPRESENTATION (  '', ( #85 ), #161 ) ;
#251 =( CONVERSION_BASED_UNIT ( 'INCH', #143 ) LENGTH_UNIT ( ) NAMED_UNIT ( #21 ) );
#252 = PRODUCT ( '81928', '81928', '', ( #47 ) ) ;
#253 = VERTEX_POINT ( 'NONE', #236 ) ;
#254 = ORIENTED_EDGE ( 'NONE', *, *, #276, .F. ) ;
#255 = DIRECTION ( 'NONE',  ( -1.000000000000000000, 0.000000000000000000, 0.000000000000000000 ) ) ;
#256 = CIRCLE ( 'NONE', #50, 0.1874999999999999722 ) ;
#257 = ORIENTED_EDGE ( 'NONE', *, *, #23, .F. ) ;
#258 = EDGE_CURVE ( 'NONE', #253, #222, #256, .T. ) ;
#259 = ORIENTED_EDGE ( 'NONE', *, *, #345, .F. ) ;
#260 = LENGTH_MEASURE_WITH_UNIT ( LENGTH_MEASURE( 0.02539999999999999897 ), #321 );
#261 = CARTESIAN_POINT ( 'NONE',  ( 3.032153695949145708E-16, 0.5000000000000001110, 0.000000000000000000 ) ) ;
#262 = DIRECTION ( 'NONE',  ( -1.205004597867861339E-16, 1.000000000000000000, -0.000000000000000000 ) ) ;
#263 = AXIS2_PLACEMENT_3D ( 'NONE', #60, #229, #200 ) ;
#264 = PRESENTATION_LAYER_ASSIGNMENT (  '', '', ( #85 ) ) ;
#265 = DIRECTION ( 'NONE',  ( 0.000000000000000000, 0.000000000000000000, -1.000000000000000000 ) ) ;
#266 = PLANE ( 'NONE',  #103 ) ;
#267 = SURFACE_STYLE_USAGE ( .BOTH. , #237 ) ;
#268 = DIRECTION ( 'NONE',  ( -0.000000000000000000, -1.000000000000000000, -0.000000000000000000 ) ) ;
#269 = DIRECTION ( 'NONE',  ( 0.000000000000000000, 0.000000000000000000, -1.000000000000000000 ) ) ;
#270 = LENGTH_MEASURE_WITH_UNIT ( LENGTH_MEASURE( 0.02539999999999999897 ), #249 );
#271 = CIRCLE ( 'NONE', #5, 0.1875000000000000555 ) ;
#272 = DIRECTION ( 'NONE',  ( 0.000000000000000000, 0.000000000000000000, 1.000000000000000000 ) ) ;
#273 = PRESENTATION_LAYER_ASSIGNMENT (  '', '', ( #372 ) ) ;
#274 = ORIENTED_EDGE ( 'NONE', *, *, #48, .F. ) ;
#275 =( NAMED_UNIT ( * ) SI_UNIT ( $, .STERADIAN. ) SOLID_ANGLE_UNIT ( ) );
#276 = EDGE_CURVE ( 'NONE', #165, #175, #110, .T. ) ;
#277 = MECHANICAL_DESIGN_GEOMETRIC_PRESENTATION_REPRESENTATION (  '', ( #78 ), #371 ) ;
#278 = PRODUCT_DEFINITION ( 'UNKNOWN', '', #6, #55 ) ;
#279 = CIRCLE ( 'NONE', #120, 0.1875000000000000555 ) ;
#280 = ORIENTED_EDGE ( 'NONE', *, *, #164, .F. ) ;
#281 = PRESENTATION_STYLE_ASSIGNMENT (( #267 ) ) ;
#282 = EDGE_LOOP ( 'NONE', ( #88, #54 ) ) ;
#283 = EDGE_LOOP ( 'NONE', ( #363, #342 ) ) ;
#284 = VERTEX_POINT ( 'NONE', #318 ) ;
#285 = AXIS2_PLACEMENT_3D ( 'NONE', #125, #99, #181 ) ;
#286 = ORIENTED_EDGE ( 'NONE', *, *, #317, .T. ) ;
#287 = EDGE_CURVE ( 'NONE', #222, #253, #25, .T. ) ;
#288 = AXIS2_PLACEMENT_3D ( 'NONE', #197, #138, #58 ) ;
#289 = AXIS2_PLACEMENT_3D ( 'NONE', #296, #40, #42 ) ;
#290 = SURFACE_STYLE_USAGE ( .BOTH. , #208 ) ;
#291 = DIRECTION ( 'NONE',  ( -0.000000000000000000, -1.000000000000000000, -0.000000000000000000 ) ) ;
#292 = PRESENTATION_STYLE_ASSIGNMENT (( #290 ) ) ;
#293 = SURFACE_STYLE_USAGE ( .BOTH. , #179 ) ;
#294 = DIRECTION ( 'NONE',  ( -1.000000000000000000, 0.000000000000000000, 0.000000000000000000 ) ) ;
#295 =( GEOMETRIC_REPRESENTATION_CONTEXT ( 3 ) GLOBAL_UNCERTAINTY_ASSIGNED_CONTEXT ( ( #215 ) ) GLOBAL_UNIT_ASSIGNED_CONTEXT ( ( #7, #231, #150 ) ) REPRESENTATION_CONTEXT ( 'NONE', 'WORKASPACE' ) );
#296 = CARTESIAN_POINT ( 'NONE',  ( 1.224646799147353700E-16, 2.000000000000000000, 0.000000000000000000 ) ) ;
#297 = DIRECTION ( 'NONE',  ( -1.000000000000000000, 0.000000000000000000, 0.000000000000000000 ) ) ;
#298 = APPLICATION_CONTEXT ( 'automotive_design' ) ;
#299 =( NAMED_UNIT ( * ) PLANE_ANGLE_UNIT ( ) SI_UNIT ( $, .RADIAN. ) );
#300 = LENGTH_MEASURE_WITH_UNIT ( LENGTH_MEASURE( 0.02539999999999999897 ), #368 );
#301 = MECHANICAL_DESIGN_GEOMETRIC_PRESENTATION_REPRESENTATION (  '', ( #351 ), #160 ) ;
#302 = MECHANICAL_DESIGN_GEOMETRIC_PRESENTATION_REPRESENTATION (  '', ( #307 ), #141 ) ;
#303 = ORIENTED_EDGE ( 'NONE', *, *, #23, .T. ) ;
#304 =( LENGTH_UNIT ( ) NAMED_UNIT ( * ) SI_UNIT ( $, .METRE. ) );
#305 = ORIENTED_EDGE ( 'NONE', *, *, #335, .F. ) ;
#306 = UNCERTAINTY_MEASURE_WITH_UNIT (LENGTH_MEASURE( 1.000000000000000082E-05 ), #80, 'distance_accuracy_value', 'NONE');
#307 = STYLED_ITEM ( 'NONE', ( #221 ), #359 ) ;
#308 = ORIENTED_EDGE ( 'NONE', *, *, #258, .T. ) ;
#309 = FACE_OUTER_BOUND ( 'NONE', #283, .T. ) ;
#310 = DIMENSIONAL_EXPONENTS ( 1.000000000000000000, 0.000000000000000000, 0.000000000000000000, 0.000000000000000000, 0.000000000000000000, 0.000000000000000000, 0.000000000000000000 ) ;
#311 = SURFACE_STYLE_FILL_AREA ( #87 ) ;
#312 = ORIENTED_EDGE ( 'NONE', *, *, #339, .T. ) ;
#313 = AXIS2_PLACEMENT_3D ( 'NONE', #227, #36, #31 ) ;
#314 = DIRECTION ( 'NONE',  ( 1.000000000000000000, 0.000000000000000000, 0.000000000000000000 ) ) ;
#315 = PLANE ( 'NONE',  #288 ) ;
#316 = FACE_OUTER_BOUND ( 'NONE', #22, .T. ) ;
#317 = EDGE_CURVE ( 'NONE', #165, #73, #156, .T. ) ;
#318 = CARTESIAN_POINT ( 'NONE',  ( -1.148106374200644017E-17, 0.000000000000000000, 0.000000000000000000 ) ) ;
#319 = COLOUR_RGB ( '',1.000000000000000000, 0.000000000000000000, 0.000000000000000000 ) ;
#320 = VECTOR ( 'NONE', #246, 39.37007874015748143 ) ;
#321 =( LENGTH_UNIT ( ) NAMED_UNIT ( * ) SI_UNIT ( $, .METRE. ) );
#322 = DIRECTION ( 'NONE',  ( -1.205004597867861339E-16, 1.000000000000000000, -0.000000000000000000 ) ) ;
#323 =( NAMED_UNIT ( * ) PLANE_ANGLE_UNIT ( ) SI_UNIT ( $, .RADIAN. ) );
#324 = ADVANCED_FACE ( 'NONE', ( #328 ), #232, .T. ) ;
#325 =( NAMED_UNIT ( * ) SI_UNIT ( $, .STERADIAN. ) SOLID_ANGLE_UNIT ( ) );
#326 = DIRECTION ( 'NONE',  ( 0.000000000000000000, 0.000000000000000000, -1.000000000000000000 ) ) ;
#327 = CIRCLE ( 'NONE', #198, 0.1875000000000000555 ) ;
#328 = FACE_OUTER_BOUND ( 'NONE', #2, .T. ) ;
#329 = APPLICATION_PROTOCOL_DEFINITION ( 'draft international standard', 'automotive_design', 1998, #241 ) ;
#330 = FILL_AREA_STYLE_COLOUR ( '', #19 ) ;
#331 =( NAMED_UNIT ( * ) PLANE_ANGLE_UNIT ( ) SI_UNIT ( $, .RADIAN. ) );
#332 = SURFACE_SIDE_STYLE ('',( #240 ) ) ;
#333 = ORIENTED_EDGE ( 'NONE', *, *, #194, .F. ) ;
#334 = PRESENTATION_LAYER_ASSIGNMENT (  '', '', ( #126 ) ) ;
#335 = EDGE_CURVE ( 'NONE', #175, #367, #102, .T. ) ;
#336 = ORIENTED_EDGE ( 'NONE', *, *, #339, .F. ) ;
#337 = COLOUR_RGB ( '',1.000000000000000000, 0.000000000000000000, 0.000000000000000000 ) ;
#338 = EDGE_LOOP ( 'NONE', ( #142, #106, #369, #312 ) ) ;
#339 = EDGE_CURVE ( 'NONE', #114, #284, #279, .T. ) ;
#340 = FILL_AREA_STYLE_COLOUR ( '', #63 ) ;
#341 = DIRECTION ( 'NONE',  ( -0.000000000000000000, -1.000000000000000000, -0.000000000000000000 ) ) ;
#342 = ORIENTED_EDGE ( 'NONE', *, *, #77, .T. ) ;
#343 =( GEOMETRIC_REPRESENTATION_CONTEXT ( 3 ) GLOBAL_UNCERTAINTY_ASSIGNED_CONTEXT ( ( #220 ) ) GLOBAL_UNIT_ASSIGNED_CONTEXT ( ( #75, #299, #137 ) ) REPRESENTATION_CONTEXT ( 'NONE', 'WORKASPACE' ) );
#344 = UNCERTAINTY_MEASURE_WITH_UNIT (LENGTH_MEASURE( 1.000000000000000082E-05 ), #349, 'distance_accuracy_value', 'NONE');
#345 = EDGE_CURVE ( 'NONE', #175, #165, #166, .T. ) ;
#346 = CYLINDRICAL_SURFACE ( 'NONE', #188, 0.1875000000000000278 ) ;
#347 = DIRECTION ( 'NONE',  ( -0.000000000000000000, -1.000000000000000000, -0.000000000000000000 ) ) ;
#348 = CARTESIAN_POINT ( 'NONE',  ( -0.1874999999999996392, 2.000000000000000000, 0.000000000000000000 ) ) ;
#349 =( CONVERSION_BASED_UNIT ( 'INCH', #91 ) LENGTH_UNIT ( ) NAMED_UNIT ( #82 ) );
#350 = LENGTH_MEASURE_WITH_UNIT ( LENGTH_MEASURE( 0.02539999999999999897 ), #234 );
#351 = STYLED_ITEM ( 'NONE', ( #128 ), #136 ) ;
#352 = MECHANICAL_DESIGN_GEOMETRIC_PRESENTATION_REPRESENTATION (  '', ( #126 ), #343 ) ;
#353 = CARTESIAN_POINT ( 'NONE',  ( 2.296212748401287726E-17, 0.5000000000000000000, 0.1874999999999999722 ) ) ;
#354 = CARTESIAN_POINT ( 'NONE',  ( 0.000000000000000000, 0.5000000000000000000, 0.000000000000000000 ) ) ;
#355 = DIRECTION ( 'NONE',  ( 0.000000000000000000, 0.000000000000000000, -1.000000000000000000 ) ) ;
#356 = FILL_AREA_STYLE ('',( #129 ) ) ;
#357 = ORIENTED_EDGE ( 'NONE', *, *, #219, .F. ) ;
#358 = CIRCLE ( 'NONE', #289, 0.1874999999999998335 ) ;
#359 = ADVANCED_FACE ( 'NONE', ( #238 ), #266, .T. ) ;
#360 = CARTESIAN_POINT ( 'NONE',  ( 0.000000000000000000, 0.000000000000000000, 0.000000000000000000 ) ) ;
#361 =( CONVERSION_BASED_UNIT ( 'INCH', #270 ) LENGTH_UNIT ( ) NAMED_UNIT ( #174 ) );
#362 = LINE ( 'NONE', #108, #320 ) ;
#363 = ORIENTED_EDGE ( 'NONE', *, *, #219, .T. ) ;
#364 = DIRECTION ( 'NONE',  ( -0.000000000000000000, -1.000000000000000000, -0.000000000000000000 ) ) ;
#365 = SURFACE_STYLE_FILL_AREA ( #43 ) ;
#366 = PRODUCT_DEFINITION_SHAPE ( 'NONE', 'NONE',  #278 ) ;
#367 = VERTEX_POINT ( 'NONE', #154 ) ;
#368 =( LENGTH_UNIT ( ) NAMED_UNIT ( * ) SI_UNIT ( $, .METRE. ) );
#369 = ORIENTED_EDGE ( 'NONE', *, *, #130, .T. ) ;
#370 = FACE_OUTER_BOUND ( 'NONE', #171, .T. ) ;
#371 =( GEOMETRIC_REPRESENTATION_CONTEXT ( 3 ) GLOBAL_UNCERTAINTY_ASSIGNED_CONTEXT ( ( #117 ) ) GLOBAL_UNIT_ASSIGNED_CONTEXT ( ( #251, #323, #4 ) ) REPRESENTATION_CONTEXT ( 'NONE', 'WORKASPACE' ) );
#372 = STYLED_ITEM ( 'NONE', ( #281 ), #180 ) ;
#373 = ORIENTED_EDGE ( 'NONE', *, *, #77, .F. ) ;
ENDSEC;
END-ISO-10303-21;
