ISO-10303-21;
HEADER;
FILE_DESCRIPTION (( 'STEP AP214' ),
    '1' );
FILE_NAME ('81899.STEP',
    '2023-06-23T03:55:40',
    ( '' ),
    ( '' ),
    'SwSTEP 2.0',
    'SolidWorks 2023',
    '' );
FILE_SCHEMA (( 'AUTOMOTIVE_DESIGN' ));
ENDSEC;

DATA;
#1 = UNCERTAINTY_MEASURE_WITH_UNIT (LENGTH_MEASURE( 1.000000000000000082E-05 ), #83, 'distance_accuracy_value', 'NONE');
#2 = AXIS2_PLACEMENT_3D ( 'NONE', #154, #14, #122 ) ;
#3 = DIRECTION ( 'NONE',  ( -0.000000000000000000, -1.000000000000000000, -0.000000000000000000 ) ) ;
#4 = LINE ( 'NONE', #249, #84 ) ;
#5 = ORIENTED_EDGE ( 'NONE', *, *, #235, .F. ) ;
#6 = AXIS2_PLACEMENT_3D ( 'NONE', #152, #180, #257 ) ;
#7 = EDGE_LOOP ( 'NONE', ( #269, #178, #139, #170 ) ) ;
#8 = DIRECTION ( 'NONE',  ( -5.442874662877125708E-17, 1.000000000000000000, -0.000000000000000000 ) ) ;
#9 = PRESENTATION_STYLE_ASSIGNMENT (( #112 ) ) ;
#10 = VERTEX_POINT ( 'NONE', #33 ) ;
#11 = PRESENTATION_LAYER_ASSIGNMENT (  '', '', ( #80 ) ) ;
#12 = ORIENTED_EDGE ( 'NONE', *, *, #158, .T. ) ;
#13 = PRESENTATION_LAYER_ASSIGNMENT (  '', '', ( #240 ) ) ;
#14 = DIRECTION ( 'NONE',  ( 0.000000000000000000, 1.000000000000000000, 0.000000000000000000 ) ) ;
#15 = DIRECTION ( 'NONE',  ( -5.442874662877125091E-17, 1.000000000000000000, -0.000000000000000000 ) ) ;
#16 = LENGTH_MEASURE_WITH_UNIT ( LENGTH_MEASURE( 0.02539999999999999897 ), #276 );
#17 = UNCERTAINTY_MEASURE_WITH_UNIT (LENGTH_MEASURE( 1.000000000000000082E-05 ), #184, 'distance_accuracy_value', 'NONE');
#18 = CARTESIAN_POINT ( 'NONE',  ( 4.592425496802575451E-17, 0.000000000000000000, 0.3750000000000000555 ) ) ;
#19 = AXIS2_PLACEMENT_3D ( 'NONE', #124, #254, #61 ) ;
#20 = CARTESIAN_POINT ( 'NONE',  ( 0.000000000000000000, 0.000000000000000000, 0.000000000000000000 ) ) ;
#21 = CARTESIAN_POINT ( 'NONE',  ( 3.032960542342103792E-32, 2.750000000000000000, 0.000000000000000000 ) ) ;
#22 = AXIS2_PLACEMENT_3D ( 'NONE', #47, #109, #263 ) ;
#23 = DIRECTION ( 'NONE',  ( 0.000000000000000000, 0.000000000000000000, 1.000000000000000000 ) ) ;
#24 = FACE_OUTER_BOUND ( 'NONE', #7, .T. ) ;
#25 = DIRECTION ( 'NONE',  ( 0.000000000000000000, 0.000000000000000000, -1.000000000000000000 ) ) ;
#26 =( GEOMETRIC_REPRESENTATION_CONTEXT ( 3 ) GLOBAL_UNCERTAINTY_ASSIGNED_CONTEXT ( ( #85 ) ) GLOBAL_UNIT_ASSIGNED_CONTEXT ( ( #141, #55, #32 ) ) REPRESENTATION_CONTEXT ( 'NONE', 'WORKASPACE' ) );
#27 =( GEOMETRIC_REPRESENTATION_CONTEXT ( 3 ) GLOBAL_UNCERTAINTY_ASSIGNED_CONTEXT ( ( #211 ) ) GLOBAL_UNIT_ASSIGNED_CONTEXT ( ( #210, #259, #151 ) ) REPRESENTATION_CONTEXT ( 'NONE', 'WORKASPACE' ) );
#28 = FILL_AREA_STYLE ('',( #132 ) ) ;
#29 = EDGE_CURVE ( 'NONE', #10, #35, #163, .T. ) ;
#30 = ORIENTED_EDGE ( 'NONE', *, *, #29, .T. ) ;
#31 = EDGE_LOOP ( 'NONE', ( #205, #30 ) ) ;
#32 =( NAMED_UNIT ( * ) SI_UNIT ( $, .STERADIAN. ) SOLID_ANGLE_UNIT ( ) );
#33 = CARTESIAN_POINT ( 'NONE',  ( 0.3750000000000000555, 5.000000000000000000, 4.592425496802576684E-17 ) ) ;
#34 = PRESENTATION_STYLE_ASSIGNMENT (( #270 ) ) ;
#35 = VERTEX_POINT ( 'NONE', #297 ) ;
#36 = CARTESIAN_POINT ( 'NONE',  ( 0.3749999999999999445, 5.000000000000000000, 4.592425496802576068E-17 ) ) ;
#37 = EDGE_LOOP ( 'NONE', ( #5, #145, #79, #245 ) ) ;
#38 = MECHANICAL_DESIGN_GEOMETRIC_PRESENTATION_REPRESENTATION (  '', ( #167 ), #56 ) ;
#39 = SURFACE_STYLE_FILL_AREA ( #177 ) ;
#40 = FILL_AREA_STYLE ('',( #100 ) ) ;
#41 =( NAMED_UNIT ( * ) SI_UNIT ( $, .STERADIAN. ) SOLID_ANGLE_UNIT ( ) );
#42 = STYLED_ITEM ( 'NONE', ( #300 ), #296 ) ;
#43 = CARTESIAN_POINT ( 'NONE',  ( 0.000000000000000000, 0.000000000000000000, 0.000000000000000000 ) ) ;
#44 = CIRCLE ( 'NONE', #187, 0.3750000000000000555 ) ;
#45 = MANIFOLD_SOLID_BREP ( 'Revolve - Cutting Edge', #166 ) ;
#46 = DIRECTION ( 'NONE',  ( -0.000000000000000000, -1.000000000000000000, -0.000000000000000000 ) ) ;
#47 = CARTESIAN_POINT ( 'NONE',  ( 0.000000000000000000, 2.750000000000000000, 0.000000000000000000 ) ) ;
#48 = EDGE_CURVE ( 'NONE', #35, #10, #103, .T. ) ;
#49 = AXIS2_PLACEMENT_3D ( 'NONE', #192, #3, #309 ) ;
#50 = DIRECTION ( 'NONE',  ( -5.442874662877125091E-17, 1.000000000000000000, -0.000000000000000000 ) ) ;
#51 = CARTESIAN_POINT ( 'NONE',  ( -1.224646799147353207E-16, 5.000000000000000000, 0.000000000000000000 ) ) ;
#52 = LENGTH_MEASURE_WITH_UNIT ( LENGTH_MEASURE( 0.02539999999999999897 ), #94 );
#53 = VERTEX_POINT ( 'NONE', #18 ) ;
#54 = PLANE ( 'NONE',  #91 ) ;
#55 =( NAMED_UNIT ( * ) PLANE_ANGLE_UNIT ( ) SI_UNIT ( $, .RADIAN. ) );
#56 =( GEOMETRIC_REPRESENTATION_CONTEXT ( 3 ) GLOBAL_UNCERTAINTY_ASSIGNED_CONTEXT ( ( #159 ) ) GLOBAL_UNIT_ASSIGNED_CONTEXT ( ( #290, #305, #41 ) ) REPRESENTATION_CONTEXT ( 'NONE', 'WORKASPACE' ) );
#57 = FILL_AREA_STYLE ('',( #169 ) ) ;
#58 = PRESENTATION_STYLE_ASSIGNMENT (( #274 ) ) ;
#59 = CARTESIAN_POINT ( 'NONE',  ( 4.592425496802575451E-17, 2.750000000000000000, 0.3750000000000000555 ) ) ;
#60 = CARTESIAN_POINT ( 'NONE',  ( 0.3750000000000000555, 2.750000000000000000, 4.592425496802576684E-17 ) ) ;
#61 = DIRECTION ( 'NONE',  ( -1.000000000000000000, 0.000000000000000000, 0.000000000000000000 ) ) ;
#62 =( LENGTH_UNIT ( ) NAMED_UNIT ( * ) SI_UNIT ( $, .METRE. ) );
#63 = COLOUR_RGB ( '',1.000000000000000000, 0.000000000000000000, 0.000000000000000000 ) ;
#64 =( NAMED_UNIT ( * ) PLANE_ANGLE_UNIT ( ) SI_UNIT ( $, .RADIAN. ) );
#65 = PLANE ( 'NONE',  #150 ) ;
#66 = AXIS2_PLACEMENT_3D ( 'NONE', #162, #46, #25 ) ;
#67 = PRODUCT_DEFINITION_SHAPE ( 'NONE', 'NONE',  #131 ) ;
#68 = PRESENTATION_STYLE_ASSIGNMENT (( #223 ) ) ;
#69 =( GEOMETRIC_REPRESENTATION_CONTEXT ( 3 ) GLOBAL_UNCERTAINTY_ASSIGNED_CONTEXT ( ( #220 ) ) GLOBAL_UNIT_ASSIGNED_CONTEXT ( ( #105, #183, #104 ) ) REPRESENTATION_CONTEXT ( 'NONE', 'WORKASPACE' ) );
#70 = COLOUR_RGB ( '',1.000000000000000000, 0.000000000000000000, 0.000000000000000000 ) ;
#71 = EDGE_CURVE ( 'NONE', #90, #272, #256, .T. ) ;
#72 = DIRECTION ( 'NONE',  ( 0.000000000000000000, 0.000000000000000000, -1.000000000000000000 ) ) ;
#73 = AXIS2_PLACEMENT_3D ( 'NONE', #51, #126, #262 ) ;
#74 = CARTESIAN_POINT ( 'NONE',  ( 0.000000000000000000, 0.000000000000000000, 0.000000000000000000 ) ) ;
#75 = DIRECTION ( 'NONE',  ( -1.000000000000000000, 0.000000000000000000, 0.000000000000000000 ) ) ;
#76 = CARTESIAN_POINT ( 'NONE',  ( 5.554665861710585348E-34, 2.750000000000000000, 0.000000000000000000 ) ) ;
#77 = ORIENTED_EDGE ( 'NONE', *, *, #146, .F. ) ;
#78 = DIRECTION ( 'NONE',  ( -0.000000000000000000, -1.000000000000000000, -0.000000000000000000 ) ) ;
#79 = ORIENTED_EDGE ( 'NONE', *, *, #185, .T. ) ;
#80 = STYLED_ITEM ( 'NONE', ( #58 ), #45 ) ;
#81 = MECHANICAL_DESIGN_GEOMETRIC_PRESENTATION_REPRESENTATION (  '', ( #42 ), #27 ) ;
#82 = PRODUCT_RELATED_PRODUCT_CATEGORY ( 'part', '', ( #219 ) ) ;
#83 =( CONVERSION_BASED_UNIT ( 'INCH', #129 ) LENGTH_UNIT ( ) NAMED_UNIT ( #140 ) );
#84 = VECTOR ( 'NONE', #198, 39.37007874015748143 ) ;
#85 = UNCERTAINTY_MEASURE_WITH_UNIT (LENGTH_MEASURE( 1.000000000000000082E-05 ), #141, 'distance_accuracy_value', 'NONE');
#86 = LINE ( 'NONE', #135, #196 ) ;
#87 = CIRCLE ( 'NONE', #49, 0.3750000000000000555 ) ;
#88 = ADVANCED_FACE ( 'NONE', ( #239 ), #65, .T. ) ;
#89 = DIRECTION ( 'NONE',  ( -1.000000000000000000, -5.442874662877125091E-17, 0.000000000000000000 ) ) ;
#90 = VERTEX_POINT ( 'NONE', #60 ) ;
#91 = AXIS2_PLACEMENT_3D ( 'NONE', #76, #114, #89 ) ;
#92 = SURFACE_STYLE_FILL_AREA ( #165 ) ;
#93 = VERTEX_POINT ( 'NONE', #307 ) ;
#94 =( LENGTH_UNIT ( ) NAMED_UNIT ( * ) SI_UNIT ( $, .METRE. ) );
#95 = SURFACE_SIDE_STYLE ('',( #171 ) ) ;
#96 = ORIENTED_EDGE ( 'NONE', *, *, #189, .F. ) ;
#97 = FILL_AREA_STYLE_COLOUR ( '', #175 ) ;
#98 = DIRECTION ( 'NONE',  ( -5.442874662877125708E-17, 1.000000000000000000, -0.000000000000000000 ) ) ;
#99 = PRODUCT_DEFINITION_CONTEXT ( 'detailed design', #275, 'design' ) ;
#100 = FILL_AREA_STYLE_COLOUR ( '', #106 ) ;
#101 = ADVANCED_FACE ( 'NONE', ( #149 ), #255, .F. ) ;
#102 = SURFACE_STYLE_USAGE ( .BOTH. , #279 ) ;
#103 = CIRCLE ( 'NONE', #73, 0.3750000000000001665 ) ;
#104 =( NAMED_UNIT ( * ) SI_UNIT ( $, .STERADIAN. ) SOLID_ANGLE_UNIT ( ) );
#105 =( CONVERSION_BASED_UNIT ( 'INCH', #258 ) LENGTH_UNIT ( ) NAMED_UNIT ( #278 ) );
#106 = COLOUR_RGB ( '',1.000000000000000000, 0.000000000000000000, 0.000000000000000000 ) ;
#107 = LENGTH_MEASURE_WITH_UNIT ( LENGTH_MEASURE( 0.02539999999999999897 ), #133 );
#108 = DIMENSIONAL_EXPONENTS ( 1.000000000000000000, 0.000000000000000000, 0.000000000000000000, 0.000000000000000000, 0.000000000000000000, 0.000000000000000000, 0.000000000000000000 ) ;
#109 = DIRECTION ( 'NONE',  ( -0.000000000000000000, -1.000000000000000000, -0.000000000000000000 ) ) ;
#110 = CIRCLE ( 'NONE', #304, 0.3750000000000000555 ) ;
#111 = SURFACE_SIDE_STYLE ('',( #217 ) ) ;
#112 = SURFACE_STYLE_USAGE ( .BOTH. , #227 ) ;
#113 = ORIENTED_EDGE ( 'NONE', *, *, #29, .F. ) ;
#114 = DIRECTION ( 'NONE',  ( -5.442874662877125091E-17, 1.000000000000000000, 0.000000000000000000 ) ) ;
#115 = EDGE_CURVE ( 'NONE', #272, #35, #123, .T. ) ;
#116 = ORIENTED_EDGE ( 'NONE', *, *, #136, .F. ) ;
#117 = SURFACE_SIDE_STYLE ('',( #247 ) ) ;
#118 = PLANE ( 'NONE',  #2 ) ;
#119 = ORIENTED_EDGE ( 'NONE', *, *, #253, .F. ) ;
#120 = PRESENTATION_LAYER_ASSIGNMENT (  '', '', ( #292 ) ) ;
#121 =( NAMED_UNIT ( * ) SI_UNIT ( $, .STERADIAN. ) SOLID_ANGLE_UNIT ( ) );
#122 = DIRECTION ( 'NONE',  ( 0.000000000000000000, -0.000000000000000000, 1.000000000000000000 ) ) ;
#123 = LINE ( 'NONE', #234, #181 ) ;
#124 = CARTESIAN_POINT ( 'NONE',  ( -1.224646799147353207E-16, 5.000000000000000000, 0.000000000000000000 ) ) ;
#125 = UNCERTAINTY_MEASURE_WITH_UNIT (LENGTH_MEASURE( 1.000000000000000082E-05 ), #266, 'distance_accuracy_value', 'NONE');
#126 = DIRECTION ( 'NONE',  ( -5.442874662877125708E-17, 1.000000000000000000, -0.000000000000000000 ) ) ;
#127 = APPLICATION_PROTOCOL_DEFINITION ( 'draft international standard', 'automotive_design', 1998, #251 ) ;
#128 = COLOUR_RGB ( '',0.7921568627450980005, 0.8196078431372548767, 0.9333333333333333481 ) ;
#129 = LENGTH_MEASURE_WITH_UNIT ( LENGTH_MEASURE( 0.02539999999999999897 ), #261 );
#130 = DIRECTION ( 'NONE',  ( -1.000000000000000000, 0.000000000000000000, 0.000000000000000000 ) ) ;
#131 = PRODUCT_DEFINITION ( 'UNKNOWN', '', #197, #99 ) ;
#132 = FILL_AREA_STYLE_COLOUR ( '', #63 ) ;
#133 =( LENGTH_UNIT ( ) NAMED_UNIT ( * ) SI_UNIT ( $, .METRE. ) );
#134 =( GEOMETRIC_REPRESENTATION_CONTEXT ( 3 ) GLOBAL_UNCERTAINTY_ASSIGNED_CONTEXT ( ( #125 ) ) GLOBAL_UNIT_ASSIGNED_CONTEXT ( ( #266, #194, #291 ) ) REPRESENTATION_CONTEXT ( 'NONE', 'WORKASPACE' ) );
#135 = CARTESIAN_POINT ( 'NONE',  ( 0.000000000000000000, 0.000000000000000000, -0.3750000000000000555 ) ) ;
#136 = EDGE_CURVE ( 'NONE', #93, #295, #237, .T. ) ;
#137 = DIRECTION ( 'NONE',  ( -0.000000000000000000, -1.000000000000000000, -0.000000000000000000 ) ) ;
#138 =( GEOMETRIC_REPRESENTATION_CONTEXT ( 3 ) GLOBAL_UNCERTAINTY_ASSIGNED_CONTEXT ( ( #17 ) ) GLOBAL_UNIT_ASSIGNED_CONTEXT ( ( #184, #155, #283 ) ) REPRESENTATION_CONTEXT ( 'NONE', 'WORKASPACE' ) );
#139 = ORIENTED_EDGE ( 'NONE', *, *, #158, .F. ) ;
#140 = DIMENSIONAL_EXPONENTS ( 1.000000000000000000, 0.000000000000000000, 0.000000000000000000, 0.000000000000000000, 0.000000000000000000, 0.000000000000000000, 0.000000000000000000 ) ;
#141 =( CONVERSION_BASED_UNIT ( 'INCH', #52 ) LENGTH_UNIT ( ) NAMED_UNIT ( #190 ) );
#142 = ORIENTED_EDGE ( 'NONE', *, *, #71, .T. ) ;
#143 = ORIENTED_EDGE ( 'NONE', *, *, #115, .T. ) ;
#144 = FACE_OUTER_BOUND ( 'NONE', #298, .T. ) ;
#145 = ORIENTED_EDGE ( 'NONE', *, *, #146, .T. ) ;
#146 = EDGE_CURVE ( 'NONE', #295, #93, #191, .T. ) ;
#147 = APPLICATION_PROTOCOL_DEFINITION ( 'draft international standard', 'automotive_design', 1998, #275 ) ;
#148 = VERTEX_POINT ( 'NONE', #289 ) ;
#149 = FACE_OUTER_BOUND ( 'NONE', #31, .T. ) ;
#150 = AXIS2_PLACEMENT_3D ( 'NONE', #20, #284, #277 ) ;
#151 =( NAMED_UNIT ( * ) SI_UNIT ( $, .STERADIAN. ) SOLID_ANGLE_UNIT ( ) );
#152 = CARTESIAN_POINT ( 'NONE',  ( 0.3750000000000000555, 5.000000000000000000, 0.000000000000000000 ) ) ;
#153 = FACE_OUTER_BOUND ( 'NONE', #37, .T. ) ;
#154 = CARTESIAN_POINT ( 'NONE',  ( 0.000000000000000000, 2.750000000000000000, 0.000000000000000000 ) ) ;
#155 =( NAMED_UNIT ( * ) PLANE_ANGLE_UNIT ( ) SI_UNIT ( $, .RADIAN. ) );
#156 = CARTESIAN_POINT ( 'NONE',  ( 0.000000000000000000, 0.000000000000000000, 0.000000000000000000 ) ) ;
#157 = AXIS2_PLACEMENT_3D ( 'NONE', #43, #23, #264 ) ;
#158 = EDGE_CURVE ( 'NONE', #148, #53, #87, .T. ) ;
#159 = UNCERTAINTY_MEASURE_WITH_UNIT (LENGTH_MEASURE( 1.000000000000000082E-05 ), #290, 'distance_accuracy_value', 'NONE');
#160 = DIRECTION ( 'NONE',  ( 0.000000000000000000, 0.000000000000000000, -1.000000000000000000 ) ) ;
#161 = DIMENSIONAL_EXPONENTS ( 1.000000000000000000, 0.000000000000000000, 0.000000000000000000, 0.000000000000000000, 0.000000000000000000, 0.000000000000000000, 0.000000000000000000 ) ;
#162 = CARTESIAN_POINT ( 'NONE',  ( 0.000000000000000000, 2.750000000000000000, 0.000000000000000000 ) ) ;
#163 = CIRCLE ( 'NONE', #208, 0.3750000000000001665 ) ;
#164 = VECTOR ( 'NONE', #50, 39.37007874015748143 ) ;
#165 = FILL_AREA_STYLE ('',( #229 ) ) ;
#166 = CLOSED_SHELL ( 'NONE', ( #213, #267, #296, #88 ) ) ;
#167 = STYLED_ITEM ( 'NONE', ( #9 ), #267 ) ;
#168 = FACE_OUTER_BOUND ( 'NONE', #271, .T. ) ;
#169 = FILL_AREA_STYLE_COLOUR ( '', #174 ) ;
#170 = ORIENTED_EDGE ( 'NONE', *, *, #185, .F. ) ;
#171 = SURFACE_STYLE_FILL_AREA ( #246 ) ;
#172 = EDGE_CURVE ( 'NONE', #53, #148, #44, .T. ) ;
#173 = ORIENTED_EDGE ( 'NONE', *, *, #172, .T. ) ;
#174 = COLOUR_RGB ( '',0.7921568627450980005, 0.8196078431372548767, 0.9333333333333333481 ) ;
#175 = COLOUR_RGB ( '',1.000000000000000000, 0.000000000000000000, 0.000000000000000000 ) ;
#176 = ORIENTED_EDGE ( 'NONE', *, *, #189, .T. ) ;
#177 = FILL_AREA_STYLE ('',( #97 ) ) ;
#178 = ORIENTED_EDGE ( 'NONE', *, *, #235, .T. ) ;
#179 = DIRECTION ( 'NONE',  ( -0.000000000000000000, -1.000000000000000000, -0.000000000000000000 ) ) ;
#180 = DIRECTION ( 'NONE',  ( 5.442874662877125091E-17, -1.000000000000000000, 0.000000000000000000 ) ) ;
#181 = VECTOR ( 'NONE', #15, 39.37007874015748143 ) ;
#182 = CARTESIAN_POINT ( 'NONE',  ( -0.3750000000000000555, 2.750000000000000000, 0.000000000000000000 ) ) ;
#183 =( NAMED_UNIT ( * ) PLANE_ANGLE_UNIT ( ) SI_UNIT ( $, .RADIAN. ) );
#184 =( CONVERSION_BASED_UNIT ( 'INCH', #306 ) LENGTH_UNIT ( ) NAMED_UNIT ( #108 ) );
#185 = EDGE_CURVE ( 'NONE', #93, #148, #86, .T. ) ;
#186 = ADVANCED_BREP_SHAPE_REPRESENTATION ( '81899', ( #45, #260, #157 ), #241 ) ;
#187 = AXIS2_PLACEMENT_3D ( 'NONE', #188, #137, #160 ) ;
#188 = CARTESIAN_POINT ( 'NONE',  ( 0.000000000000000000, 0.000000000000000000, 0.000000000000000000 ) ) ;
#189 = EDGE_CURVE ( 'NONE', #272, #90, #110, .T. ) ;
#190 = DIMENSIONAL_EXPONENTS ( 1.000000000000000000, 0.000000000000000000, 0.000000000000000000, 0.000000000000000000, 0.000000000000000000, 0.000000000000000000, 0.000000000000000000 ) ;
#191 = CIRCLE ( 'NONE', #22, 0.3750000000000000555 ) ;
#192 = CARTESIAN_POINT ( 'NONE',  ( 0.000000000000000000, 0.000000000000000000, 0.000000000000000000 ) ) ;
#193 = LENGTH_MEASURE_WITH_UNIT ( LENGTH_MEASURE( 0.02539999999999999897 ), #273 );
#194 =( NAMED_UNIT ( * ) PLANE_ANGLE_UNIT ( ) SI_UNIT ( $, .RADIAN. ) );
#195 = EDGE_LOOP ( 'NONE', ( #176, #250, #199, #228 ) ) ;
#196 = VECTOR ( 'NONE', #286, 39.37007874015748143 ) ;
#197 = PRODUCT_DEFINITION_FORMATION_WITH_SPECIFIED_SOURCE ( 'ANY', '', #219, .NOT_KNOWN. ) ;
#198 = DIRECTION ( 'NONE',  ( -0.000000000000000000, -1.000000000000000000, -0.000000000000000000 ) ) ;
#199 = ORIENTED_EDGE ( 'NONE', *, *, #48, .F. ) ;
#200 = CARTESIAN_POINT ( 'NONE',  ( -1.224646799147353207E-16, 5.000000000000000000, 0.000000000000000000 ) ) ;
#201 = EDGE_LOOP ( 'NONE', ( #12, #173 ) ) ;
#202 = DIRECTION ( 'NONE',  ( -5.442874662877125708E-17, 1.000000000000000000, -0.000000000000000000 ) ) ;
#203 = AXIS2_PLACEMENT_3D ( 'NONE', #207, #98, #130 ) ;
#204 = AXIS2_PLACEMENT_3D ( 'NONE', #156, #179, #233 ) ;
#205 = ORIENTED_EDGE ( 'NONE', *, *, #48, .T. ) ;
#206 = SURFACE_STYLE_USAGE ( .BOTH. , #280 ) ;
#207 = CARTESIAN_POINT ( 'NONE',  ( 3.032960542342103792E-32, 2.750000000000000000, 0.000000000000000000 ) ) ;
#208 = AXIS2_PLACEMENT_3D ( 'NONE', #294, #202, #75 ) ;
#209 = STYLED_ITEM ( 'NONE', ( #34 ), #260 ) ;
#210 =( CONVERSION_BASED_UNIT ( 'INCH', #16 ) LENGTH_UNIT ( ) NAMED_UNIT ( #225 ) );
#211 = UNCERTAINTY_MEASURE_WITH_UNIT (LENGTH_MEASURE( 1.000000000000000082E-05 ), #210, 'distance_accuracy_value', 'NONE');
#212 = SURFACE_STYLE_FILL_AREA ( #40 ) ;
#213 = ADVANCED_FACE ( 'NONE', ( #24 ), #285, .T. ) ;
#214 = CYLINDRICAL_SURFACE ( 'NONE', #19, 0.3750000000000001110 ) ;
#215 = MECHANICAL_DESIGN_GEOMETRIC_PRESENTATION_REPRESENTATION (  '', ( #80 ), #69 ) ;
#216 = MECHANICAL_DESIGN_GEOMETRIC_PRESENTATION_REPRESENTATION (  '', ( #292 ), #138 ) ;
#217 = SURFACE_STYLE_FILL_AREA ( #28 ) ;
#218 = DIRECTION ( 'NONE',  ( -1.000000000000000000, 0.000000000000000000, 0.000000000000000000 ) ) ;
#219 = PRODUCT ( '81899', '81899', '', ( #236 ) ) ;
#220 = UNCERTAINTY_MEASURE_WITH_UNIT (LENGTH_MEASURE( 1.000000000000000082E-05 ), #105, 'distance_accuracy_value', 'NONE');
#221 = PRESENTATION_LAYER_ASSIGNMENT (  '', '', ( #42 ) ) ;
#222 = ADVANCED_FACE ( 'NONE', ( #168 ), #54, .F. ) ;
#223 = SURFACE_STYLE_USAGE ( .BOTH. , #111 ) ;
#224 = EDGE_LOOP ( 'NONE', ( #116, #77 ) ) ;
#225 = DIMENSIONAL_EXPONENTS ( 1.000000000000000000, 0.000000000000000000, 0.000000000000000000, 0.000000000000000000, 0.000000000000000000, 0.000000000000000000, 0.000000000000000000 ) ;
#226 = FILL_AREA_STYLE_COLOUR ( '', #128 ) ;
#227 = SURFACE_SIDE_STYLE ('',( #92 ) ) ;
#228 = ORIENTED_EDGE ( 'NONE', *, *, #115, .F. ) ;
#229 = FILL_AREA_STYLE_COLOUR ( '', #70 ) ;
#230 = CYLINDRICAL_SURFACE ( 'NONE', #281, 0.3750000000000001110 ) ;
#231 = ORIENTED_EDGE ( 'NONE', *, *, #71, .F. ) ;
#232 = MECHANICAL_DESIGN_GEOMETRIC_PRESENTATION_REPRESENTATION (  '', ( #240 ), #134 ) ;
#233 = DIRECTION ( 'NONE',  ( 0.000000000000000000, 0.000000000000000000, -1.000000000000000000 ) ) ;
#234 = CARTESIAN_POINT ( 'NONE',  ( -0.3750000000000002220, 5.000000000000000000, 0.000000000000000000 ) ) ;
#235 = EDGE_CURVE ( 'NONE', #295, #53, #4, .T. ) ;
#236 = PRODUCT_CONTEXT ( 'NONE', #251, 'mechanical' ) ;
#237 = CIRCLE ( 'NONE', #66, 0.3750000000000000555 ) ;
#238 = PRESENTATION_STYLE_ASSIGNMENT (( #206 ) ) ;
#239 = FACE_OUTER_BOUND ( 'NONE', #201, .T. ) ;
#240 = STYLED_ITEM ( 'NONE', ( #68 ), #213 ) ;
#241 =( GEOMETRIC_REPRESENTATION_CONTEXT ( 3 ) GLOBAL_UNCERTAINTY_ASSIGNED_CONTEXT ( ( #1 ) ) GLOBAL_UNIT_ASSIGNED_CONTEXT ( ( #83, #64, #121 ) ) REPRESENTATION_CONTEXT ( 'NONE', 'WORKASPACE' ) );
#242 = ADVANCED_FACE ( 'NONE', ( #144 ), #230, .T. ) ;
#243 = DIRECTION ( 'NONE',  ( -5.442874662877125708E-17, 1.000000000000000000, -0.000000000000000000 ) ) ;
#244 = DIRECTION ( 'NONE',  ( -1.000000000000000000, 0.000000000000000000, 0.000000000000000000 ) ) ;
#245 = ORIENTED_EDGE ( 'NONE', *, *, #172, .F. ) ;
#246 = FILL_AREA_STYLE ('',( #226 ) ) ;
#247 = SURFACE_STYLE_FILL_AREA ( #57 ) ;
#248 = PRESENTATION_LAYER_ASSIGNMENT (  '', '', ( #167 ) ) ;
#249 = CARTESIAN_POINT ( 'NONE',  ( 4.592425496802575451E-17, 0.000000000000000000, 0.3750000000000000555 ) ) ;
#250 = ORIENTED_EDGE ( 'NONE', *, *, #253, .T. ) ;
#251 = APPLICATION_CONTEXT ( 'automotive_design' ) ;
#252 = LINE ( 'NONE', #36, #164 ) ;
#253 = EDGE_CURVE ( 'NONE', #90, #10, #252, .T. ) ;
#254 = DIRECTION ( 'NONE',  ( -5.442874662877125708E-17, 1.000000000000000000, -0.000000000000000000 ) ) ;
#255 = PLANE ( 'NONE',  #6 ) ;
#256 = CIRCLE ( 'NONE', #203, 0.3750000000000000555 ) ;
#257 = DIRECTION ( 'NONE',  ( 1.000000000000000000, 5.442874662877125091E-17, 0.000000000000000000 ) ) ;
#258 = LENGTH_MEASURE_WITH_UNIT ( LENGTH_MEASURE( 0.02539999999999999897 ), #302 );
#259 =( NAMED_UNIT ( * ) PLANE_ANGLE_UNIT ( ) SI_UNIT ( $, .RADIAN. ) );
#260 = MANIFOLD_SOLID_BREP ( 'Revolve - Tool Body (Straight Shanked)', #303 ) ;
#261 =( LENGTH_UNIT ( ) NAMED_UNIT ( * ) SI_UNIT ( $, .METRE. ) );
#262 = DIRECTION ( 'NONE',  ( -1.000000000000000000, 0.000000000000000000, 0.000000000000000000 ) ) ;
#263 = DIRECTION ( 'NONE',  ( 0.000000000000000000, 0.000000000000000000, -1.000000000000000000 ) ) ;
#264 = DIRECTION ( 'NONE',  ( 1.000000000000000000, 0.000000000000000000, 0.000000000000000000 ) ) ;
#265 = AXIS2_PLACEMENT_3D ( 'NONE', #74, #78, #72 ) ;
#266 =( CONVERSION_BASED_UNIT ( 'INCH', #107 ) LENGTH_UNIT ( ) NAMED_UNIT ( #161 ) );
#267 = ADVANCED_FACE ( 'NONE', ( #293 ), #118, .T. ) ;
#268 = PRESENTATION_LAYER_ASSIGNMENT (  '', '', ( #209 ) ) ;
#269 = ORIENTED_EDGE ( 'NONE', *, *, #136, .T. ) ;
#270 = SURFACE_STYLE_USAGE ( .BOTH. , #95 ) ;
#271 = EDGE_LOOP ( 'NONE', ( #96, #231 ) ) ;
#272 = VERTEX_POINT ( 'NONE', #182 ) ;
#273 =( LENGTH_UNIT ( ) NAMED_UNIT ( * ) SI_UNIT ( $, .METRE. ) );
#274 = SURFACE_STYLE_USAGE ( .BOTH. , #117 ) ;
#275 = APPLICATION_CONTEXT ( 'automotive_design' ) ;
#276 =( LENGTH_UNIT ( ) NAMED_UNIT ( * ) SI_UNIT ( $, .METRE. ) );
#277 = DIRECTION ( 'NONE',  ( 0.000000000000000000, 0.000000000000000000, -1.000000000000000000 ) ) ;
#278 = DIMENSIONAL_EXPONENTS ( 1.000000000000000000, 0.000000000000000000, 0.000000000000000000, 0.000000000000000000, 0.000000000000000000, 0.000000000000000000, 0.000000000000000000 ) ;
#279 = SURFACE_SIDE_STYLE ('',( #39 ) ) ;
#280 = SURFACE_SIDE_STYLE ('',( #212 ) ) ;
#281 = AXIS2_PLACEMENT_3D ( 'NONE', #200, #8, #244 ) ;
#282 = FACE_OUTER_BOUND ( 'NONE', #195, .T. ) ;
#283 =( NAMED_UNIT ( * ) SI_UNIT ( $, .STERADIAN. ) SOLID_ANGLE_UNIT ( ) );
#284 = DIRECTION ( 'NONE',  ( 0.000000000000000000, -1.000000000000000000, -0.000000000000000000 ) ) ;
#285 = CYLINDRICAL_SURFACE ( 'NONE', #265, 0.3750000000000000555 ) ;
#286 = DIRECTION ( 'NONE',  ( -0.000000000000000000, -1.000000000000000000, -0.000000000000000000 ) ) ;
#287 = SHAPE_DEFINITION_REPRESENTATION ( #67, #186 ) ;
#288 = MECHANICAL_DESIGN_GEOMETRIC_PRESENTATION_REPRESENTATION (  '', ( #209 ), #26 ) ;
#289 = CARTESIAN_POINT ( 'NONE',  ( 0.000000000000000000, 0.000000000000000000, -0.3750000000000000555 ) ) ;
#290 =( CONVERSION_BASED_UNIT ( 'INCH', #193 ) LENGTH_UNIT ( ) NAMED_UNIT ( #299 ) );
#291 =( NAMED_UNIT ( * ) SI_UNIT ( $, .STERADIAN. ) SOLID_ANGLE_UNIT ( ) );
#292 = STYLED_ITEM ( 'NONE', ( #238 ), #88 ) ;
#293 = FACE_OUTER_BOUND ( 'NONE', #224, .T. ) ;
#294 = CARTESIAN_POINT ( 'NONE',  ( -1.224646799147353207E-16, 5.000000000000000000, 0.000000000000000000 ) ) ;
#295 = VERTEX_POINT ( 'NONE', #59 ) ;
#296 = ADVANCED_FACE ( 'NONE', ( #153 ), #301, .T. ) ;
#297 = CARTESIAN_POINT ( 'NONE',  ( -0.3750000000000002776, 5.000000000000000000, 0.000000000000000000 ) ) ;
#298 = EDGE_LOOP ( 'NONE', ( #119, #142, #143, #113 ) ) ;
#299 = DIMENSIONAL_EXPONENTS ( 1.000000000000000000, 0.000000000000000000, 0.000000000000000000, 0.000000000000000000, 0.000000000000000000, 0.000000000000000000, 0.000000000000000000 ) ;
#300 = PRESENTATION_STYLE_ASSIGNMENT (( #102 ) ) ;
#301 = CYLINDRICAL_SURFACE ( 'NONE', #204, 0.3750000000000000555 ) ;
#302 =( LENGTH_UNIT ( ) NAMED_UNIT ( * ) SI_UNIT ( $, .METRE. ) );
#303 = CLOSED_SHELL ( 'NONE', ( #308, #222, #242, #101 ) ) ;
#304 = AXIS2_PLACEMENT_3D ( 'NONE', #21, #243, #218 ) ;
#305 =( NAMED_UNIT ( * ) PLANE_ANGLE_UNIT ( ) SI_UNIT ( $, .RADIAN. ) );
#306 = LENGTH_MEASURE_WITH_UNIT ( LENGTH_MEASURE( 0.02539999999999999897 ), #62 );
#307 = CARTESIAN_POINT ( 'NONE',  ( 0.000000000000000000, 2.750000000000000000, -0.3750000000000000555 ) ) ;
#308 = ADVANCED_FACE ( 'NONE', ( #282 ), #214, .T. ) ;
#309 = DIRECTION ( 'NONE',  ( 0.000000000000000000, 0.000000000000000000, -1.000000000000000000 ) ) ;
ENDSEC;
END-ISO-10303-21;
