ISO-10303-21;
HEADER;
FILE_DESCRIPTION (( 'STEP AP214' ),
    '1' );
FILE_NAME ('Micro_GEM-187-4X.STEP',
    '2021-09-01T20:05:41',
    ( '' ),
    ( '' ),
    'SwSTEP 2.0',
    'SolidWorks 2020',
    '' );
FILE_SCHEMA (( 'AUTOMOTIVE_DESIGN' ));
ENDSEC;

DATA;
#1 = DIRECTION ( 'NONE',  ( -1.224646799147353207E-16, -0.0000000000000000000, -1.000000000000000000 ) ) ;
#2 = ADVANCED_FACE ( 'NONE', ( #171 ), #190, .T. ) ;
#3 = CARTESIAN_POINT ( 'NONE',  ( 0.0000000000000000000, 0.0000000000000000000, 1.984999999999999654 ) ) ;
#4 = CONICAL_SURFACE ( 'NONE', #262, 0.07874999999999980627, 0.7853981633974466137 ) ;
#5 = ORIENTED_EDGE ( 'NONE', *, *, #236, .T. ) ;
#6 = ORIENTED_EDGE ( 'NONE', *, *, #14, .F. ) ;
#7 = VECTOR ( 'NONE', #280, 39.37007874015748143 ) ;
#8 = ORIENTED_EDGE ( 'NONE', *, *, #211, .F. ) ;
#9 = EDGE_LOOP ( 'NONE', ( #163, #5, #185, #260 ) ) ;
#10 = ORIENTED_EDGE ( 'NONE', *, *, #250, .T. ) ;
#11 = CARTESIAN_POINT ( 'NONE',  ( 0.0000000000000000000, 0.0000000000000000000, 2.000000000000000000 ) ) ;
#12 = FILL_AREA_STYLE ('',( #245 ) ) ;
#13 =( CONVERSION_BASED_UNIT ( 'INCH', #219 ) LENGTH_UNIT ( ) NAMED_UNIT ( #272 ) );
#14 = EDGE_CURVE ( 'NONE', #136, #76, #97, .T. ) ;
#15 = DIRECTION ( 'NONE',  ( -1.000000000000000000, 0.0000000000000000000, 0.0000000000000000000 ) ) ;
#16 = AXIS2_PLACEMENT_3D ( 'NONE', #218, #59, #57 ) ;
#17 = DIRECTION ( 'NONE',  ( -0.0000000000000000000, -0.0000000000000000000, -1.000000000000000000 ) ) ;
#18 = CARTESIAN_POINT ( 'NONE',  ( 0.09375000000000006939, 1.148106374200644633E-17, 0.6255316826705892286 ) ) ;
#19 = DIMENSIONAL_EXPONENTS ( 1.000000000000000000, 0.0000000000000000000, 0.0000000000000000000, 0.0000000000000000000, 0.0000000000000000000, 0.0000000000000000000, 0.0000000000000000000 ) ;
#20 = DIRECTION ( 'NONE',  ( 0.0000000000000000000, 0.0000000000000000000, 1.000000000000000000 ) ) ;
#21 = MANIFOLD_SOLID_BREP ( 'Cut-Revolve1', #40 ) ;
#22 =( GEOMETRIC_REPRESENTATION_CONTEXT ( 3 ) GLOBAL_UNCERTAINTY_ASSIGNED_CONTEXT ( ( #80 ) ) GLOBAL_UNIT_ASSIGNED_CONTEXT ( ( #13, #269, #124 ) ) REPRESENTATION_CONTEXT ( 'NONE', 'WORKASPACE' ) );
#23 = DIRECTION ( 'NONE',  ( 1.000000000000000000, 0.0000000000000000000, 0.0000000000000000000 ) ) ;
#24 = PRODUCT ( 'Micro_GEM-187-4X', 'Micro_GEM-187-4X', '', ( #214 ) ) ;
#25 = CYLINDRICAL_SURFACE ( 'NONE', #223, 0.09365624999999999645 ) ;
#26 = DIRECTION ( 'NONE',  ( -1.000000000000000000, 0.0000000000000000000, 0.0000000000000000000 ) ) ;
#27 = AXIS2_PLACEMENT_3D ( 'NONE', #295, #166, #55 ) ;
#28 = AXIS2_PLACEMENT_3D ( 'NONE', #200, #177, #131 ) ;
#29 = EDGE_LOOP ( 'NONE', ( #234, #144, #8, #54 ) ) ;
#30 = EDGE_LOOP ( 'NONE', ( #141, #94, #99, #215 ) ) ;
#31 = ORIENTED_EDGE ( 'NONE', *, *, #134, .F. ) ;
#32 = ORIENTED_EDGE ( 'NONE', *, *, #106, .T. ) ;
#33 = ORIENTED_EDGE ( 'NONE', *, *, #87, .F. ) ;
#34 = DIRECTION ( 'NONE',  ( -1.000000000000000000, 0.0000000000000000000, 0.0000000000000000000 ) ) ;
#35 = ORIENTED_EDGE ( 'NONE', *, *, #14, .T. ) ;
#36 = LENGTH_MEASURE_WITH_UNIT ( LENGTH_MEASURE( 0.02539999999999999897 ), #60 );
#37 =( LENGTH_UNIT ( ) NAMED_UNIT ( * ) SI_UNIT ( $, .METRE. ) );
#38 =( NAMED_UNIT ( * ) SI_UNIT ( $, .STERADIAN. ) SOLID_ANGLE_UNIT ( ) );
#39 = SURFACE_STYLE_FILL_AREA ( #12 ) ;
#40 = CLOSED_SHELL ( 'NONE', ( #174, #254, #52, #241, #56, #168, #2, #143, #147, #153 ) ) ;
#41 = AXIS2_PLACEMENT_3D ( 'NONE', #182, #112, #277 ) ;
#42 = FACE_OUTER_BOUND ( 'NONE', #206, .T. ) ;
#43 =( LENGTH_UNIT ( ) NAMED_UNIT ( * ) SI_UNIT ( $, .METRE. ) );
#44 = CARTESIAN_POINT ( 'NONE',  ( 0.09365624999999999645, 1.146958267826442798E-17, 0.0000000000000000000 ) ) ;
#45 = CARTESIAN_POINT ( 'NONE',  ( -0.09375000000000001388, 0.0000000000000000000, 2.000000000000000000 ) ) ;
#46 = AXIS2_PLACEMENT_3D ( 'NONE', #62, #249, #127 ) ;
#47 = CARTESIAN_POINT ( 'NONE',  ( 0.0000000000000000000, 0.0000000000000000000, 2.000000000000000000 ) ) ;
#48 = PRODUCT_DEFINITION_SHAPE ( 'NONE', 'NONE',  #167 ) ;
#49 = CARTESIAN_POINT ( 'NONE',  ( 0.0000000000000000000, 0.0000000000000000000, 0.0000000000000000000 ) ) ;
#50 = CYLINDRICAL_SURFACE ( 'NONE', #75, 0.09375000000000001388 ) ;
#51 = CIRCLE ( 'NONE', #28, 0.09365624999999999645 ) ;
#52 = ADVANCED_FACE ( 'NONE', ( #84 ), #4, .T. ) ;
#53 = DIRECTION ( 'NONE',  ( -0.0000000000000000000, -0.0000000000000000000, -1.000000000000000000 ) ) ;
#54 = ORIENTED_EDGE ( 'NONE', *, *, #98, .F. ) ;
#55 = DIRECTION ( 'NONE',  ( 1.000000000000000000, 0.0000000000000000000, 0.0000000000000000000 ) ) ;
#56 = ADVANCED_FACE ( 'NONE', ( #104 ), #150, .T. ) ;
#57 = DIRECTION ( 'NONE',  ( 1.000000000000000000, 0.0000000000000000000, 0.0000000000000000000 ) ) ;
#58 = ORIENTED_EDGE ( 'NONE', *, *, #81, .F. ) ;
#59 = DIRECTION ( 'NONE',  ( 1.224646799147353207E-16, 0.0000000000000000000, 1.000000000000000000 ) ) ;
#60 =( LENGTH_UNIT ( ) NAMED_UNIT ( * ) SI_UNIT ( $, .METRE. ) );
#61 = CARTESIAN_POINT ( 'NONE',  ( 0.0000000000000000000, 0.0000000000000000000, 2.000000000000000000 ) ) ;
#62 = CARTESIAN_POINT ( 'NONE',  ( 1.404618771449245766E-33, 0.0000000000000000000, 1.146958267826442798E-17 ) ) ;
#63 = UNCERTAINTY_MEASURE_WITH_UNIT (LENGTH_MEASURE( 1.000000000000000082E-05 ), #156, 'distance_accuracy_value', 'NONE');
#64 = AXIS2_PLACEMENT_3D ( 'NONE', #142, #247, #217 ) ;
#65 = CIRCLE ( 'NONE', #257, 0.09375000000000001388 ) ;
#66 = DIRECTION ( 'NONE',  ( 1.000000000000000000, 0.0000000000000000000, -0.0000000000000000000 ) ) ;
#67 = CARTESIAN_POINT ( 'NONE',  ( 7.660553729477949085E-17, 0.0000000000000000000, 0.6255316826705892286 ) ) ;
#68 = DIRECTION ( 'NONE',  ( 1.000000000000000000, 0.0000000000000000000, -0.0000000000000000000 ) ) ;
#69 = APPLICATION_CONTEXT ( 'automotive_design' ) ;
#70 = VECTOR ( 'NONE', #253, 39.37007874015748143 ) ;
#71 = VECTOR ( 'NONE', #228, 39.37007874015748143 ) ;
#72 = LINE ( 'NONE', #252, #289 ) ;
#73 = APPLICATION_CONTEXT ( 'automotive_design' ) ;
#74 = SURFACE_SIDE_STYLE ('',( #240 ) ) ;
#75 = AXIS2_PLACEMENT_3D ( 'NONE', #242, #53, #34 ) ;
#76 = VERTEX_POINT ( 'NONE', #299 ) ;
#77 = AXIS2_PLACEMENT_3D ( 'NONE', #47, #154, #66 ) ;
#78 = FACE_OUTER_BOUND ( 'NONE', #120, .T. ) ;
#79 = ORIENTED_EDGE ( 'NONE', *, *, #123, .T. ) ;
#80 = UNCERTAINTY_MEASURE_WITH_UNIT (LENGTH_MEASURE( 1.000000000000000082E-05 ), #13, 'distance_accuracy_value', 'NONE');
#81 = EDGE_CURVE ( 'NONE', #291, #159, #282, .T. ) ;
#82 = ORIENTED_EDGE ( 'NONE', *, *, #179, .T. ) ;
#83 = ORIENTED_EDGE ( 'NONE', *, *, #261, .F. ) ;
#84 = FACE_OUTER_BOUND ( 'NONE', #30, .T. ) ;
#85 = VECTOR ( 'NONE', #212, 39.37007874015748143 ) ;
#86 = SURFACE_STYLE_USAGE ( .BOTH. , #101 ) ;
#87 = EDGE_CURVE ( 'NONE', #291, #102, #72, .T. ) ;
#88 = CARTESIAN_POINT ( 'NONE',  ( 7.654042494670957853E-17, 0.0000000000000000000, 0.6250000000000000000 ) ) ;
#89 = LINE ( 'NONE', #45, #7 ) ;
#90 = EDGE_CURVE ( 'NONE', #102, #266, #51, .T. ) ;
#91 = DIRECTION ( 'NONE',  ( -1.224646799147353207E-16, -0.0000000000000000000, -1.000000000000000000 ) ) ;
#92 = DIRECTION ( 'NONE',  ( -1.000000000000000000, 0.0000000000000000000, 1.224646799147352961E-16 ) ) ;
#93 = MECHANICAL_DESIGN_GEOMETRIC_PRESENTATION_REPRESENTATION (  '', ( #274 ), #22 ) ;
#94 = ORIENTED_EDGE ( 'NONE', *, *, #261, .T. ) ;
#95 = COLOUR_RGB ( '',0.7921568627450980005, 0.8196078431372548767, 0.9333333333333333481 ) ;
#96 = FILL_AREA_STYLE ('',( #284 ) ) ;
#97 = CIRCLE ( 'NONE', #27, 0.07874999999999980627 ) ;
#98 = EDGE_CURVE ( 'NONE', #159, #266, #276, .T. ) ;
#99 = ORIENTED_EDGE ( 'NONE', *, *, #106, .F. ) ;
#100 = DIRECTION ( 'NONE',  ( 1.000000000000000000, 0.0000000000000000000, 0.0000000000000000000 ) ) ;
#101 = SURFACE_SIDE_STYLE ('',( #39 ) ) ;
#102 = VERTEX_POINT ( 'NONE', #44 ) ;
#103 = ORIENTED_EDGE ( 'NONE', *, *, #90, .T. ) ;
#104 = FACE_OUTER_BOUND ( 'NONE', #146, .T. ) ;
#105 = VECTOR ( 'NONE', #288, 39.37007874015747433 ) ;
#106 = EDGE_CURVE ( 'NONE', #231, #237, #229, .T. ) ;
#107 = DIRECTION ( 'NONE',  ( -1.000000000000000000, 0.0000000000000000000, 0.0000000000000000000 ) ) ;
#108 = DIRECTION ( 'NONE',  ( 0.0000000000000000000, 0.0000000000000000000, -1.000000000000000000 ) ) ;
#109 = FACE_OUTER_BOUND ( 'NONE', #239, .T. ) ;
#110 = CARTESIAN_POINT ( 'NONE',  ( 0.0000000000000000000, 0.0000000000000000000, 1.984999999999999654 ) ) ;
#111 = CARTESIAN_POINT ( 'NONE',  ( -0.09365624999999999645, 0.0000000000000000000, 1.146958267826442798E-17 ) ) ;
#112 = DIRECTION ( 'NONE',  ( -1.224646799147353207E-16, -0.0000000000000000000, -1.000000000000000000 ) ) ;
#113 = CIRCLE ( 'NONE', #170, 0.09375000000000001388 ) ;
#114 = ORIENTED_EDGE ( 'NONE', *, *, #290, .T. ) ;
#115 = PRESENTATION_STYLE_ASSIGNMENT (( #160 ) ) ;
#116 = AXIS2_PLACEMENT_3D ( 'NONE', #49, #91, #181 ) ;
#117 = ORIENTED_EDGE ( 'NONE', *, *, #90, .F. ) ;
#118 = APPLICATION_PROTOCOL_DEFINITION ( 'draft international standard', 'automotive_design', 1998, #69 ) ;
#119 = CARTESIAN_POINT ( 'NONE',  ( -0.09365624999999992706, 1.146958267826442798E-17, 0.6250000000000000000 ) ) ;
#120 = EDGE_LOOP ( 'NONE', ( #32, #221, #31, #164 ) ) ;
#121 = DIRECTION ( 'NONE',  ( 0.0000000000000000000, 0.0000000000000000000, 1.000000000000000000 ) ) ;
#122 =( CONVERSION_BASED_UNIT ( 'INCH', #36 ) LENGTH_UNIT ( ) NAMED_UNIT ( #278 ) );
#123 = EDGE_CURVE ( 'NONE', #145, #133, #191, .T. ) ;
#124 =( NAMED_UNIT ( * ) SI_UNIT ( $, .STERADIAN. ) SOLID_ANGLE_UNIT ( ) );
#125 = AXIS2_PLACEMENT_3D ( 'NONE', #203, #297, #204 ) ;
#126 = PRODUCT_RELATED_PRODUCT_CATEGORY ( 'part', '', ( #24 ) ) ;
#127 = DIRECTION ( 'NONE',  ( -1.000000000000000000, 0.0000000000000000000, 1.224646799147352961E-16 ) ) ;
#128 = DIRECTION ( 'NONE',  ( 1.000000000000000000, 0.0000000000000000000, 0.0000000000000000000 ) ) ;
#129 = CARTESIAN_POINT ( 'NONE',  ( 0.0000000000000000000, 0.0000000000000000000, 0.0000000000000000000 ) ) ;
#130 = AXIS2_PLACEMENT_3D ( 'NONE', #129, #20, #68 ) ;
#131 = DIRECTION ( 'NONE',  ( -1.000000000000000000, 0.0000000000000000000, 1.224646799147352961E-16 ) ) ;
#132 = DIRECTION ( 'NONE',  ( -1.224646799147353207E-16, -0.0000000000000000000, -1.000000000000000000 ) ) ;
#133 = VERTEX_POINT ( 'NONE', #230 ) ;
#134 = EDGE_CURVE ( 'NONE', #133, #145, #65, .T. ) ;
#135 = PRESENTATION_LAYER_ASSIGNMENT (  '', '', ( #274 ) ) ;
#136 = VERTEX_POINT ( 'NONE', #255 ) ;
#137 = DIRECTION ( 'NONE',  ( 0.0000000000000000000, 0.0000000000000000000, 1.000000000000000000 ) ) ;
#138 = EDGE_LOOP ( 'NONE', ( #33, #192, #294, #117 ) ) ;
#139 = AXIS2_PLACEMENT_3D ( 'NONE', #148, #121, #216 ) ;
#140 = CIRCLE ( 'NONE', #210, 0.07874999999999980627 ) ;
#141 = ORIENTED_EDGE ( 'NONE', *, *, #250, .F. ) ;
#142 = CARTESIAN_POINT ( 'NONE',  ( 0.0000000000000000000, 0.0000000000000000000, 2.000000000000000000 ) ) ;
#143 = ADVANCED_FACE ( 'NONE', ( #232 ), #205, .T. ) ;
#144 = ORIENTED_EDGE ( 'NONE', *, *, #87, .T. ) ;
#145 = VERTEX_POINT ( 'NONE', #18 ) ;
#146 = EDGE_LOOP ( 'NONE', ( #193, #286, #82, #198 ) ) ;
#147 = ADVANCED_FACE ( 'NONE', ( #158 ), #202, .T. ) ;
#148 = CARTESIAN_POINT ( 'NONE',  ( 0.0000000000000000000, 0.0000000000000000000, 0.0000000000000000000 ) ) ;
#149 = LINE ( 'NONE', #196, #197 ) ;
#150 = CYLINDRICAL_SURFACE ( 'NONE', #184, 0.09375000000000001388 ) ;
#151 = DIRECTION ( 'NONE',  ( 0.7071067811865463515, 8.659560562354916834E-17, -0.7071067811865486830 ) ) ;
#152 = CARTESIAN_POINT ( 'NONE',  ( -0.09365624999999992706, 1.147532321013543253E-17, 0.6250000000000000000 ) ) ;
#153 = ADVANCED_FACE ( 'NONE', ( #42 ), #279, .F. ) ;
#154 = DIRECTION ( 'NONE',  ( 0.0000000000000000000, 0.0000000000000000000, 1.000000000000000000 ) ) ;
#155 = DIRECTION ( 'NONE',  ( 1.000000000000000000, 0.0000000000000000000, 0.0000000000000000000 ) ) ;
#156 =( CONVERSION_BASED_UNIT ( 'INCH', #178 ) LENGTH_UNIT ( ) NAMED_UNIT ( #19 ) );
#157 = PLANE ( 'NONE',  #77 ) ;
#158 = FACE_OUTER_BOUND ( 'NONE', #138, .T. ) ;
#159 = VERTEX_POINT ( 'NONE', #152 ) ;
#160 = SURFACE_STYLE_USAGE ( .BOTH. , #74 ) ;
#161 = CARTESIAN_POINT ( 'NONE',  ( -0.09365624999999999645, 0.0000000000000000000, 2.293916535652885596E-17 ) ) ;
#162 = ORIENTED_EDGE ( 'NONE', *, *, #236, .F. ) ;
#163 = ORIENTED_EDGE ( 'NONE', *, *, #186, .F. ) ;
#164 = ORIENTED_EDGE ( 'NONE', *, *, #179, .F. ) ;
#165 = ADVANCED_BREP_SHAPE_REPRESENTATION ( 'Micro_GEM-187-4X', ( #21, #139 ), #275 ) ;
#166 = DIRECTION ( 'NONE',  ( 0.0000000000000000000, 0.0000000000000000000, 1.000000000000000000 ) ) ;
#167 = PRODUCT_DEFINITION ( 'UNKNOWN', '', #285, #176 ) ;
#168 = ADVANCED_FACE ( 'NONE', ( #109 ), #157, .T. ) ;
#169 =( GEOMETRIC_REPRESENTATION_CONTEXT ( 3 ) GLOBAL_UNCERTAINTY_ASSIGNED_CONTEXT ( ( #225 ) ) GLOBAL_UNIT_ASSIGNED_CONTEXT ( ( #122, #270, #38 ) ) REPRESENTATION_CONTEXT ( 'NONE', 'WORKASPACE' ) );
#170 = AXIS2_PLACEMENT_3D ( 'NONE', #3, #173, #273 ) ;
#171 = FACE_OUTER_BOUND ( 'NONE', #207, .T. ) ;
#172 = PRESENTATION_STYLE_ASSIGNMENT (( #86 ) ) ;
#173 = DIRECTION ( 'NONE',  ( 0.0000000000000000000, 0.0000000000000000000, -1.000000000000000000 ) ) ;
#174 = ADVANCED_FACE ( 'NONE', ( #256 ), #25, .T. ) ;
#175 = DIRECTION ( 'NONE',  ( 0.1736481776669313581, 0.0000000000000000000, 0.9848077530122077983 ) ) ;
#176 = PRODUCT_DEFINITION_CONTEXT ( 'detailed design', #69, 'design' ) ;
#177 = DIRECTION ( 'NONE',  ( -1.224646799147353207E-16, -0.0000000000000000000, -1.000000000000000000 ) ) ;
#178 = LENGTH_MEASURE_WITH_UNIT ( LENGTH_MEASURE( 0.02539999999999999897 ), #43 );
#179 = EDGE_CURVE ( 'NONE', #231, #133, #89, .T. ) ;
#180 = CARTESIAN_POINT ( 'NONE',  ( 7.654042494670957853E-17, 0.0000000000000000000, 0.6250000000000000000 ) ) ;
#181 = DIRECTION ( 'NONE',  ( -1.000000000000000000, 0.0000000000000000000, 1.224646799147352961E-16 ) ) ;
#182 = CARTESIAN_POINT ( 'NONE',  ( 7.654042494670957853E-17, 0.0000000000000000000, 0.6250000000000000000 ) ) ;
#183 = STYLED_ITEM ( 'NONE', ( #115 ), #165 ) ;
#184 = AXIS2_PLACEMENT_3D ( 'NONE', #224, #17, #107 ) ;
#185 = ORIENTED_EDGE ( 'NONE', *, *, #134, .T. ) ;
#186 = EDGE_CURVE ( 'NONE', #159, #291, #248, .T. ) ;
#187 = EDGE_CURVE ( 'NONE', #237, #231, #113, .T. ) ;
#188 = AXIS2_PLACEMENT_3D ( 'NONE', #110, #108, #128 ) ;
#189 = APPLICATION_PROTOCOL_DEFINITION ( 'draft international standard', 'automotive_design', 1998, #73 ) ;
#190 = CONICAL_SURFACE ( 'NONE', #64, 0.07874999999999980627, 0.7853981633974466137 ) ;
#191 = CIRCLE ( 'NONE', #125, 0.09375000000000001388 ) ;
#192 = ORIENTED_EDGE ( 'NONE', *, *, #81, .T. ) ;
#193 = ORIENTED_EDGE ( 'NONE', *, *, #233, .F. ) ;
#194 = LINE ( 'NONE', #195, #70 ) ;
#195 = CARTESIAN_POINT ( 'NONE',  ( -0.07874999999999980627, 0.0000000000000000000, 2.000000000000000000 ) ) ;
#196 = CARTESIAN_POINT ( 'NONE',  ( 0.07874999999999980627, 9.644093543285380530E-18, 2.000000000000000000 ) ) ;
#197 = VECTOR ( 'NONE', #151, 39.37007874015748143 ) ;
#198 = ORIENTED_EDGE ( 'NONE', *, *, #123, .F. ) ;
#199 = LINE ( 'NONE', #296, #267 ) ;
#200 = CARTESIAN_POINT ( 'NONE',  ( 1.404618771449245766E-33, 0.0000000000000000000, 1.146958267826442798E-17 ) ) ;
#201 = CARTESIAN_POINT ( 'NONE',  ( 0.0000000000000000000, 0.0000000000000000000, 0.0000000000000000000 ) ) ;
#202 = CYLINDRICAL_SURFACE ( 'NONE', #116, 0.09365624999999999645 ) ;
#203 = CARTESIAN_POINT ( 'NONE',  ( 7.660553729477949085E-17, 0.0000000000000000000, 0.6255316826705892286 ) ) ;
#204 = DIRECTION ( 'NONE',  ( 1.000000000000000000, 0.0000000000000000000, 0.0000000000000000000 ) ) ;
#205 = CONICAL_SURFACE ( 'NONE', #268, 0.09365624999999999645, 0.1745329251994338637 ) ;
#206 = EDGE_LOOP ( 'NONE', ( #265, #103 ) ) ;
#207 = EDGE_LOOP ( 'NONE', ( #83, #6, #114, #213 ) ) ;
#208 = CIRCLE ( 'NONE', #46, 0.09365624999999999645 ) ;
#209 = LINE ( 'NONE', #259, #85 ) ;
#210 = AXIS2_PLACEMENT_3D ( 'NONE', #11, #137, #100 ) ;
#211 = EDGE_CURVE ( 'NONE', #266, #102, #208, .T. ) ;
#212 = DIRECTION ( 'NONE',  ( -0.0000000000000000000, -0.0000000000000000000, -1.000000000000000000 ) ) ;
#213 = ORIENTED_EDGE ( 'NONE', *, *, #187, .F. ) ;
#214 = PRODUCT_CONTEXT ( 'NONE', #73, 'mechanical' ) ;
#215 = ORIENTED_EDGE ( 'NONE', *, *, #290, .F. ) ;
#216 = DIRECTION ( 'NONE',  ( 1.000000000000000000, 0.0000000000000000000, 0.0000000000000000000 ) ) ;
#217 = DIRECTION ( 'NONE',  ( -1.000000000000000000, 0.0000000000000000000, 0.0000000000000000000 ) ) ;
#218 = CARTESIAN_POINT ( 'NONE',  ( 7.654042494670957853E-17, 0.0000000000000000000, 0.6250000000000000000 ) ) ;
#219 = LENGTH_MEASURE_WITH_UNIT ( LENGTH_MEASURE( 0.02539999999999999897 ), #37 );
#220 =( NAMED_UNIT ( * ) PLANE_ANGLE_UNIT ( ) SI_UNIT ( $, .RADIAN. ) );
#221 = ORIENTED_EDGE ( 'NONE', *, *, #233, .T. ) ;
#222 = DIRECTION ( 'NONE',  ( 0.0000000000000000000, 0.0000000000000000000, -1.000000000000000000 ) ) ;
#223 = AXIS2_PLACEMENT_3D ( 'NONE', #201, #298, #92 ) ;
#224 = CARTESIAN_POINT ( 'NONE',  ( 0.0000000000000000000, 0.0000000000000000000, 2.000000000000000000 ) ) ;
#225 = UNCERTAINTY_MEASURE_WITH_UNIT (LENGTH_MEASURE( 1.000000000000000082E-05 ), #122, 'distance_accuracy_value', 'NONE');
#226 = CARTESIAN_POINT ( 'NONE',  ( -0.09375000000000001388, 0.0000000000000000000, 1.984999999999999654 ) ) ;
#227 = DIRECTION ( 'NONE',  ( -1.224646799147353207E-16, -0.0000000000000000000, -1.000000000000000000 ) ) ;
#228 = DIRECTION ( 'NONE',  ( -1.224646799147353207E-16, -0.0000000000000000000, -1.000000000000000000 ) ) ;
#229 = CIRCLE ( 'NONE', #188, 0.09375000000000001388 ) ;
#230 = CARTESIAN_POINT ( 'NONE',  ( -0.09374999999999994449, 0.0000000000000000000, 0.6255316826705892286 ) ) ;
#231 = VERTEX_POINT ( 'NONE', #226 ) ;
#232 = FACE_OUTER_BOUND ( 'NONE', #263, .T. ) ;
#233 = EDGE_CURVE ( 'NONE', #237, #145, #209, .T. ) ;
#234 = ORIENTED_EDGE ( 'NONE', *, *, #186, .T. ) ;
#235 = COLOUR_RGB ( '',0.7921568627450980005, 0.8196078431372548767, 0.9333333333333333481 ) ;
#236 = EDGE_CURVE ( 'NONE', #159, #133, #246, .T. ) ;
#237 = VERTEX_POINT ( 'NONE', #244 ) ;
#238 = FACE_OUTER_BOUND ( 'NONE', #9, .T. ) ;
#239 = EDGE_LOOP ( 'NONE', ( #35, #10 ) ) ;
#240 = SURFACE_STYLE_FILL_AREA ( #96 ) ;
#241 = ADVANCED_FACE ( 'NONE', ( #78 ), #50, .T. ) ;
#242 = CARTESIAN_POINT ( 'NONE',  ( 0.0000000000000000000, 0.0000000000000000000, 2.000000000000000000 ) ) ;
#243 = AXIS2_PLACEMENT_3D ( 'NONE', #180, #132, #26 ) ;
#244 = CARTESIAN_POINT ( 'NONE',  ( 0.09375000000000001388, 1.148106374200643863E-17, 1.984999999999999654 ) ) ;
#245 = FILL_AREA_STYLE_COLOUR ( '', #235 ) ;
#246 = LINE ( 'NONE', #119, #105 ) ;
#247 = DIRECTION ( 'NONE',  ( 0.0000000000000000000, 0.0000000000000000000, -1.000000000000000000 ) ) ;
#248 = CIRCLE ( 'NONE', #243, 0.09365624999999999645 ) ;
#249 = DIRECTION ( 'NONE',  ( -1.224646799147353207E-16, -0.0000000000000000000, -1.000000000000000000 ) ) ;
#250 = EDGE_CURVE ( 'NONE', #76, #136, #140, .T. ) ;
#251 =( NAMED_UNIT ( * ) SI_UNIT ( $, .STERADIAN. ) SOLID_ANGLE_UNIT ( ) );
#252 = CARTESIAN_POINT ( 'NONE',  ( 0.09365624999999999645, 1.146958267826442798E-17, -1.146958267826442798E-17 ) ) ;
#253 = DIRECTION ( 'NONE',  ( -0.7071067811865463515, 0.0000000000000000000, -0.7071067811865486830 ) ) ;
#254 = ADVANCED_FACE ( 'NONE', ( #238 ), #292, .T. ) ;
#255 = CARTESIAN_POINT ( 'NONE',  ( -0.07874999999999980627, 0.0000000000000000000, 2.000000000000000000 ) ) ;
#256 = FACE_OUTER_BOUND ( 'NONE', #29, .T. ) ;
#257 = AXIS2_PLACEMENT_3D ( 'NONE', #67, #227, #155 ) ;
#258 = DIRECTION ( 'NONE',  ( 1.224646799147353207E-16, 0.0000000000000000000, 1.000000000000000000 ) ) ;
#259 = CARTESIAN_POINT ( 'NONE',  ( 0.09375000000000001388, 1.148106374200643863E-17, 2.000000000000000000 ) ) ;
#260 = ORIENTED_EDGE ( 'NONE', *, *, #264, .F. ) ;
#261 = EDGE_CURVE ( 'NONE', #76, #237, #149, .T. ) ;
#262 = AXIS2_PLACEMENT_3D ( 'NONE', #61, #222, #15 ) ;
#263 = EDGE_LOOP ( 'NONE', ( #162, #58, #283, #79 ) ) ;
#264 = EDGE_CURVE ( 'NONE', #291, #145, #199, .T. ) ;
#265 = ORIENTED_EDGE ( 'NONE', *, *, #211, .T. ) ;
#266 = VERTEX_POINT ( 'NONE', #161 ) ;
#267 = VECTOR ( 'NONE', #175, 39.37007874015748143 ) ;
#268 = AXIS2_PLACEMENT_3D ( 'NONE', #88, #258, #23 ) ;
#269 =( NAMED_UNIT ( * ) PLANE_ANGLE_UNIT ( ) SI_UNIT ( $, .RADIAN. ) );
#270 =( NAMED_UNIT ( * ) PLANE_ANGLE_UNIT ( ) SI_UNIT ( $, .RADIAN. ) );
#271 = CARTESIAN_POINT ( 'NONE',  ( 0.09365625000000006584, 0.0000000000000000000, 0.6250000000000000000 ) ) ;
#272 = DIMENSIONAL_EXPONENTS ( 1.000000000000000000, 0.0000000000000000000, 0.0000000000000000000, 0.0000000000000000000, 0.0000000000000000000, 0.0000000000000000000, 0.0000000000000000000 ) ;
#273 = DIRECTION ( 'NONE',  ( 1.000000000000000000, 0.0000000000000000000, 0.0000000000000000000 ) ) ;
#274 = STYLED_ITEM ( 'NONE', ( #172 ), #21 ) ;
#275 =( GEOMETRIC_REPRESENTATION_CONTEXT ( 3 ) GLOBAL_UNCERTAINTY_ASSIGNED_CONTEXT ( ( #63 ) ) GLOBAL_UNIT_ASSIGNED_CONTEXT ( ( #156, #220, #251 ) ) REPRESENTATION_CONTEXT ( 'NONE', 'WORKASPACE' ) );
#276 = LINE ( 'NONE', #111, #71 ) ;
#277 = DIRECTION ( 'NONE',  ( -1.000000000000000000, 0.0000000000000000000, 0.0000000000000000000 ) ) ;
#278 = DIMENSIONAL_EXPONENTS ( 1.000000000000000000, 0.0000000000000000000, 0.0000000000000000000, 0.0000000000000000000, 0.0000000000000000000, 0.0000000000000000000, 0.0000000000000000000 ) ;
#279 = PLANE ( 'NONE',  #130 ) ;
#280 = DIRECTION ( 'NONE',  ( -0.0000000000000000000, -0.0000000000000000000, -1.000000000000000000 ) ) ;
#281 = PRESENTATION_LAYER_ASSIGNMENT (  '', '', ( #183 ) ) ;
#282 = CIRCLE ( 'NONE', #41, 0.09365624999999999645 ) ;
#283 = ORIENTED_EDGE ( 'NONE', *, *, #264, .T. ) ;
#284 = FILL_AREA_STYLE_COLOUR ( '', #95 ) ;
#285 = PRODUCT_DEFINITION_FORMATION_WITH_SPECIFIED_SOURCE ( 'ANY', '', #24, .NOT_KNOWN. ) ;
#286 = ORIENTED_EDGE ( 'NONE', *, *, #187, .T. ) ;
#287 = MECHANICAL_DESIGN_GEOMETRIC_PRESENTATION_REPRESENTATION (  '', ( #183 ), #169 ) ;
#288 = DIRECTION ( 'NONE',  ( -0.1736481776669311639, 2.126576849575783008E-17, 0.9848077530122080203 ) ) ;
#289 = VECTOR ( 'NONE', #1, 39.37007874015748143 ) ;
#290 = EDGE_CURVE ( 'NONE', #136, #231, #194, .T. ) ;
#291 = VERTEX_POINT ( 'NONE', #271 ) ;
#292 = CONICAL_SURFACE ( 'NONE', #16, 0.09365624999999999645, 0.1745329251994338637 ) ;
#293 = SHAPE_DEFINITION_REPRESENTATION ( #48, #165 ) ;
#294 = ORIENTED_EDGE ( 'NONE', *, *, #98, .T. ) ;
#295 = CARTESIAN_POINT ( 'NONE',  ( 0.0000000000000000000, 0.0000000000000000000, 2.000000000000000000 ) ) ;
#296 = CARTESIAN_POINT ( 'NONE',  ( 0.09365625000000006584, 0.0000000000000000000, 0.6250000000000000000 ) ) ;
#297 = DIRECTION ( 'NONE',  ( -1.224646799147353207E-16, -0.0000000000000000000, -1.000000000000000000 ) ) ;
#298 = DIRECTION ( 'NONE',  ( -1.224646799147353207E-16, -0.0000000000000000000, -1.000000000000000000 ) ) ;
#299 = CARTESIAN_POINT ( 'NONE',  ( 0.07874999999999980627, 1.056257864264590573E-17, 2.000000000000000000 ) ) ;
ENDSEC;
END-ISO-10303-21;
