ISO-10303-21;
HEADER;
FILE_DESCRIPTION (( 'STEP AP214' ),
    '1' );
FILE_NAME ('Micro_EMS-375-4.STEP',
    '2021-09-01T17:56:16',
    ( '' ),
    ( '' ),
    'SwSTEP 2.0',
    'SolidWorks 2020',
    '' );
FILE_SCHEMA (( 'AUTOMOTIVE_DESIGN' ));
ENDSEC;

DATA;
#1 = ORIENTED_EDGE ( 'NONE', *, *, #153, .T. ) ;
#2 = CARTESIAN_POINT ( 'NONE',  ( 0.1873125000000001317, 0.0000000000000000000, 0.8750000000000000000 ) ) ;
#3 = AXIS2_PLACEMENT_3D ( 'NONE', #16, #33, #10 ) ;
#4 = VERTEX_POINT ( 'NONE', #221 ) ;
#5 = EDGE_CURVE ( 'NONE', #14, #159, #18, .T. ) ;
#6 = CARTESIAN_POINT ( 'NONE',  ( 0.1873124999999999929, 2.293916535652885596E-17, -2.293916535652885596E-17 ) ) ;
#7 = ORIENTED_EDGE ( 'NONE', *, *, #17, .F. ) ;
#8 = FACE_OUTER_BOUND ( 'NONE', #279, .T. ) ;
#9 = DIRECTION ( 'NONE',  ( -1.224646799147353207E-16, -0.0000000000000000000, -1.000000000000000000 ) ) ;
#10 = DIRECTION ( 'NONE',  ( -1.000000000000000000, 0.0000000000000000000, 0.0000000000000000000 ) ) ;
#11 = FACE_OUTER_BOUND ( 'NONE', #49, .T. ) ;
#12 = AXIS2_PLACEMENT_3D ( 'NONE', #87, #68, #205 ) ;
#13 =( LENGTH_UNIT ( ) NAMED_UNIT ( * ) SI_UNIT ( $, .METRE. ) );
#14 = VERTEX_POINT ( 'NONE', #129 ) ;
#15 =( CONVERSION_BASED_UNIT ( 'INCH', #37 ) LENGTH_UNIT ( ) NAMED_UNIT ( #112 ) );
#16 = CARTESIAN_POINT ( 'NONE',  ( 0.0000000000000000000, 0.0000000000000000000, 2.500000000000000000 ) ) ;
#17 = EDGE_CURVE ( 'NONE', #159, #14, #118, .T. ) ;
#18 = CIRCLE ( 'NONE', #92, 0.1873124999999999929 ) ;
#19 = CIRCLE ( 'NONE', #275, 0.1724999999999995981 ) ;
#20 = CARTESIAN_POINT ( 'NONE',  ( 0.1724999999999995981, 2.204364238465233357E-17, 2.500000000000000000 ) ) ;
#21 = DIRECTION ( 'NONE',  ( 1.000000000000000000, 0.0000000000000000000, 0.0000000000000000000 ) ) ;
#22 = UNCERTAINTY_MEASURE_WITH_UNIT (LENGTH_MEASURE( 1.000000000000000082E-05 ), #267, 'distance_accuracy_value', 'NONE');
#23 = DIRECTION ( 'NONE',  ( -1.224646799147353207E-16, -0.0000000000000000000, -1.000000000000000000 ) ) ;
#24 = AXIS2_PLACEMENT_3D ( 'NONE', #116, #297, #178 ) ;
#25 = ADVANCED_FACE ( 'NONE', ( #265 ), #246, .T. ) ;
#26 = ORIENTED_EDGE ( 'NONE', *, *, #45, .F. ) ;
#27 = DIRECTION ( 'NONE',  ( -1.224646799147353207E-16, -0.0000000000000000000, -1.000000000000000000 ) ) ;
#28 = VECTOR ( 'NONE', #173, 39.37007874015748143 ) ;
#29 = ORIENTED_EDGE ( 'NONE', *, *, #271, .F. ) ;
#30 = ORIENTED_EDGE ( 'NONE', *, *, #59, .F. ) ;
#31 = ORIENTED_EDGE ( 'NONE', *, *, #231, .T. ) ;
#32 = AXIS2_PLACEMENT_3D ( 'NONE', #157, #134, #119 ) ;
#33 = DIRECTION ( 'NONE',  ( 0.0000000000000000000, 0.0000000000000000000, -1.000000000000000000 ) ) ;
#34 = CARTESIAN_POINT ( 'NONE',  ( 0.0000000000000000000, 0.0000000000000000000, 2.500000000000000000 ) ) ;
#35 = FACE_OUTER_BOUND ( 'NONE', #100, .T. ) ;
#36 = EDGE_CURVE ( 'NONE', #277, #75, #229, .T. ) ;
#37 = LENGTH_MEASURE_WITH_UNIT ( LENGTH_MEASURE( 0.02539999999999999897 ), #264 );
#38 = DIRECTION ( 'NONE',  ( 1.000000000000000000, 0.0000000000000000000, 0.0000000000000000000 ) ) ;
#39 = ORIENTED_EDGE ( 'NONE', *, *, #299, .F. ) ;
#40 = AXIS2_PLACEMENT_3D ( 'NONE', #177, #66, #21 ) ;
#41 = PRESENTATION_LAYER_ASSIGNMENT (  '', '', ( #174 ) ) ;
#42 = DIRECTION ( 'NONE',  ( -0.7071067811865385799, 0.0000000000000000000, -0.7071067811865563435 ) ) ;
#43 = PRESENTATION_STYLE_ASSIGNMENT (( #284 ) ) ;
#44 = CARTESIAN_POINT ( 'NONE',  ( 1.071565949253934025E-16, 0.0000000000000000000, 0.8750000000000000000 ) ) ;
#45 = EDGE_CURVE ( 'NONE', #211, #245, #56, .T. ) ;
#46 = CONICAL_SURFACE ( 'NONE', #208, 0.1873125000000000207, 0.1745329251994338915 ) ;
#47 = MANIFOLD_SOLID_BREP ( 'Cut-Revolve1', #143 ) ;
#48 = DIRECTION ( 'NONE',  ( 0.1736481776669313859, 0.0000000000000000000, 0.9848077530122077983 ) ) ;
#49 = EDGE_LOOP ( 'NONE', ( #238, #1, #185, #39 ) ) ;
#50 = DIRECTION ( 'NONE',  ( 0.0000000000000000000, 0.0000000000000000000, 1.000000000000000000 ) ) ;
#51 = ORIENTED_EDGE ( 'NONE', *, *, #71, .T. ) ;
#52 = ADVANCED_FACE ( 'NONE', ( #79 ), #165, .T. ) ;
#53 = ORIENTED_EDGE ( 'NONE', *, *, #258, .F. ) ;
#54 = EDGE_LOOP ( 'NONE', ( #30, #209, #51, #90 ) ) ;
#55 = DIRECTION ( 'NONE',  ( -1.224646799147353207E-16, -0.0000000000000000000, -1.000000000000000000 ) ) ;
#56 = LINE ( 'NONE', #86, #226 ) ;
#57 = APPLICATION_PROTOCOL_DEFINITION ( 'draft international standard', 'automotive_design', 1998, #149 ) ;
#58 = CYLINDRICAL_SURFACE ( 'NONE', #298, 0.1875000000000000278 ) ;
#59 = EDGE_CURVE ( 'NONE', #136, #277, #114, .T. ) ;
#60 =( NAMED_UNIT ( * ) SI_UNIT ( $, .STERADIAN. ) SOLID_ANGLE_UNIT ( ) );
#61 = CIRCLE ( 'NONE', #104, 0.1873125000000000207 ) ;
#62 = PRESENTATION_STYLE_ASSIGNMENT (( #247 ) ) ;
#63 = SHAPE_DEFINITION_REPRESENTATION ( #81, #161 ) ;
#64 = DIRECTION ( 'NONE',  ( 0.0000000000000000000, 0.0000000000000000000, -1.000000000000000000 ) ) ;
#65 = PRODUCT_DEFINITION_CONTEXT ( 'detailed design', #84, 'design' ) ;
#66 = DIRECTION ( 'NONE',  ( 0.0000000000000000000, 0.0000000000000000000, 1.000000000000000000 ) ) ;
#67 = AXIS2_PLACEMENT_3D ( 'NONE', #214, #109, #269 ) ;
#68 = DIRECTION ( 'NONE',  ( 0.0000000000000000000, 0.0000000000000000000, 1.000000000000000000 ) ) ;
#69 = DIRECTION ( 'NONE',  ( 0.7071067811865385799, 8.659560562354823157E-17, -0.7071067811865563435 ) ) ;
#70 = VERTEX_POINT ( 'NONE', #20 ) ;
#71 = EDGE_CURVE ( 'NONE', #193, #75, #199, .T. ) ;
#72 = AXIS2_PLACEMENT_3D ( 'NONE', #191, #224, #222 ) ;
#73 = ORIENTED_EDGE ( 'NONE', *, *, #82, .T. ) ;
#74 = DIRECTION ( 'NONE',  ( 1.000000000000000000, 0.0000000000000000000, 0.0000000000000000000 ) ) ;
#75 = VERTEX_POINT ( 'NONE', #95 ) ;
#76 = CARTESIAN_POINT ( 'NONE',  ( -0.1875000000000000278, 0.0000000000000000000, 2.484999999999999432 ) ) ;
#77 = MECHANICAL_DESIGN_GEOMETRIC_PRESENTATION_REPRESENTATION (  '', ( #124 ), #85 ) ;
#78 = ORIENTED_EDGE ( 'NONE', *, *, #216, .F. ) ;
#79 = FACE_OUTER_BOUND ( 'NONE', #169, .T. ) ;
#80 = DIRECTION ( 'NONE',  ( 1.224646799147353207E-16, 0.0000000000000000000, 1.000000000000000000 ) ) ;
#81 = PRODUCT_DEFINITION_SHAPE ( 'NONE', 'NONE',  #223 ) ;
#82 = EDGE_CURVE ( 'NONE', #211, #70, #202, .T. ) ;
#83 = LINE ( 'NONE', #195, #240 ) ;
#84 = APPLICATION_CONTEXT ( 'automotive_design' ) ;
#85 =( GEOMETRIC_REPRESENTATION_CONTEXT ( 3 ) GLOBAL_UNCERTAINTY_ASSIGNED_CONTEXT ( ( #22 ) ) GLOBAL_UNIT_ASSIGNED_CONTEXT ( ( #267, #286, #241 ) ) REPRESENTATION_CONTEXT ( 'NONE', 'WORKASPACE' ) );
#86 = CARTESIAN_POINT ( 'NONE',  ( -0.1724999999999995981, 0.0000000000000000000, 2.500000000000000000 ) ) ;
#87 = CARTESIAN_POINT ( 'NONE',  ( 0.0000000000000000000, 0.0000000000000000000, 0.0000000000000000000 ) ) ;
#88 = DIRECTION ( 'NONE',  ( -1.224646799147353207E-16, -0.0000000000000000000, -1.000000000000000000 ) ) ;
#89 = EDGE_CURVE ( 'NONE', #136, #193, #254, .T. ) ;
#90 = ORIENTED_EDGE ( 'NONE', *, *, #216, .T. ) ;
#91 = DIRECTION ( 'NONE',  ( -1.000000000000000000, 0.0000000000000000000, 0.0000000000000000000 ) ) ;
#92 = AXIS2_PLACEMENT_3D ( 'NONE', #194, #192, #167 ) ;
#93 = CARTESIAN_POINT ( 'NONE',  ( 0.0000000000000000000, 0.0000000000000000000, 0.0000000000000000000 ) ) ;
#94 = DIRECTION ( 'NONE',  ( 1.224646799147353207E-16, 0.0000000000000000000, 1.000000000000000000 ) ) ;
#95 = CARTESIAN_POINT ( 'NONE',  ( 0.1875000000000000833, 2.296212748401288650E-17, 0.8760633653411783461 ) ) ;
#96 = ADVANCED_FACE ( 'NONE', ( #154 ), #227, .T. ) ;
#97 = UNCERTAINTY_MEASURE_WITH_UNIT (LENGTH_MEASURE( 1.000000000000000082E-05 ), #15, 'distance_accuracy_value', 'NONE');
#98 = CIRCLE ( 'NONE', #272, 0.1875000000000000278 ) ;
#99 = CARTESIAN_POINT ( 'NONE',  ( -0.1873124999999999096, 2.295064642027087123E-17, 0.8750000000000000000 ) ) ;
#100 = EDGE_LOOP ( 'NONE', ( #261, #137, #7, #182 ) ) ;
#101 = PRODUCT ( 'Micro_EMS-375-4', 'Micro_EMS-375-4', '', ( #251 ) ) ;
#102 = EDGE_LOOP ( 'NONE', ( #73, #31 ) ) ;
#103 = AXIS2_PLACEMENT_3D ( 'NONE', #201, #252, #117 ) ;
#104 = AXIS2_PLACEMENT_3D ( 'NONE', #139, #27, #210 ) ;
#105 = LENGTH_MEASURE_WITH_UNIT ( LENGTH_MEASURE( 0.02539999999999999897 ), #13 );
#106 = FILL_AREA_STYLE ('',( #217 ) ) ;
#107 = LINE ( 'NONE', #126, #28 ) ;
#108 =( CONVERSION_BASED_UNIT ( 'INCH', #263 ) LENGTH_UNIT ( ) NAMED_UNIT ( #110 ) );
#109 = DIRECTION ( 'NONE',  ( -1.224646799147353207E-16, -0.0000000000000000000, -1.000000000000000000 ) ) ;
#110 = DIMENSIONAL_EXPONENTS ( 1.000000000000000000, 0.0000000000000000000, 0.0000000000000000000, 0.0000000000000000000, 0.0000000000000000000, 0.0000000000000000000, 0.0000000000000000000 ) ;
#111 = EDGE_LOOP ( 'NONE', ( #162, #207, #266, #140 ) ) ;
#112 = DIMENSIONAL_EXPONENTS ( 1.000000000000000000, 0.0000000000000000000, 0.0000000000000000000, 0.0000000000000000000, 0.0000000000000000000, 0.0000000000000000000, 0.0000000000000000000 ) ;
#113 = VECTOR ( 'NONE', #48, 39.37007874015748143 ) ;
#114 = LINE ( 'NONE', #132, #160 ) ;
#115 = ADVANCED_FACE ( 'NONE', ( #156 ), #250, .T. ) ;
#116 = CARTESIAN_POINT ( 'NONE',  ( 0.0000000000000000000, 0.0000000000000000000, 2.500000000000000000 ) ) ;
#117 = DIRECTION ( 'NONE',  ( -1.000000000000000000, 0.0000000000000000000, 0.0000000000000000000 ) ) ;
#118 = CIRCLE ( 'NONE', #291, 0.1873124999999999929 ) ;
#119 = DIRECTION ( 'NONE',  ( 1.000000000000000000, 0.0000000000000000000, -0.0000000000000000000 ) ) ;
#120 = EDGE_LOOP ( 'NONE', ( #212, #236, #256, #53 ) ) ;
#121 = CARTESIAN_POINT ( 'NONE',  ( 1.072868196215332272E-16, 0.0000000000000000000, 0.8760633653411783461 ) ) ;
#122 = DIRECTION ( 'NONE',  ( -1.224646799147353207E-16, -0.0000000000000000000, -1.000000000000000000 ) ) ;
#123 = EDGE_LOOP ( 'NONE', ( #255, #259, #148, #78 ) ) ;
#124 = STYLED_ITEM ( 'NONE', ( #62 ), #47 ) ;
#125 = DIRECTION ( 'NONE',  ( 1.000000000000000000, 0.0000000000000000000, 0.0000000000000000000 ) ) ;
#126 = CARTESIAN_POINT ( 'NONE',  ( -0.1875000000000000278, 0.0000000000000000000, 2.500000000000000000 ) ) ;
#127 =( GEOMETRIC_REPRESENTATION_CONTEXT ( 3 ) GLOBAL_UNCERTAINTY_ASSIGNED_CONTEXT ( ( #200 ) ) GLOBAL_UNIT_ASSIGNED_CONTEXT ( ( #108, #142, #60 ) ) REPRESENTATION_CONTEXT ( 'NONE', 'WORKASPACE' ) );
#128 = FILL_AREA_STYLE ('',( #243 ) ) ;
#129 = CARTESIAN_POINT ( 'NONE',  ( 0.1873124999999999929, 2.293916535652885596E-17, 0.0000000000000000000 ) ) ;
#130 = AXIS2_PLACEMENT_3D ( 'NONE', #93, #235, #206 ) ;
#131 = COLOUR_RGB ( '',0.7921568627450980005, 0.8196078431372548767, 0.9333333333333333481 ) ;
#132 = CARTESIAN_POINT ( 'NONE',  ( -0.1873124999999999096, 2.293916535652885904E-17, 0.8750000000000000000 ) ) ;
#133 = ADVANCED_FACE ( 'NONE', ( #204 ), #273, .T. ) ;
#134 = DIRECTION ( 'NONE',  ( 0.0000000000000000000, 0.0000000000000000000, 1.000000000000000000 ) ) ;
#135 = VECTOR ( 'NONE', #253, 39.37007874015748143 ) ;
#136 = VERTEX_POINT ( 'NONE', #99 ) ;
#137 = ORIENTED_EDGE ( 'NONE', *, *, #249, .T. ) ;
#138 = ORIENTED_EDGE ( 'NONE', *, *, #145, .T. ) ;
#139 = CARTESIAN_POINT ( 'NONE',  ( 1.071565949253934025E-16, 0.0000000000000000000, 0.8750000000000000000 ) ) ;
#140 = ORIENTED_EDGE ( 'NONE', *, *, #5, .F. ) ;
#141 = DIRECTION ( 'NONE',  ( 1.000000000000000000, 0.0000000000000000000, 0.0000000000000000000 ) ) ;
#142 =( NAMED_UNIT ( * ) PLANE_ANGLE_UNIT ( ) SI_UNIT ( $, .RADIAN. ) );
#143 = CLOSED_SHELL ( 'NONE', ( #183, #189, #52, #293, #96, #133, #25, #287, #115, #175 ) ) ;
#144 = CONICAL_SURFACE ( 'NONE', #155, 0.1873125000000000207, 0.1745329251994338915 ) ;
#145 = EDGE_CURVE ( 'NONE', #70, #4, #181, .T. ) ;
#146 = SURFACE_STYLE_FILL_AREA ( #128 ) ;
#147 = DIRECTION ( 'NONE',  ( -1.224646799147353207E-16, -0.0000000000000000000, -1.000000000000000000 ) ) ;
#148 = ORIENTED_EDGE ( 'NONE', *, *, #299, .T. ) ;
#149 = APPLICATION_CONTEXT ( 'automotive_design' ) ;
#150 = PRESENTATION_LAYER_ASSIGNMENT (  '', '', ( #124 ) ) ;
#151 = MECHANICAL_DESIGN_GEOMETRIC_PRESENTATION_REPRESENTATION (  '', ( #174 ), #270 ) ;
#152 = CARTESIAN_POINT ( 'NONE',  ( 2.809237542898491532E-33, 0.0000000000000000000, 2.293916535652885596E-17 ) ) ;
#153 = EDGE_CURVE ( 'NONE', #4, #75, #176, .T. ) ;
#154 = FACE_OUTER_BOUND ( 'NONE', #123, .T. ) ;
#155 = AXIS2_PLACEMENT_3D ( 'NONE', #44, #94, #38 ) ;
#156 = FACE_OUTER_BOUND ( 'NONE', #111, .T. ) ;
#157 = CARTESIAN_POINT ( 'NONE',  ( 0.0000000000000000000, 0.0000000000000000000, 2.500000000000000000 ) ) ;
#158 = CARTESIAN_POINT ( 'NONE',  ( 0.1875000000000000278, 2.296212748401287726E-17, 2.500000000000000000 ) ) ;
#159 = VERTEX_POINT ( 'NONE', #230 ) ;
#160 = VECTOR ( 'NONE', #225, 39.37007874015747433 ) ;
#161 = ADVANCED_BREP_SHAPE_REPRESENTATION ( 'Micro_EMS-375-4', ( #47, #12 ), #127 ) ;
#162 = ORIENTED_EDGE ( 'NONE', *, *, #249, .F. ) ;
#163 = ORIENTED_EDGE ( 'NONE', *, *, #89, .F. ) ;
#164 = ORIENTED_EDGE ( 'NONE', *, *, #231, .F. ) ;
#165 = CONICAL_SURFACE ( 'NONE', #3, 0.1724999999999995981, 0.7853981633974357335 ) ;
#166 = CARTESIAN_POINT ( 'NONE',  ( 0.0000000000000000000, 0.0000000000000000000, 2.484999999999999432 ) ) ;
#167 = DIRECTION ( 'NONE',  ( -1.000000000000000000, 0.0000000000000000000, 1.224646799147352961E-16 ) ) ;
#168 = CARTESIAN_POINT ( 'NONE',  ( 1.071565949253934025E-16, 0.0000000000000000000, 0.8750000000000000000 ) ) ;
#169 = EDGE_LOOP ( 'NONE', ( #164, #138, #29, #26 ) ) ;
#170 = SURFACE_SIDE_STYLE ('',( #146 ) ) ;
#171 = DIRECTION ( 'NONE',  ( -1.000000000000000000, 0.0000000000000000000, 1.224646799147352961E-16 ) ) ;
#172 = DIRECTION ( 'NONE',  ( -1.000000000000000000, 0.0000000000000000000, 0.0000000000000000000 ) ) ;
#173 = DIRECTION ( 'NONE',  ( -0.0000000000000000000, -0.0000000000000000000, -1.000000000000000000 ) ) ;
#174 = STYLED_ITEM ( 'NONE', ( #43 ), #161 ) ;
#175 = ADVANCED_FACE ( 'NONE', ( #197 ), #292, .F. ) ;
#176 = LINE ( 'NONE', #158, #135 ) ;
#177 = CARTESIAN_POINT ( 'NONE',  ( 0.0000000000000000000, 0.0000000000000000000, 2.500000000000000000 ) ) ;
#178 = DIRECTION ( 'NONE',  ( -1.000000000000000000, 0.0000000000000000000, 0.0000000000000000000 ) ) ;
#179 = AXIS2_PLACEMENT_3D ( 'NONE', #278, #9, #283 ) ;
#180 = DIRECTION ( 'NONE',  ( -1.000000000000000000, 0.0000000000000000000, 1.224646799147352961E-16 ) ) ;
#181 = LINE ( 'NONE', #274, #232 ) ;
#182 = ORIENTED_EDGE ( 'NONE', *, *, #282, .F. ) ;
#183 = ADVANCED_FACE ( 'NONE', ( #35 ), #280, .T. ) ;
#184 = ORIENTED_EDGE ( 'NONE', *, *, #5, .T. ) ;
#185 = ORIENTED_EDGE ( 'NONE', *, *, #36, .F. ) ;
#186 = EDGE_LOOP ( 'NONE', ( #242, #184 ) ) ;
#187 = CIRCLE ( 'NONE', #285, 0.1875000000000000278 ) ;
#188 = DIRECTION ( 'NONE',  ( -0.0000000000000000000, -0.0000000000000000000, -1.000000000000000000 ) ) ;
#189 = ADVANCED_FACE ( 'NONE', ( #8 ), #46, .T. ) ;
#190 = SURFACE_SIDE_STYLE ('',( #248 ) ) ;
#191 = CARTESIAN_POINT ( 'NONE',  ( 0.0000000000000000000, 0.0000000000000000000, 2.484999999999999432 ) ) ;
#192 = DIRECTION ( 'NONE',  ( -1.224646799147353207E-16, -0.0000000000000000000, -1.000000000000000000 ) ) ;
#193 = VERTEX_POINT ( 'NONE', #2 ) ;
#194 = CARTESIAN_POINT ( 'NONE',  ( 2.809237542898491532E-33, 0.0000000000000000000, 2.293916535652885596E-17 ) ) ;
#195 = CARTESIAN_POINT ( 'NONE',  ( -0.1873124999999999929, 0.0000000000000000000, 2.293916535652885596E-17 ) ) ;
#196 = PRODUCT_RELATED_PRODUCT_CATEGORY ( 'part', '', ( #101 ) ) ;
#197 = FACE_OUTER_BOUND ( 'NONE', #186, .T. ) ;
#198 = VECTOR ( 'NONE', #122, 39.37007874015748143 ) ;
#199 = LINE ( 'NONE', #295, #113 ) ;
#200 = UNCERTAINTY_MEASURE_WITH_UNIT (LENGTH_MEASURE( 1.000000000000000082E-05 ), #108, 'distance_accuracy_value', 'NONE');
#201 = CARTESIAN_POINT ( 'NONE',  ( 1.071565949253934025E-16, 0.0000000000000000000, 0.8750000000000000000 ) ) ;
#202 = CIRCLE ( 'NONE', #40, 0.1724999999999995981 ) ;
#203 = PRODUCT_DEFINITION_FORMATION_WITH_SPECIFIED_SOURCE ( 'ANY', '', #101, .NOT_KNOWN. ) ;
#204 = FACE_OUTER_BOUND ( 'NONE', #102, .T. ) ;
#205 = DIRECTION ( 'NONE',  ( 1.000000000000000000, 0.0000000000000000000, 0.0000000000000000000 ) ) ;
#206 = DIRECTION ( 'NONE',  ( 1.000000000000000000, 0.0000000000000000000, -0.0000000000000000000 ) ) ;
#207 = ORIENTED_EDGE ( 'NONE', *, *, #233, .T. ) ;
#208 = AXIS2_PLACEMENT_3D ( 'NONE', #168, #80, #237 ) ;
#209 = ORIENTED_EDGE ( 'NONE', *, *, #233, .F. ) ;
#210 = DIRECTION ( 'NONE',  ( -1.000000000000000000, 0.0000000000000000000, 0.0000000000000000000 ) ) ;
#211 = VERTEX_POINT ( 'NONE', #262 ) ;
#212 = ORIENTED_EDGE ( 'NONE', *, *, #145, .F. ) ;
#213 = AXIS2_PLACEMENT_3D ( 'NONE', #34, #244, #172 ) ;
#214 = CARTESIAN_POINT ( 'NONE',  ( 1.072868196215332272E-16, 0.0000000000000000000, 0.8760633653411783461 ) ) ;
#215 = CARTESIAN_POINT ( 'NONE',  ( 0.0000000000000000000, 0.0000000000000000000, 2.500000000000000000 ) ) ;
#216 = EDGE_CURVE ( 'NONE', #75, #277, #187, .T. ) ;
#217 = FILL_AREA_STYLE_COLOUR ( '', #268 ) ;
#218 = FACE_OUTER_BOUND ( 'NONE', #54, .T. ) ;
#219 = CIRCLE ( 'NONE', #72, 0.1875000000000000278 ) ;
#220 =( NAMED_UNIT ( * ) SI_UNIT ( $, .STERADIAN. ) SOLID_ANGLE_UNIT ( ) );
#221 = CARTESIAN_POINT ( 'NONE',  ( 0.1875000000000000278, 2.296212748401287726E-17, 2.484999999999999432 ) ) ;
#222 = DIRECTION ( 'NONE',  ( 1.000000000000000000, 0.0000000000000000000, 0.0000000000000000000 ) ) ;
#223 = PRODUCT_DEFINITION ( 'UNKNOWN', '', #203, #65 ) ;
#224 = DIRECTION ( 'NONE',  ( 0.0000000000000000000, 0.0000000000000000000, -1.000000000000000000 ) ) ;
#225 = DIRECTION ( 'NONE',  ( -0.1736481776669311916, 2.126576849575783316E-17, 0.9848077530122080203 ) ) ;
#226 = VECTOR ( 'NONE', #42, 39.37007874015748854 ) ;
#227 = CYLINDRICAL_SURFACE ( 'NONE', #24, 0.1875000000000000278 ) ;
#228 = CARTESIAN_POINT ( 'NONE',  ( 0.0000000000000000000, 0.0000000000000000000, 0.0000000000000000000 ) ) ;
#229 = CIRCLE ( 'NONE', #67, 0.1875000000000000278 ) ;
#230 = CARTESIAN_POINT ( 'NONE',  ( -0.1873124999999999929, 0.0000000000000000000, 4.587833071305771192E-17 ) ) ;
#231 = EDGE_CURVE ( 'NONE', #70, #211, #19, .T. ) ;
#232 = VECTOR ( 'NONE', #69, 39.37007874015748854 ) ;
#233 = EDGE_CURVE ( 'NONE', #193, #136, #61, .T. ) ;
#234 = ORIENTED_EDGE ( 'NONE', *, *, #36, .T. ) ;
#235 = DIRECTION ( 'NONE',  ( 0.0000000000000000000, 0.0000000000000000000, 1.000000000000000000 ) ) ;
#236 = ORIENTED_EDGE ( 'NONE', *, *, #82, .F. ) ;
#237 = DIRECTION ( 'NONE',  ( 1.000000000000000000, 0.0000000000000000000, 0.0000000000000000000 ) ) ;
#238 = ORIENTED_EDGE ( 'NONE', *, *, #271, .T. ) ;
#239 = LINE ( 'NONE', #6, #198 ) ;
#240 = VECTOR ( 'NONE', #147, 39.37007874015748143 ) ;
#241 =( NAMED_UNIT ( * ) SI_UNIT ( $, .STERADIAN. ) SOLID_ANGLE_UNIT ( ) );
#242 = ORIENTED_EDGE ( 'NONE', *, *, #17, .T. ) ;
#243 = FILL_AREA_STYLE_COLOUR ( '', #131 ) ;
#244 = DIRECTION ( 'NONE',  ( 0.0000000000000000000, 0.0000000000000000000, -1.000000000000000000 ) ) ;
#245 = VERTEX_POINT ( 'NONE', #76 ) ;
#246 = CONICAL_SURFACE ( 'NONE', #213, 0.1724999999999995981, 0.7853981633974357335 ) ;
#247 = SURFACE_STYLE_USAGE ( .BOTH. , #190 ) ;
#248 = SURFACE_STYLE_FILL_AREA ( #106 ) ;
#249 = EDGE_CURVE ( 'NONE', #193, #14, #239, .T. ) ;
#250 = CYLINDRICAL_SURFACE ( 'NONE', #276, 0.1873124999999999929 ) ;
#251 = PRODUCT_CONTEXT ( 'NONE', #149, 'mechanical' ) ;
#252 = DIRECTION ( 'NONE',  ( -1.224646799147353207E-16, -0.0000000000000000000, -1.000000000000000000 ) ) ;
#253 = DIRECTION ( 'NONE',  ( -0.0000000000000000000, -0.0000000000000000000, -1.000000000000000000 ) ) ;
#254 = CIRCLE ( 'NONE', #103, 0.1873125000000000207 ) ;
#255 = ORIENTED_EDGE ( 'NONE', *, *, #153, .F. ) ;
#256 = ORIENTED_EDGE ( 'NONE', *, *, #45, .T. ) ;
#257 = CARTESIAN_POINT ( 'NONE',  ( 0.0000000000000000000, 0.0000000000000000000, 2.500000000000000000 ) ) ;
#258 = EDGE_CURVE ( 'NONE', #4, #245, #98, .T. ) ;
#259 = ORIENTED_EDGE ( 'NONE', *, *, #258, .T. ) ;
#260 = ORIENTED_EDGE ( 'NONE', *, *, #59, .T. ) ;
#261 = ORIENTED_EDGE ( 'NONE', *, *, #89, .T. ) ;
#262 = CARTESIAN_POINT ( 'NONE',  ( -0.1724999999999995981, 0.0000000000000000000, 2.500000000000000000 ) ) ;
#263 = LENGTH_MEASURE_WITH_UNIT ( LENGTH_MEASURE( 0.02539999999999999897 ), #296 );
#264 =( LENGTH_UNIT ( ) NAMED_UNIT ( * ) SI_UNIT ( $, .METRE. ) );
#265 = FACE_OUTER_BOUND ( 'NONE', #120, .T. ) ;
#266 = ORIENTED_EDGE ( 'NONE', *, *, #282, .T. ) ;
#267 =( CONVERSION_BASED_UNIT ( 'INCH', #105 ) LENGTH_UNIT ( ) NAMED_UNIT ( #289 ) );
#268 = COLOUR_RGB ( '',0.7921568627450980005, 0.8196078431372548767, 0.9333333333333333481 ) ;
#269 = DIRECTION ( 'NONE',  ( 1.000000000000000000, 0.0000000000000000000, 0.0000000000000000000 ) ) ;
#270 =( GEOMETRIC_REPRESENTATION_CONTEXT ( 3 ) GLOBAL_UNCERTAINTY_ASSIGNED_CONTEXT ( ( #97 ) ) GLOBAL_UNIT_ASSIGNED_CONTEXT ( ( #15, #288, #220 ) ) REPRESENTATION_CONTEXT ( 'NONE', 'WORKASPACE' ) );
#271 = EDGE_CURVE ( 'NONE', #245, #4, #219, .T. ) ;
#272 = AXIS2_PLACEMENT_3D ( 'NONE', #166, #64, #125 ) ;
#273 = PLANE ( 'NONE',  #32 ) ;
#274 = CARTESIAN_POINT ( 'NONE',  ( 0.1724999999999995981, 2.112515728529179297E-17, 2.500000000000000000 ) ) ;
#275 = AXIS2_PLACEMENT_3D ( 'NONE', #257, #50, #141 ) ;
#276 = AXIS2_PLACEMENT_3D ( 'NONE', #228, #23, #180 ) ;
#277 = VERTEX_POINT ( 'NONE', #290 ) ;
#278 = CARTESIAN_POINT ( 'NONE',  ( 0.0000000000000000000, 0.0000000000000000000, 0.0000000000000000000 ) ) ;
#279 = EDGE_LOOP ( 'NONE', ( #163, #260, #234, #281 ) ) ;
#280 = CYLINDRICAL_SURFACE ( 'NONE', #179, 0.1873124999999999929 ) ;
#281 = ORIENTED_EDGE ( 'NONE', *, *, #71, .F. ) ;
#282 = EDGE_CURVE ( 'NONE', #136, #159, #83, .T. ) ;
#283 = DIRECTION ( 'NONE',  ( -1.000000000000000000, 0.0000000000000000000, 1.224646799147352961E-16 ) ) ;
#284 = SURFACE_STYLE_USAGE ( .BOTH. , #170 ) ;
#285 = AXIS2_PLACEMENT_3D ( 'NONE', #121, #55, #74 ) ;
#286 =( NAMED_UNIT ( * ) PLANE_ANGLE_UNIT ( ) SI_UNIT ( $, .RADIAN. ) );
#287 = ADVANCED_FACE ( 'NONE', ( #218 ), #144, .T. ) ;
#288 =( NAMED_UNIT ( * ) PLANE_ANGLE_UNIT ( ) SI_UNIT ( $, .RADIAN. ) );
#289 = DIMENSIONAL_EXPONENTS ( 1.000000000000000000, 0.0000000000000000000, 0.0000000000000000000, 0.0000000000000000000, 0.0000000000000000000, 0.0000000000000000000, 0.0000000000000000000 ) ;
#290 = CARTESIAN_POINT ( 'NONE',  ( -0.1874999999999999167, 0.0000000000000000000, 0.8760633653411783461 ) ) ;
#291 = AXIS2_PLACEMENT_3D ( 'NONE', #152, #88, #171 ) ;
#292 = PLANE ( 'NONE',  #130 ) ;
#293 = ADVANCED_FACE ( 'NONE', ( #11 ), #58, .T. ) ;
#294 = APPLICATION_PROTOCOL_DEFINITION ( 'draft international standard', 'automotive_design', 1998, #84 ) ;
#295 = CARTESIAN_POINT ( 'NONE',  ( 0.1873125000000001317, 0.0000000000000000000, 0.8750000000000000000 ) ) ;
#296 =( LENGTH_UNIT ( ) NAMED_UNIT ( * ) SI_UNIT ( $, .METRE. ) );
#297 = DIRECTION ( 'NONE',  ( -0.0000000000000000000, -0.0000000000000000000, -1.000000000000000000 ) ) ;
#298 = AXIS2_PLACEMENT_3D ( 'NONE', #215, #188, #91 ) ;
#299 = EDGE_CURVE ( 'NONE', #245, #277, #107, .T. ) ;
ENDSEC;
END-ISO-10303-21;
