ISO-10303-21;
HEADER;
FILE_DESCRIPTION (( 'STEP AP214' ),
    '1' );
FILE_NAME ('Micro_BMRM-030-2X.STEP',
    '2021-09-03T14:38:18',
    ( '' ),
    ( '' ),
    'SwSTEP 2.0',
    'SolidWorks 2020',
    '' );
FILE_SCHEMA (( 'AUTOMOTIVE_DESIGN' ));
ENDSEC;

DATA;
#1 = DIRECTION ( 'NONE',  ( 1.000000000000000000, 0.0000000000000000000, -0.0000000000000000000 ) ) ;
#2 = DIRECTION ( 'NONE',  ( 0.0000000000000000000, 0.0000000000000000000, -1.000000000000000000 ) ) ;
#3 = DIRECTION ( 'NONE',  ( 0.0000000000000000000, -1.000000000000000000, 0.0000000000000000000 ) ) ;
#4 = COLOUR_RGB ( '',0.7921568627450980005, 0.8196078431372548767, 0.9333333333333333481 ) ;
#5 = EDGE_CURVE ( 'NONE', #56, #266, #86, .T. ) ;
#6 = FACE_OUTER_BOUND ( 'NONE', #236, .T. ) ;
#7 = AXIS2_PLACEMENT_3D ( 'NONE', #309, #317, #271 ) ;
#8 = VECTOR ( 'NONE', #76, 39.37007874015748143 ) ;
#9 =( GEOMETRIC_REPRESENTATION_CONTEXT ( 3 ) GLOBAL_UNCERTAINTY_ASSIGNED_CONTEXT ( ( #256 ) ) GLOBAL_UNIT_ASSIGNED_CONTEXT ( ( #142, #275, #117 ) ) REPRESENTATION_CONTEXT ( 'NONE', 'WORKASPACE' ) );
#10 = ORIENTED_EDGE ( 'NONE', *, *, #217, .F. ) ;
#11 = CARTESIAN_POINT ( 'NONE',  ( 0.0000000000000000000, 0.0000000000000000000, 1.968503999999999809 ) ) ;
#12 = ORIENTED_EDGE ( 'NONE', *, *, #244, .T. ) ;
#13 = CARTESIAN_POINT ( 'NONE',  ( 0.05899594500000000796, 7.224919520692329689E-18, -7.224919520692329689E-18 ) ) ;
#14 = AXIS2_PLACEMENT_3D ( 'NONE', #11, #30, #111 ) ;
#15 = ADVANCED_FACE ( 'NONE', ( #6 ), #183, .T. ) ;
#16 = ORIENTED_EDGE ( 'NONE', *, *, #92, .T. ) ;
#17 = CARTESIAN_POINT ( 'NONE',  ( 0.05899594500000004960, 0.0000000000000000000, 0.3543310000000000071 ) ) ;
#18 = DIRECTION ( 'NONE',  ( -1.000000000000000000, 0.0000000000000000000, 0.0000000000000000000 ) ) ;
#19 = AXIS2_PLACEMENT_3D ( 'NONE', #286, #31, #134 ) ;
#20 = VERTEX_POINT ( 'NONE', #255 ) ;
#21 = CARTESIAN_POINT ( 'NONE',  ( 0.0000000000000000000, 0.0000000000000000000, 1.968503999999999809 ) ) ;
#22 = FACE_OUTER_BOUND ( 'NONE', #83, .T. ) ;
#23 = FACE_OUTER_BOUND ( 'NONE', #60, .T. ) ;
#24 = DIRECTION ( 'NONE',  ( 0.0000000000000000000, 0.0000000000000000000, -1.000000000000000000 ) ) ;
#25 = APPLICATION_CONTEXT ( 'automotive_design' ) ;
#26 = EDGE_CURVE ( 'NONE', #148, #188, #276, .T. ) ;
#27 = CIRCLE ( 'NONE', #306, 0.07874000000000000443 ) ;
#28 = CARTESIAN_POINT ( 'NONE',  ( -0.06374000000000018540, 0.0000000000000000000, 1.968503999999999809 ) ) ;
#29 = DIRECTION ( 'NONE',  ( -1.224646799147353207E-16, -0.0000000000000000000, -1.000000000000000000 ) ) ;
#30 = DIRECTION ( 'NONE',  ( 0.0000000000000000000, 0.0000000000000000000, -1.000000000000000000 ) ) ;
#31 = DIRECTION ( 'NONE',  ( -1.224646799147353207E-16, -0.0000000000000000000, -1.000000000000000000 ) ) ;
#32 = CIRCLE ( 'NONE', #70, 0.07874000000000000443 ) ;
#33 = ORIENTED_EDGE ( 'NONE', *, *, #92, .F. ) ;
#34 = CARTESIAN_POINT ( 'NONE',  ( -0.05899594500000000796, 0.0000000000000000000, 7.224919520692329689E-18 ) ) ;
#35 = DIRECTION ( 'NONE',  ( 0.1736481776669313581, 0.0000000000000000000, 0.9848077530122077983 ) ) ;
#36 = LENGTH_MEASURE_WITH_UNIT ( LENGTH_MEASURE( 0.02539999999999999897 ), #165 );
#37 = ADVANCED_FACE ( 'NONE', ( #68 ), #177, .T. ) ;
#38 = ORIENTED_EDGE ( 'NONE', *, *, #5, .F. ) ;
#39 = PRESENTATION_LAYER_ASSIGNMENT (  '', '', ( #189 ) ) ;
#40 = ORIENTED_EDGE ( 'NONE', *, *, #293, .T. ) ;
#41 = DIRECTION ( 'NONE',  ( 1.000000000000000000, 0.0000000000000000000, 0.0000000000000000000 ) ) ;
#42 = CARTESIAN_POINT ( 'NONE',  ( -0.07874000000000000443, 0.0000000000000000000, 1.968503999999999809 ) ) ;
#43 = FACE_OUTER_BOUND ( 'NONE', #291, .T. ) ;
#44 = AXIS2_PLACEMENT_3D ( 'NONE', #178, #152, #66 ) ;
#45 = DIRECTION ( 'NONE',  ( -1.000000000000000000, 0.0000000000000000000, 1.224646799147352961E-16 ) ) ;
#46 = CARTESIAN_POINT ( 'NONE',  ( 4.339303249886808058E-17, 0.0000000000000000000, 0.3543310000000000071 ) ) ;
#47 = DIRECTION ( 'NONE',  ( -1.224646799147353207E-16, -0.0000000000000000000, -1.000000000000000000 ) ) ;
#48 = ADVANCED_FACE ( 'NONE', ( #23 ), #151, .T. ) ;
#49 = CARTESIAN_POINT ( 'NONE',  ( 0.0000000000000000000, 0.0000000000000000000, 1.968503999999999809 ) ) ;
#50 = EDGE_CURVE ( 'NONE', #20, #56, #158, .T. ) ;
#51 = COLOUR_RGB ( '',0.7921568627450980005, 0.8196078431372548767, 0.9333333333333333481 ) ;
#52 = DIRECTION ( 'NONE',  ( 1.000000000000000000, 0.0000000000000000000, 0.0000000000000000000 ) ) ;
#53 = ORIENTED_EDGE ( 'NONE', *, *, #50, .T. ) ;
#54 = LINE ( 'NONE', #13, #78 ) ;
#55 = AXIS2_PLACEMENT_3D ( 'NONE', #125, #47, #277 ) ;
#56 = VERTEX_POINT ( 'NONE', #100 ) ;
#57 = CARTESIAN_POINT ( 'NONE',  ( 0.07874000000000000443, 9.642868896486258509E-18, 1.953504000000000129 ) ) ;
#58 = ORIENTED_EDGE ( 'NONE', *, *, #130, .T. ) ;
#59 = CARTESIAN_POINT ( 'NONE',  ( 5.710590483456409964E-17, 0.0000000000000000000, 0.4663051001670314721 ) ) ;
#60 = EDGE_LOOP ( 'NONE', ( #245, #273 ) ) ;
#61 = DIRECTION ( 'NONE',  ( 1.224646799147353207E-16, 0.0000000000000000000, 1.000000000000000000 ) ) ;
#62 = VECTOR ( 'NONE', #35, 39.37007874015748143 ) ;
#63 = PRODUCT_RELATED_PRODUCT_CATEGORY ( 'part', '', ( #208 ) ) ;
#64 = DIRECTION ( 'NONE',  ( 0.0000000000000000000, 0.0000000000000000000, 1.000000000000000000 ) ) ;
#65 = LENGTH_MEASURE_WITH_UNIT ( LENGTH_MEASURE( 0.02539999999999999897 ), #223 );
#66 = DIRECTION ( 'NONE',  ( -1.000000000000000000, 0.0000000000000000000, 1.224646799147352961E-16 ) ) ;
#67 = FILL_AREA_STYLE_COLOUR ( '', #51 ) ;
#68 = FACE_OUTER_BOUND ( 'NONE', #119, .T. ) ;
#69 = DIRECTION ( 'NONE',  ( 1.000000000000000000, 0.0000000000000000000, 0.0000000000000000000 ) ) ;
#70 = AXIS2_PLACEMENT_3D ( 'NONE', #87, #122, #99 ) ;
#71 = SURFACE_SIDE_STYLE ('',( #90 ) ) ;
#72 = VERTEX_POINT ( 'NONE', #303 ) ;
#73 = EDGE_CURVE ( 'NONE', #224, #148, #74, .T. ) ;
#74 = LINE ( 'NONE', #28, #284 ) ;
#75 =( LENGTH_UNIT ( ) NAMED_UNIT ( * ) SI_UNIT ( $, .METRE. ) );
#76 = DIRECTION ( 'NONE',  ( -0.0000000000000000000, -0.0000000000000000000, -1.000000000000000000 ) ) ;
#77 = FACE_OUTER_BOUND ( 'NONE', #168, .T. ) ;
#78 = VECTOR ( 'NONE', #193, 39.37007874015748143 ) ;
#79 = ADVANCED_BREP_SHAPE_REPRESENTATION ( 'Micro_BMRM-030-2X', ( #147, #260 ), #9 ) ;
#80 = ORIENTED_EDGE ( 'NONE', *, *, #157, .T. ) ;
#81 = DIRECTION ( 'NONE',  ( -1.224646799147353207E-16, -0.0000000000000000000, -1.000000000000000000 ) ) ;
#82 = ADVANCED_FACE ( 'NONE', ( #96 ), #186, .T. ) ;
#83 = EDGE_LOOP ( 'NONE', ( #12, #136, #160, #253 ) ) ;
#84 = DIRECTION ( 'NONE',  ( -0.1736481776669311639, 2.126576849575783008E-17, 0.9848077530122080203 ) ) ;
#85 = CIRCLE ( 'NONE', #120, 0.06374000000000018540 ) ;
#86 = CIRCLE ( 'NONE', #155, 0.05899594500000000796 ) ;
#87 = CARTESIAN_POINT ( 'NONE',  ( 0.0000000000000000000, 0.0000000000000000000, 1.953504000000000129 ) ) ;
#88 = ORIENTED_EDGE ( 'NONE', *, *, #26, .F. ) ;
#89 =( NAMED_UNIT ( * ) SI_UNIT ( $, .STERADIAN. ) SOLID_ANGLE_UNIT ( ) );
#90 = SURFACE_STYLE_FILL_AREA ( #278 ) ;
#91 = EDGE_LOOP ( 'NONE', ( #129, #242, #289, #93 ) ) ;
#92 = EDGE_CURVE ( 'NONE', #20, #266, #133, .T. ) ;
#93 = ORIENTED_EDGE ( 'NONE', *, *, #201, .T. ) ;
#94 = MECHANICAL_DESIGN_GEOMETRIC_PRESENTATION_REPRESENTATION (  '', ( #189 ), #272 ) ;
#95 = ORIENTED_EDGE ( 'NONE', *, *, #230, .F. ) ;
#96 = FACE_OUTER_BOUND ( 'NONE', #164, .T. ) ;
#97 = SURFACE_STYLE_USAGE ( .BOTH. , #71 ) ;
#98 = CARTESIAN_POINT ( 'NONE',  ( 7.224919520692329689E-18, 0.0000000000000000000, 0.05899594499999999409 ) ) ;
#99 = DIRECTION ( 'NONE',  ( 1.000000000000000000, 0.0000000000000000000, 0.0000000000000000000 ) ) ;
#100 = CARTESIAN_POINT ( 'NONE',  ( 0.05899594500000001490, 7.224919520692329689E-18, 0.05899594499999998715 ) ) ;
#101 = CYLINDRICAL_SURFACE ( 'NONE', #44, 0.05899594500000000796 ) ;
#102 = EDGE_CURVE ( 'NONE', #311, #200, #135, .T. ) ;
#103 = DIRECTION ( 'NONE',  ( 1.000000000000000000, 0.0000000000000000000, 0.0000000000000000000 ) ) ;
#104 = ADVANCED_FACE ( 'NONE', ( #319 ), #259, .T. ) ;
#105 = AXIS2_PLACEMENT_3D ( 'NONE', #46, #61, #228 ) ;
#106 = CARTESIAN_POINT ( 'NONE',  ( 0.07874000000000004607, 9.642868896486264672E-18, 0.4663051001670314721 ) ) ;
#107 = SURFACE_STYLE_FILL_AREA ( #169 ) ;
#108 = EDGE_CURVE ( 'NONE', #148, #214, #32, .T. ) ;
#109 = ORIENTED_EDGE ( 'NONE', *, *, #310, .F. ) ;
#110 = LINE ( 'NONE', #312, #126 ) ;
#111 = DIRECTION ( 'NONE',  ( -1.000000000000000000, 0.0000000000000000000, 0.0000000000000000000 ) ) ;
#112 = EDGE_LOOP ( 'NONE', ( #322, #95, #315, #109 ) ) ;
#113 = SURFACE_SIDE_STYLE ('',( #107 ) ) ;
#114 = ADVANCED_FACE ( 'NONE', ( #77 ), #238, .T. ) ;
#115 = APPLICATION_PROTOCOL_DEFINITION ( 'draft international standard', 'automotive_design', 1998, #274 ) ;
#116 = VERTEX_POINT ( 'NONE', #162 ) ;
#117 =( NAMED_UNIT ( * ) SI_UNIT ( $, .STERADIAN. ) SOLID_ANGLE_UNIT ( ) );
#118 = ORIENTED_EDGE ( 'NONE', *, *, #217, .T. ) ;
#119 = EDGE_LOOP ( 'NONE', ( #143, #320, #202, #40 ) ) ;
#120 = AXIS2_PLACEMENT_3D ( 'NONE', #215, #264, #167 ) ;
#121 = CIRCLE ( 'NONE', #159, 0.07874000000000000443 ) ;
#122 = DIRECTION ( 'NONE',  ( 0.0000000000000000000, 0.0000000000000000000, -1.000000000000000000 ) ) ;
#123 = DIRECTION ( 'NONE',  ( 0.0000000000000000000, 0.0000000000000000000, 1.000000000000000000 ) ) ;
#124 = CARTESIAN_POINT ( 'NONE',  ( 7.224919520692329689E-18, 0.0000000000000000000, 0.05899594499999999409 ) ) ;
#125 = CARTESIAN_POINT ( 'NONE',  ( 4.339303249886808058E-17, 0.0000000000000000000, 0.3543310000000000071 ) ) ;
#126 = VECTOR ( 'NONE', #84, 39.37007874015747433 ) ;
#127 = ORIENTED_EDGE ( 'NONE', *, *, #50, .F. ) ;
#128 = CIRCLE ( 'NONE', #314, 0.05899594500000000796 ) ;
#129 = ORIENTED_EDGE ( 'NONE', *, *, #157, .F. ) ;
#130 = EDGE_CURVE ( 'NONE', #72, #214, #248, .T. ) ;
#131 = CARTESIAN_POINT ( 'NONE',  ( 5.710590483456409964E-17, 0.0000000000000000000, 0.4663051001670314721 ) ) ;
#132 = VECTOR ( 'NONE', #29, 39.37007874015748143 ) ;
#133 = CIRCLE ( 'NONE', #262, 0.05899594499999999409 ) ;
#134 = DIRECTION ( 'NONE',  ( -1.000000000000000000, 0.0000000000000000000, 0.0000000000000000000 ) ) ;
#135 = LINE ( 'NONE', #192, #62 ) ;
#136 = ORIENTED_EDGE ( 'NONE', *, *, #211, .T. ) ;
#137 = FACE_OUTER_BOUND ( 'NONE', #91, .T. ) ;
#138 = DIRECTION ( 'NONE',  ( 1.224646799147353207E-16, 1.000000000000000000, -0.0000000000000000000 ) ) ;
#139 =( NAMED_UNIT ( * ) PLANE_ANGLE_UNIT ( ) SI_UNIT ( $, .RADIAN. ) );
#140 =( CONVERSION_BASED_UNIT ( 'INCH', #36 ) LENGTH_UNIT ( ) NAMED_UNIT ( #226 ) );
#141 = AXIS2_PLACEMENT_3D ( 'NONE', #213, #145, #196 ) ;
#142 =( CONVERSION_BASED_UNIT ( 'INCH', #305 ) LENGTH_UNIT ( ) NAMED_UNIT ( #173 ) );
#143 = ORIENTED_EDGE ( 'NONE', *, *, #211, .F. ) ;
#144 = CARTESIAN_POINT ( 'NONE',  ( 7.224919520692329689E-18, 0.0000000000000000000, 0.05899594499999999409 ) ) ;
#145 = DIRECTION ( 'NONE',  ( 0.0000000000000000000, 0.0000000000000000000, -1.000000000000000000 ) ) ;
#146 = ORIENTED_EDGE ( 'NONE', *, *, #26, .T. ) ;
#147 = MANIFOLD_SOLID_BREP ( 'Fillet1', #240 ) ;
#148 = VERTEX_POINT ( 'NONE', #220 ) ;
#149 = AXIS2_PLACEMENT_3D ( 'NONE', #241, #290, #219 ) ;
#150 = PRESENTATION_STYLE_ASSIGNMENT (( #97 ) ) ;
#151 = PLANE ( 'NONE',  #172 ) ;
#152 = DIRECTION ( 'NONE',  ( -1.224646799147353207E-16, -0.0000000000000000000, -1.000000000000000000 ) ) ;
#153 = DIRECTION ( 'NONE',  ( 1.224646799147353207E-16, 0.0000000000000000000, 1.000000000000000000 ) ) ;
#154 = EDGE_CURVE ( 'NONE', #116, #266, #268, .T. ) ;
#155 = AXIS2_PLACEMENT_3D ( 'NONE', #304, #153, #231 ) ;
#156 = ORIENTED_EDGE ( 'NONE', *, *, #201, .F. ) ;
#157 = EDGE_CURVE ( 'NONE', #116, #188, #110, .T. ) ;
#158 = CIRCLE ( 'NONE', #180, 0.05899594499999999409 ) ;
#159 = AXIS2_PLACEMENT_3D ( 'NONE', #251, #2, #41 ) ;
#160 = ORIENTED_EDGE ( 'NONE', *, *, #5, .T. ) ;
#161 = DIRECTION ( 'NONE',  ( -0.0000000000000000000, -0.0000000000000000000, -1.000000000000000000 ) ) ;
#162 = CARTESIAN_POINT ( 'NONE',  ( -0.05899594499999995939, 8.433894208589294869E-18, 0.3543310000000000071 ) ) ;
#163 = CIRCLE ( 'NONE', #19, 0.05899594500000000796 ) ;
#164 = EDGE_LOOP ( 'NONE', ( #127, #16, #38 ) ) ;
#165 =( LENGTH_UNIT ( ) NAMED_UNIT ( * ) SI_UNIT ( $, .METRE. ) );
#166 = DIRECTION ( 'NONE',  ( -1.000000000000000000, 1.224646799147353454E-16, 0.0000000000000000000 ) ) ;
#167 = DIRECTION ( 'NONE',  ( 1.000000000000000000, 0.0000000000000000000, 0.0000000000000000000 ) ) ;
#168 = EDGE_LOOP ( 'NONE', ( #171, #58, #198, #308 ) ) ;
#169 = FILL_AREA_STYLE ('',( #292 ) ) ;
#170 = ADVANCED_FACE ( 'NONE', ( #137 ), #225, .T. ) ;
#171 = ORIENTED_EDGE ( 'NONE', *, *, #287, .F. ) ;
#172 = AXIS2_PLACEMENT_3D ( 'NONE', #21, #123, #1 ) ;
#173 = DIMENSIONAL_EXPONENTS ( 1.000000000000000000, 0.0000000000000000000, 0.0000000000000000000, 0.0000000000000000000, 0.0000000000000000000, 0.0000000000000000000, 0.0000000000000000000 ) ;
#174 = DIRECTION ( 'NONE',  ( 0.0000000000000000000, 0.0000000000000000000, 1.000000000000000000 ) ) ;
#175 = DIRECTION ( 'NONE',  ( -0.0000000000000000000, -0.0000000000000000000, -1.000000000000000000 ) ) ;
#176 = CARTESIAN_POINT ( 'NONE',  ( 0.0000000000000000000, 0.0000000000000000000, 1.968503999999999809 ) ) ;
#177 = CYLINDRICAL_SURFACE ( 'NONE', #212, 0.05899594500000000796 ) ;
#178 = CARTESIAN_POINT ( 'NONE',  ( 0.0000000000000000000, 0.0000000000000000000, 0.0000000000000000000 ) ) ;
#179 = PRODUCT_DEFINITION_CONTEXT ( 'detailed design', #25, 'design' ) ;
#180 = AXIS2_PLACEMENT_3D ( 'NONE', #98, #3, #24 ) ;
#181 = DIMENSIONAL_EXPONENTS ( 1.000000000000000000, 0.0000000000000000000, 0.0000000000000000000, 0.0000000000000000000, 0.0000000000000000000, 0.0000000000000000000, 0.0000000000000000000 ) ;
#182 =( NAMED_UNIT ( * ) SI_UNIT ( $, .STERADIAN. ) SOLID_ANGLE_UNIT ( ) );
#183 = CYLINDRICAL_SURFACE ( 'NONE', #246, 0.07874000000000000443 ) ;
#184 = CARTESIAN_POINT ( 'NONE',  ( 0.0000000000000000000, 0.0000000000000000000, 1.968503999999999809 ) ) ;
#185 = CARTESIAN_POINT ( 'NONE',  ( 0.0000000000000000000, 0.0000000000000000000, 0.0000000000000000000 ) ) ;
#186 = SPHERICAL_SURFACE ( 'NONE', #7, 0.05899594499999999409 ) ;
#187 =( GEOMETRIC_REPRESENTATION_CONTEXT ( 3 ) GLOBAL_UNCERTAINTY_ASSIGNED_CONTEXT ( ( #254 ) ) GLOBAL_UNIT_ASSIGNED_CONTEXT ( ( #252, #295, #182 ) ) REPRESENTATION_CONTEXT ( 'NONE', 'WORKASPACE' ) );
#188 = VERTEX_POINT ( 'NONE', #199 ) ;
#189 = STYLED_ITEM ( 'NONE', ( #216 ), #147 ) ;
#190 = PRODUCT_DEFINITION ( 'UNKNOWN', '', #239, #179 ) ;
#191 = DIRECTION ( 'NONE',  ( 1.000000000000000000, 0.0000000000000000000, 0.0000000000000000000 ) ) ;
#192 = CARTESIAN_POINT ( 'NONE',  ( 0.05899594500000004960, 0.0000000000000000000, 0.3543310000000000071 ) ) ;
#193 = DIRECTION ( 'NONE',  ( -1.224646799147353207E-16, -0.0000000000000000000, -1.000000000000000000 ) ) ;
#194 = AXIS2_PLACEMENT_3D ( 'NONE', #144, #204, #69 ) ;
#195 = ORIENTED_EDGE ( 'NONE', *, *, #108, .T. ) ;
#196 = DIRECTION ( 'NONE',  ( -1.000000000000000000, 0.0000000000000000000, 0.0000000000000000000 ) ) ;
#197 = DIRECTION ( 'NONE',  ( 0.7071067811865502373, 8.659560562354966138E-17, -0.7071067811865446862 ) ) ;
#198 = ORIENTED_EDGE ( 'NONE', *, *, #108, .F. ) ;
#199 = CARTESIAN_POINT ( 'NONE',  ( -0.07873999999999994892, 0.0000000000000000000, 0.4663051001670314721 ) ) ;
#200 = VERTEX_POINT ( 'NONE', #106 ) ;
#201 = EDGE_CURVE ( 'NONE', #200, #188, #297, .T. ) ;
#202 = ORIENTED_EDGE ( 'NONE', *, *, #154, .T. ) ;
#203 = DIRECTION ( 'NONE',  ( 1.224646799147353207E-16, 0.0000000000000000000, 1.000000000000000000 ) ) ;
#204 = DIRECTION ( 'NONE',  ( 0.0000000000000000000, 1.000000000000000000, 0.0000000000000000000 ) ) ;
#205 = PRESENTATION_LAYER_ASSIGNMENT (  '', '', ( #307 ) ) ;
#206 = DIRECTION ( 'NONE',  ( -1.000000000000000000, 0.0000000000000000000, 0.0000000000000000000 ) ) ;
#207 = APPLICATION_PROTOCOL_DEFINITION ( 'draft international standard', 'automotive_design', 1998, #25 ) ;
#208 = PRODUCT ( 'Micro_BMRM-030-2X', 'Micro_BMRM-030-2X', '', ( #261 ) ) ;
#209 = CIRCLE ( 'NONE', #55, 0.05899594500000000796 ) ;
#210 = SHAPE_DEFINITION_REPRESENTATION ( #294, #79 ) ;
#211 = EDGE_CURVE ( 'NONE', #311, #56, #54, .T. ) ;
#212 = AXIS2_PLACEMENT_3D ( 'NONE', #185, #279, #45 ) ;
#213 = CARTESIAN_POINT ( 'NONE',  ( 0.0000000000000000000, 0.0000000000000000000, 1.968503999999999809 ) ) ;
#214 = VERTEX_POINT ( 'NONE', #57 ) ;
#215 = CARTESIAN_POINT ( 'NONE',  ( 0.0000000000000000000, 0.0000000000000000000, 1.968503999999999809 ) ) ;
#216 = PRESENTATION_STYLE_ASSIGNMENT (( #270 ) ) ;
#217 = EDGE_CURVE ( 'NONE', #214, #200, #243, .T. ) ;
#218 = ORIENTED_EDGE ( 'NONE', *, *, #102, .F. ) ;
#219 = DIRECTION ( 'NONE',  ( 1.000000000000000000, 0.0000000000000000000, 0.0000000000000000000 ) ) ;
#220 = CARTESIAN_POINT ( 'NONE',  ( -0.07874000000000000443, 0.0000000000000000000, 1.953504000000000129 ) ) ;
#221 = EDGE_LOOP ( 'NONE', ( #250, #80, #234, #218 ) ) ;
#222 = DIRECTION ( 'NONE',  ( 1.000000000000000000, 0.0000000000000000000, 0.0000000000000000000 ) ) ;
#223 =( LENGTH_UNIT ( ) NAMED_UNIT ( * ) SI_UNIT ( $, .METRE. ) );
#224 = VERTEX_POINT ( 'NONE', #269 ) ;
#225 = CONICAL_SURFACE ( 'NONE', #149, 0.05899594500000000796, 0.1745329251994338637 ) ;
#226 = DIMENSIONAL_EXPONENTS ( 1.000000000000000000, 0.0000000000000000000, 0.0000000000000000000, 0.0000000000000000000, 0.0000000000000000000, 0.0000000000000000000, 0.0000000000000000000 ) ;
#227 = CARTESIAN_POINT ( 'NONE',  ( -0.05899594499999999409, 0.0000000000000000000, 0.05899594500000000796 ) ) ;
#228 = DIRECTION ( 'NONE',  ( 1.000000000000000000, 0.0000000000000000000, 0.0000000000000000000 ) ) ;
#229 = CARTESIAN_POINT ( 'NONE',  ( 7.224919520692329689E-18, 0.0000000000000000000, 0.05899594499999999409 ) ) ;
#230 = EDGE_CURVE ( 'NONE', #224, #72, #85, .T. ) ;
#231 = DIRECTION ( 'NONE',  ( -1.000000000000000000, 0.0000000000000000000, 1.447052840699614406E-16 ) ) ;
#232 = FACE_OUTER_BOUND ( 'NONE', #221, .T. ) ;
#233 = ORIENTED_EDGE ( 'NONE', *, *, #293, .F. ) ;
#234 = ORIENTED_EDGE ( 'NONE', *, *, #237, .T. ) ;
#235 = CIRCLE ( 'NONE', #280, 0.06374000000000018540 ) ;
#236 = EDGE_LOOP ( 'NONE', ( #10, #296, #146, #156 ) ) ;
#237 = EDGE_CURVE ( 'NONE', #188, #200, #27, .T. ) ;
#238 = CONICAL_SURFACE ( 'NONE', #141, 0.06374000000000018540, 0.7853981633974522758 ) ;
#239 = PRODUCT_DEFINITION_FORMATION_WITH_SPECIFIED_SOURCE ( 'ANY', '', #208, .NOT_KNOWN. ) ;
#240 = CLOSED_SHELL ( 'NONE', ( #82, #263, #299, #114, #257, #15, #48, #104, #170, #37, #267 ) ) ;
#241 = CARTESIAN_POINT ( 'NONE',  ( 4.339303249886808058E-17, 0.0000000000000000000, 0.3543310000000000071 ) ) ;
#242 = ORIENTED_EDGE ( 'NONE', *, *, #249, .F. ) ;
#243 = LINE ( 'NONE', #316, #265 ) ;
#244 = EDGE_CURVE ( 'NONE', #116, #311, #163, .T. ) ;
#245 = ORIENTED_EDGE ( 'NONE', *, *, #230, .T. ) ;
#246 = AXIS2_PLACEMENT_3D ( 'NONE', #49, #175, #206 ) ;
#247 = MECHANICAL_DESIGN_GEOMETRIC_PRESENTATION_REPRESENTATION (  '', ( #307 ), #187 ) ;
#248 = LINE ( 'NONE', #318, #301 ) ;
#249 = EDGE_CURVE ( 'NONE', #311, #116, #209, .T. ) ;
#250 = ORIENTED_EDGE ( 'NONE', *, *, #244, .F. ) ;
#251 = CARTESIAN_POINT ( 'NONE',  ( 0.0000000000000000000, 0.0000000000000000000, 1.953504000000000129 ) ) ;
#252 =( CONVERSION_BASED_UNIT ( 'INCH', #65 ) LENGTH_UNIT ( ) NAMED_UNIT ( #181 ) );
#253 = ORIENTED_EDGE ( 'NONE', *, *, #154, .F. ) ;
#254 = UNCERTAINTY_MEASURE_WITH_UNIT (LENGTH_MEASURE( 1.000000000000000082E-05 ), #252, 'distance_accuracy_value', 'NONE');
#255 = CARTESIAN_POINT ( 'NONE',  ( 1.083737928103849376E-17, 0.0000000000000000000, 0.0000000000000000000 ) ) ;
#256 = UNCERTAINTY_MEASURE_WITH_UNIT (LENGTH_MEASURE( 1.000000000000000082E-05 ), #142, 'distance_accuracy_value', 'NONE');
#257 = ADVANCED_FACE ( 'NONE', ( #43 ), #302, .T. ) ;
#258 = EDGE_LOOP ( 'NONE', ( #33, #53, #233 ) ) ;
#259 = CONICAL_SURFACE ( 'NONE', #14, 0.06374000000000018540, 0.7853981633974522758 ) ;
#260 = AXIS2_PLACEMENT_3D ( 'NONE', #298, #174, #103 ) ;
#261 = PRODUCT_CONTEXT ( 'NONE', #274, 'mechanical' ) ;
#262 = AXIS2_PLACEMENT_3D ( 'NONE', #229, #138, #166 ) ;
#263 = ADVANCED_FACE ( 'NONE', ( #22 ), #101, .T. ) ;
#264 = DIRECTION ( 'NONE',  ( 0.0000000000000000000, 0.0000000000000000000, 1.000000000000000000 ) ) ;
#265 = VECTOR ( 'NONE', #161, 39.37007874015748143 ) ;
#266 = VERTEX_POINT ( 'NONE', #227 ) ;
#267 = ADVANCED_FACE ( 'NONE', ( #325 ), #324, .T. ) ;
#268 = LINE ( 'NONE', #34, #132 ) ;
#269 = CARTESIAN_POINT ( 'NONE',  ( -0.06374000000000018540, 0.0000000000000000000, 1.968503999999999809 ) ) ;
#270 = SURFACE_STYLE_USAGE ( .BOTH. , #113 ) ;
#271 = DIRECTION ( 'NONE',  ( 1.000000000000000000, 0.0000000000000000000, 0.0000000000000000000 ) ) ;
#272 =( GEOMETRIC_REPRESENTATION_CONTEXT ( 3 ) GLOBAL_UNCERTAINTY_ASSIGNED_CONTEXT ( ( #300 ) ) GLOBAL_UNIT_ASSIGNED_CONTEXT ( ( #140, #139, #89 ) ) REPRESENTATION_CONTEXT ( 'NONE', 'WORKASPACE' ) );
#273 = ORIENTED_EDGE ( 'NONE', *, *, #287, .T. ) ;
#274 = APPLICATION_CONTEXT ( 'automotive_design' ) ;
#275 =( NAMED_UNIT ( * ) PLANE_ANGLE_UNIT ( ) SI_UNIT ( $, .RADIAN. ) );
#276 = LINE ( 'NONE', #42, #8 ) ;
#277 = DIRECTION ( 'NONE',  ( -1.000000000000000000, 0.0000000000000000000, 0.0000000000000000000 ) ) ;
#278 = FILL_AREA_STYLE ('',( #67 ) ) ;
#279 = DIRECTION ( 'NONE',  ( -1.224646799147353207E-16, -0.0000000000000000000, -1.000000000000000000 ) ) ;
#280 = AXIS2_PLACEMENT_3D ( 'NONE', #176, #64, #222 ) ;
#281 = DIRECTION ( 'NONE',  ( -1.000000000000000000, 0.0000000000000000000, 1.447052840699614406E-16 ) ) ;
#282 = ORIENTED_EDGE ( 'NONE', *, *, #237, .F. ) ;
#283 = DIRECTION ( 'NONE',  ( -0.0000000000000000000, -0.0000000000000000000, -1.000000000000000000 ) ) ;
#284 = VECTOR ( 'NONE', #285, 39.37007874015748854 ) ;
#285 = DIRECTION ( 'NONE',  ( -0.7071067811865502373, 0.0000000000000000000, -0.7071067811865446862 ) ) ;
#286 = CARTESIAN_POINT ( 'NONE',  ( 4.339303249886808058E-17, 0.0000000000000000000, 0.3543310000000000071 ) ) ;
#287 = EDGE_CURVE ( 'NONE', #72, #224, #235, .T. ) ;
#288 = AXIS2_PLACEMENT_3D ( 'NONE', #184, #283, #18 ) ;
#289 = ORIENTED_EDGE ( 'NONE', *, *, #102, .T. ) ;
#290 = DIRECTION ( 'NONE',  ( 1.224646799147353207E-16, 0.0000000000000000000, 1.000000000000000000 ) ) ;
#291 = EDGE_LOOP ( 'NONE', ( #195, #118, #282, #88 ) ) ;
#292 = FILL_AREA_STYLE_COLOUR ( '', #4 ) ;
#293 = EDGE_CURVE ( 'NONE', #266, #56, #128, .T. ) ;
#294 = PRODUCT_DEFINITION_SHAPE ( 'NONE', 'NONE',  #190 ) ;
#295 =( NAMED_UNIT ( * ) PLANE_ANGLE_UNIT ( ) SI_UNIT ( $, .RADIAN. ) );
#296 = ORIENTED_EDGE ( 'NONE', *, *, #310, .T. ) ;
#297 = CIRCLE ( 'NONE', #321, 0.07874000000000000443 ) ;
#298 = CARTESIAN_POINT ( 'NONE',  ( 0.0000000000000000000, 0.0000000000000000000, 0.0000000000000000000 ) ) ;
#299 = ADVANCED_FACE ( 'NONE', ( #232 ), #323, .T. ) ;
#300 = UNCERTAINTY_MEASURE_WITH_UNIT (LENGTH_MEASURE( 1.000000000000000082E-05 ), #140, 'distance_accuracy_value', 'NONE');
#301 = VECTOR ( 'NONE', #197, 39.37007874015748854 ) ;
#302 = CYLINDRICAL_SURFACE ( 'NONE', #288, 0.07874000000000000443 ) ;
#303 = CARTESIAN_POINT ( 'NONE',  ( 0.06374000000000018540, 8.724383797125754882E-18, 1.968503999999999809 ) ) ;
#304 = CARTESIAN_POINT ( 'NONE',  ( 7.224919520692329689E-18, 0.0000000000000000000, 0.05899594499999999409 ) ) ;
#305 = LENGTH_MEASURE_WITH_UNIT ( LENGTH_MEASURE( 0.02539999999999999897 ), #75 );
#306 = AXIS2_PLACEMENT_3D ( 'NONE', #131, #81, #191 ) ;
#307 = STYLED_ITEM ( 'NONE', ( #150 ), #79 ) ;
#308 = ORIENTED_EDGE ( 'NONE', *, *, #73, .F. ) ;
#309 = CARTESIAN_POINT ( 'NONE',  ( 7.224919520692329689E-18, 0.0000000000000000000, 0.05899594499999999409 ) ) ;
#310 = EDGE_CURVE ( 'NONE', #214, #148, #121, .T. ) ;
#311 = VERTEX_POINT ( 'NONE', #17 ) ;
#312 = CARTESIAN_POINT ( 'NONE',  ( -0.05899594499999995939, 7.224919520692329689E-18, 0.3543310000000000071 ) ) ;
#313 = DIRECTION ( 'NONE',  ( -1.224646799147353207E-16, -0.0000000000000000000, -1.000000000000000000 ) ) ;
#314 = AXIS2_PLACEMENT_3D ( 'NONE', #124, #203, #281 ) ;
#315 = ORIENTED_EDGE ( 'NONE', *, *, #73, .T. ) ;
#316 = CARTESIAN_POINT ( 'NONE',  ( 0.07874000000000000443, 9.642868896486258509E-18, 1.968503999999999809 ) ) ;
#317 = DIRECTION ( 'NONE',  ( 0.0000000000000000000, 1.000000000000000000, 0.0000000000000000000 ) ) ;
#318 = CARTESIAN_POINT ( 'NONE',  ( 0.06374000000000018540, 7.805898697765251255E-18, 1.968503999999999809 ) ) ;
#319 = FACE_OUTER_BOUND ( 'NONE', #112, .T. ) ;
#320 = ORIENTED_EDGE ( 'NONE', *, *, #249, .T. ) ;
#321 = AXIS2_PLACEMENT_3D ( 'NONE', #59, #313, #52 ) ;
#322 = ORIENTED_EDGE ( 'NONE', *, *, #130, .F. ) ;
#323 = CONICAL_SURFACE ( 'NONE', #105, 0.05899594500000000796, 0.1745329251994338637 ) ;
#324 = SPHERICAL_SURFACE ( 'NONE', #194, 0.05899594499999999409 ) ;
#325 = FACE_OUTER_BOUND ( 'NONE', #258, .T. ) ;
ENDSEC;
END-ISO-10303-21;
