ISO-10303-21;
HEADER;
FILE_DESCRIPTION (( 'STEP AP214' ),
    '1' );
FILE_NAME ('Micro_RSC-125-2X.STEP',
    '2021-09-03T17:44:50',
    ( '' ),
    ( '' ),
    'SwSTEP 2.0',
    'SolidWorks 2020',
    '' );
FILE_SCHEMA (( 'AUTOMOTIVE_DESIGN' ));
ENDSEC;

DATA;
#1 = FILL_AREA_STYLE ('',( #185 ) ) ;
#2 = DIRECTION ( 'NONE',  ( -1.000000000000000000, 0.0000000000000000000, 0.0000000000000000000 ) ) ;
#3 = AXIS2_PLACEMENT_3D ( 'NONE', #237, #46, #91 ) ;
#4 = MECHANICAL_DESIGN_GEOMETRIC_PRESENTATION_REPRESENTATION (  '', ( #219 ), #64 ) ;
#5 = ORIENTED_EDGE ( 'NONE', *, *, #21, .F. ) ;
#6 = DIRECTION ( 'NONE',  ( -1.000000000000000000, 0.0000000000000000000, 0.0000000000000000000 ) ) ;
#7 = DIRECTION ( 'NONE',  ( -0.0000000000000000000, -0.0000000000000000000, -1.000000000000000000 ) ) ;
#8 = CIRCLE ( 'NONE', #234, 0.003999999999999999216 ) ;
#9 = ORIENTED_EDGE ( 'NONE', *, *, #115, .T. ) ;
#10 = MANIFOLD_SOLID_BREP ( 'Mirror1', #167 ) ;
#11 = DIRECTION ( 'NONE',  ( 0.5000000000000009992, 0.0000000000000000000, -0.8660254037844380415 ) ) ;
#12 = DIRECTION ( 'NONE',  ( 1.000000000000000000, 0.0000000000000000000, 0.0000000000000000000 ) ) ;
#13 = CARTESIAN_POINT ( 'NONE',  ( 0.0000000000000000000, 0.0000000000000000000, 1.898675027757220857 ) ) ;
#14 = EDGE_LOOP ( 'NONE', ( #5, #49, #221, #94 ) ) ;
#15 =( CONVERSION_BASED_UNIT ( 'INCH', #224 ) LENGTH_UNIT ( ) NAMED_UNIT ( #245 ) );
#16 = DIMENSIONAL_EXPONENTS ( 1.000000000000000000, 0.0000000000000000000, 0.0000000000000000000, 0.0000000000000000000, 0.0000000000000000000, 0.0000000000000000000, 0.0000000000000000000 ) ;
#17 = EDGE_LOOP ( 'NONE', ( #171, #136, #110, #30 ) ) ;
#18 = SURFACE_STYLE_FILL_AREA ( #1 ) ;
#19 = AXIS2_PLACEMENT_3D ( 'NONE', #32, #25, #6 ) ;
#20 = DIMENSIONAL_EXPONENTS ( 1.000000000000000000, 0.0000000000000000000, 0.0000000000000000000, 0.0000000000000000000, 0.0000000000000000000, 0.0000000000000000000, 0.0000000000000000000 ) ;
#21 = EDGE_CURVE ( 'NONE', #193, #218, #69, .T. ) ;
#22 = ORIENTED_EDGE ( 'NONE', *, *, #66, .F. ) ;
#23 = PRESENTATION_LAYER_ASSIGNMENT (  '', '', ( #219 ) ) ;
#24 = AXIS2_PLACEMENT_3D ( 'NONE', #209, #153, #139 ) ;
#25 = DIRECTION ( 'NONE',  ( -0.0000000000000000000, -0.0000000000000000000, -1.000000000000000000 ) ) ;
#26 = CARTESIAN_POINT ( 'NONE',  ( 0.0000000000000000000, 0.0000000000000000000, 0.0000000000000000000 ) ) ;
#27 = VERTEX_POINT ( 'NONE', #162 ) ;
#28 = CARTESIAN_POINT ( 'NONE',  ( 0.0000000000000000000, 0.0000000000000000000, 2.000000000000000000 ) ) ;
#29 = PRESENTATION_LAYER_ASSIGNMENT (  '', '', ( #85 ) ) ;
#30 = ORIENTED_EDGE ( 'NONE', *, *, #37, .F. ) ;
#31 = DIRECTION ( 'NONE',  ( 0.0000000000000000000, 0.0000000000000000000, 1.000000000000000000 ) ) ;
#32 = CARTESIAN_POINT ( 'NONE',  ( 0.0000000000000000000, 0.0000000000000000000, 0.1013249722427790322 ) ) ;
#33 = ORIENTED_EDGE ( 'NONE', *, *, #243, .T. ) ;
#34 = CARTESIAN_POINT ( 'NONE',  ( -0.003999999999999999216, 4.898587196589411612E-19, 0.0000000000000000000 ) ) ;
#35 =( CONVERSION_BASED_UNIT ( 'INCH', #55 ) LENGTH_UNIT ( ) NAMED_UNIT ( #20 ) );
#36 = AXIS2_PLACEMENT_3D ( 'NONE', #108, #176, #12 ) ;
#37 = EDGE_CURVE ( 'NONE', #195, #193, #166, .T. ) ;
#38 = DIRECTION ( 'NONE',  ( -0.0000000000000000000, -0.0000000000000000000, -1.000000000000000000 ) ) ;
#39 = FILL_AREA_STYLE ('',( #56 ) ) ;
#40 = CARTESIAN_POINT ( 'NONE',  ( -0.06249999999999997918, 0.0000000000000000000, 1.898675027757220857 ) ) ;
#41 = CARTESIAN_POINT ( 'NONE',  ( 0.0000000000000000000, 0.0000000000000000000, 2.000000000000000000 ) ) ;
#42 = MECHANICAL_DESIGN_GEOMETRIC_PRESENTATION_REPRESENTATION (  '', ( #85 ), #120 ) ;
#43 = ORIENTED_EDGE ( 'NONE', *, *, #123, .F. ) ;
#44 = COLOUR_RGB ( '',0.7921568627450980005, 0.8196078431372548767, 0.9333333333333333481 ) ;
#45 = EDGE_CURVE ( 'NONE', #103, #193, #214, .T. ) ;
#46 = DIRECTION ( 'NONE',  ( 0.0000000000000000000, 0.0000000000000000000, -1.000000000000000000 ) ) ;
#47 = EDGE_LOOP ( 'NONE', ( #74, #70, #22, #232 ) ) ;
#48 = CYLINDRICAL_SURFACE ( 'NONE', #101, 0.06249999999999997918 ) ;
#49 = ORIENTED_EDGE ( 'NONE', *, *, #159, .T. ) ;
#50 = LINE ( 'NONE', #51, #190 ) ;
#51 = CARTESIAN_POINT ( 'NONE',  ( 0.003999999999999999216, 0.0000000000000000000, 0.0000000000000000000 ) ) ;
#52 = CIRCLE ( 'NONE', #78, 0.06249999999999997918 ) ;
#53 = ORIENTED_EDGE ( 'NONE', *, *, #66, .T. ) ;
#54 = FACE_OUTER_BOUND ( 'NONE', #68, .T. ) ;
#55 = LENGTH_MEASURE_WITH_UNIT ( LENGTH_MEASURE( 0.02539999999999999897 ), #146 );
#56 = FILL_AREA_STYLE_COLOUR ( '', #226 ) ;
#57 = PLANE ( 'NONE',  #127 ) ;
#58 = CARTESIAN_POINT ( 'NONE',  ( 0.06249999999999997918, 7.654042494670956004E-18, 1.898675027757220857 ) ) ;
#59 = LENGTH_MEASURE_WITH_UNIT ( LENGTH_MEASURE( 0.02539999999999999897 ), #187 );
#60 = CIRCLE ( 'NONE', #61, 0.003999999999999999216 ) ;
#61 = AXIS2_PLACEMENT_3D ( 'NONE', #26, #7, #88 ) ;
#62 = UNCERTAINTY_MEASURE_WITH_UNIT (LENGTH_MEASURE( 1.000000000000000082E-05 ), #35, 'distance_accuracy_value', 'NONE');
#63 = VERTEX_POINT ( 'NONE', #160 ) ;
#64 =( GEOMETRIC_REPRESENTATION_CONTEXT ( 3 ) GLOBAL_UNCERTAINTY_ASSIGNED_CONTEXT ( ( #62 ) ) GLOBAL_UNIT_ASSIGNED_CONTEXT ( ( #35, #164, #240 ) ) REPRESENTATION_CONTEXT ( 'NONE', 'WORKASPACE' ) );
#65 = FACE_OUTER_BOUND ( 'NONE', #17, .T. ) ;
#66 = EDGE_CURVE ( 'NONE', #27, #218, #133, .T. ) ;
#67 = CARTESIAN_POINT ( 'NONE',  ( 0.0000000000000000000, 0.0000000000000000000, 0.1013249722427790322 ) ) ;
#68 = EDGE_LOOP ( 'NONE', ( #105, #154, #147, #208 ) ) ;
#69 = LINE ( 'NONE', #71, #73 ) ;
#70 = ORIENTED_EDGE ( 'NONE', *, *, #21, .T. ) ;
#71 = CARTESIAN_POINT ( 'NONE',  ( 0.06249999999999997918, 7.654042494670956004E-18, 2.000000000000000000 ) ) ;
#72 = ADVANCED_FACE ( 'NONE', ( #86 ), #48, .T. ) ;
#73 = VECTOR ( 'NONE', #175, 39.37007874015748143 ) ;
#74 = ORIENTED_EDGE ( 'NONE', *, *, #37, .T. ) ;
#75 = LINE ( 'NONE', #104, #121 ) ;
#76 = ADVANCED_FACE ( 'NONE', ( #220 ), #180, .T. ) ;
#77 =( NAMED_UNIT ( * ) PLANE_ANGLE_UNIT ( ) SI_UNIT ( $, .RADIAN. ) );
#78 = AXIS2_PLACEMENT_3D ( 'NONE', #13, #128, #161 ) ;
#79 = PRESENTATION_STYLE_ASSIGNMENT (( #222 ) ) ;
#80 = SURFACE_SIDE_STYLE ('',( #18 ) ) ;
#81 = AXIS2_PLACEMENT_3D ( 'NONE', #140, #239, #236 ) ;
#82 = EDGE_CURVE ( 'NONE', #215, #156, #60, .T. ) ;
#83 = EDGE_CURVE ( 'NONE', #156, #218, #50, .T. ) ;
#84 = APPLICATION_PROTOCOL_DEFINITION ( 'draft international standard', 'automotive_design', 1998, #183 ) ;
#85 = STYLED_ITEM ( 'NONE', ( #79 ), #129 ) ;
#86 = FACE_OUTER_BOUND ( 'NONE', #14, .T. ) ;
#87 =( GEOMETRIC_REPRESENTATION_CONTEXT ( 3 ) GLOBAL_UNCERTAINTY_ASSIGNED_CONTEXT ( ( #135 ) ) GLOBAL_UNIT_ASSIGNED_CONTEXT ( ( #15, #249, #95 ) ) REPRESENTATION_CONTEXT ( 'NONE', 'WORKASPACE' ) );
#88 = DIRECTION ( 'NONE',  ( -1.000000000000000000, 0.0000000000000000000, 0.0000000000000000000 ) ) ;
#89 = DIRECTION ( 'NONE',  ( 0.0000000000000000000, 0.0000000000000000000, -1.000000000000000000 ) ) ;
#90 = EDGE_LOOP ( 'NONE', ( #119, #33, #53, #197 ) ) ;
#91 = DIRECTION ( 'NONE',  ( -1.000000000000000000, 0.0000000000000000000, 0.0000000000000000000 ) ) ;
#92 = CARTESIAN_POINT ( 'NONE',  ( 0.0000000000000000000, 0.0000000000000000000, 2.000000000000000000 ) ) ;
#93 = AXIS2_PLACEMENT_3D ( 'NONE', #192, #31, #233 ) ;
#94 = ORIENTED_EDGE ( 'NONE', *, *, #115, .F. ) ;
#95 =( NAMED_UNIT ( * ) SI_UNIT ( $, .STERADIAN. ) SOLID_ANGLE_UNIT ( ) );
#96 = PRODUCT_RELATED_PRODUCT_CATEGORY ( 'part', '', ( #247 ) ) ;
#97 = EDGE_CURVE ( 'NONE', #195, #27, #75, .T. ) ;
#98 = ADVANCED_FACE ( 'NONE', ( #65 ), #248, .T. ) ;
#99 =( CONVERSION_BASED_UNIT ( 'INCH', #59 ) LENGTH_UNIT ( ) NAMED_UNIT ( #16 ) );
#100 = PRODUCT_DEFINITION ( 'UNKNOWN', '', #207, #137 ) ;
#101 = AXIS2_PLACEMENT_3D ( 'NONE', #92, #155, #216 ) ;
#102 =( NAMED_UNIT ( * ) SI_UNIT ( $, .STERADIAN. ) SOLID_ANGLE_UNIT ( ) );
#103 = VERTEX_POINT ( 'NONE', #125 ) ;
#104 = CARTESIAN_POINT ( 'NONE',  ( -0.06249999999999997918, 0.0000000000000000000, 2.000000000000000000 ) ) ;
#105 = ORIENTED_EDGE ( 'NONE', *, *, #123, .T. ) ;
#106 = CARTESIAN_POINT ( 'NONE',  ( 0.0000000000000000000, 0.0000000000000000000, 2.000000000000000000 ) ) ;
#107 = ORIENTED_EDGE ( 'NONE', *, *, #198, .F. ) ;
#108 = CARTESIAN_POINT ( 'NONE',  ( 0.0000000000000000000, 0.0000000000000000000, 0.0000000000000000000 ) ) ;
#109 = DIRECTION ( 'NONE',  ( 0.0000000000000000000, 0.0000000000000000000, -1.000000000000000000 ) ) ;
#110 = ORIENTED_EDGE ( 'NONE', *, *, #45, .T. ) ;
#111 = DIRECTION ( 'NONE',  ( -1.000000000000000000, 0.0000000000000000000, 0.0000000000000000000 ) ) ;
#112 = CIRCLE ( 'NONE', #3, 0.003999999999999999216 ) ;
#113 = ORIENTED_EDGE ( 'NONE', *, *, #151, .F. ) ;
#114 = FACE_OUTER_BOUND ( 'NONE', #126, .T. ) ;
#115 = EDGE_CURVE ( 'NONE', #218, #27, #231, .T. ) ;
#116 = DIRECTION ( 'NONE',  ( -0.0000000000000000000, -0.0000000000000000000, -1.000000000000000000 ) ) ;
#117 = LINE ( 'NONE', #34, #210 ) ;
#118 = AXIS2_PLACEMENT_3D ( 'NONE', #228, #38, #111 ) ;
#119 = ORIENTED_EDGE ( 'NONE', *, *, #82, .F. ) ;
#120 =( GEOMETRIC_REPRESENTATION_CONTEXT ( 3 ) GLOBAL_UNCERTAINTY_ASSIGNED_CONTEXT ( ( #204 ) ) GLOBAL_UNIT_ASSIGNED_CONTEXT ( ( #99, #77, #102 ) ) REPRESENTATION_CONTEXT ( 'NONE', 'WORKASPACE' ) );
#121 = VECTOR ( 'NONE', #173, 39.37007874015748143 ) ;
#122 = FACE_OUTER_BOUND ( 'NONE', #47, .T. ) ;
#123 = EDGE_CURVE ( 'NONE', #103, #63, #8, .T. ) ;
#124 = DIRECTION ( 'NONE',  ( -1.000000000000000000, 0.0000000000000000000, 0.0000000000000000000 ) ) ;
#125 = CARTESIAN_POINT ( 'NONE',  ( 0.003999999999999999216, 0.0000000000000000000, 2.000000000000000000 ) ) ;
#126 = EDGE_LOOP ( 'NONE', ( #43, #113 ) ) ;
#127 = AXIS2_PLACEMENT_3D ( 'NONE', #41, #206, #201 ) ;
#128 = DIRECTION ( 'NONE',  ( 0.0000000000000000000, 0.0000000000000000000, -1.000000000000000000 ) ) ;
#129 = ADVANCED_BREP_SHAPE_REPRESENTATION ( 'Micro_RSC-125-2X', ( #10, #24 ), #87 ) ;
#130 = LINE ( 'NONE', #199, #157 ) ;
#131 = EDGE_LOOP ( 'NONE', ( #213, #107, #235, #9 ) ) ;
#132 = DIRECTION ( 'NONE',  ( 0.0000000000000000000, 0.0000000000000000000, 1.000000000000000000 ) ) ;
#133 = CIRCLE ( 'NONE', #19, 0.06249999999999997918 ) ;
#134 = ADVANCED_FACE ( 'NONE', ( #54 ), #212, .T. ) ;
#135 = UNCERTAINTY_MEASURE_WITH_UNIT (LENGTH_MEASURE( 1.000000000000000082E-05 ), #15, 'distance_accuracy_value', 'NONE');
#136 = ORIENTED_EDGE ( 'NONE', *, *, #151, .T. ) ;
#137 = PRODUCT_DEFINITION_CONTEXT ( 'detailed design', #183, 'design' ) ;
#138 = CIRCLE ( 'NONE', #202, 0.003999999999999999216 ) ;
#139 = DIRECTION ( 'NONE',  ( 1.000000000000000000, 0.0000000000000000000, 0.0000000000000000000 ) ) ;
#140 = CARTESIAN_POINT ( 'NONE',  ( 0.0000000000000000000, 0.0000000000000000000, 2.000000000000000000 ) ) ;
#141 = DIRECTION ( 'NONE',  ( -0.0000000000000000000, -0.0000000000000000000, -1.000000000000000000 ) ) ;
#142 = DIRECTION ( 'NONE',  ( -1.000000000000000000, 0.0000000000000000000, 0.0000000000000000000 ) ) ;
#143 = ORIENTED_EDGE ( 'NONE', *, *, #82, .T. ) ;
#144 = AXIS2_PLACEMENT_3D ( 'NONE', #172, #89, #124 ) ;
#145 = DIRECTION ( 'NONE',  ( 0.0000000000000000000, 0.0000000000000000000, -1.000000000000000000 ) ) ;
#146 =( LENGTH_UNIT ( ) NAMED_UNIT ( * ) SI_UNIT ( $, .METRE. ) );
#147 = ORIENTED_EDGE ( 'NONE', *, *, #159, .F. ) ;
#148 = APPLICATION_CONTEXT ( 'automotive_design' ) ;
#149 = FACE_OUTER_BOUND ( 'NONE', #179, .T. ) ;
#150 = CARTESIAN_POINT ( 'NONE',  ( 0.06249999999999997918, 7.654042494670956004E-18, 0.1013249722427790322 ) ) ;
#151 = EDGE_CURVE ( 'NONE', #63, #103, #112, .T. ) ;
#152 = VECTOR ( 'NONE', #11, 39.37007874015748143 ) ;
#153 = DIRECTION ( 'NONE',  ( 0.0000000000000000000, 0.0000000000000000000, 1.000000000000000000 ) ) ;
#154 = ORIENTED_EDGE ( 'NONE', *, *, #177, .T. ) ;
#155 = DIRECTION ( 'NONE',  ( -0.0000000000000000000, -0.0000000000000000000, -1.000000000000000000 ) ) ;
#156 = VERTEX_POINT ( 'NONE', #217 ) ;
#157 = VECTOR ( 'NONE', #211, 39.37007874015748143 ) ;
#158 = DIRECTION ( 'NONE',  ( 0.5000000000000009992, 0.0000000000000000000, 0.8660254037844380415 ) ) ;
#159 = EDGE_CURVE ( 'NONE', #193, #195, #52, .T. ) ;
#160 = CARTESIAN_POINT ( 'NONE',  ( -0.003999999999999999216, -4.071950607164948101E-18, 2.000000000000000000 ) ) ;
#161 = DIRECTION ( 'NONE',  ( -1.000000000000000000, 0.0000000000000000000, 0.0000000000000000000 ) ) ;
#162 = CARTESIAN_POINT ( 'NONE',  ( -0.06249999999999997918, 0.0000000000000000000, 0.1013249722427790322 ) ) ;
#163 = PLANE ( 'NONE',  #186 ) ;
#164 =( NAMED_UNIT ( * ) PLANE_ANGLE_UNIT ( ) SI_UNIT ( $, .RADIAN. ) );
#165 = CARTESIAN_POINT ( 'NONE',  ( 0.0000000000000000000, 0.0000000000000000000, 0.0000000000000000000 ) ) ;
#166 = CIRCLE ( 'NONE', #144, 0.06249999999999997918 ) ;
#167 = CLOSED_SHELL ( 'NONE', ( #134, #76, #189, #72, #170, #246, #98, #225 ) ) ;
#168 = CARTESIAN_POINT ( 'NONE',  ( 0.0000000000000000000, 0.0000000000000000000, 0.0000000000000000000 ) ) ;
#169 = SHAPE_DEFINITION_REPRESENTATION ( #230, #129 ) ;
#170 = ADVANCED_FACE ( 'NONE', ( #196 ), #229, .T. ) ;
#171 = ORIENTED_EDGE ( 'NONE', *, *, #177, .F. ) ;
#172 = CARTESIAN_POINT ( 'NONE',  ( 0.0000000000000000000, 0.0000000000000000000, 1.898675027757220857 ) ) ;
#173 = DIRECTION ( 'NONE',  ( -0.0000000000000000000, -0.0000000000000000000, -1.000000000000000000 ) ) ;
#174 = AXIS2_PLACEMENT_3D ( 'NONE', #67, #141, #194 ) ;
#175 = DIRECTION ( 'NONE',  ( -0.0000000000000000000, -0.0000000000000000000, -1.000000000000000000 ) ) ;
#176 = DIRECTION ( 'NONE',  ( 0.0000000000000000000, 0.0000000000000000000, 1.000000000000000000 ) ) ;
#177 = EDGE_CURVE ( 'NONE', #63, #195, #130, .T. ) ;
#178 = DIRECTION ( 'NONE',  ( 1.000000000000000000, 0.0000000000000000000, 0.0000000000000000000 ) ) ;
#179 = EDGE_LOOP ( 'NONE', ( #238, #143 ) ) ;
#180 = CONICAL_SURFACE ( 'NONE', #93, 0.003999999999999999216, 0.5235987755983000369 ) ;
#181 = APPLICATION_PROTOCOL_DEFINITION ( 'draft international standard', 'automotive_design', 1998, #148 ) ;
#182 = SURFACE_SIDE_STYLE ('',( #200 ) ) ;
#183 = APPLICATION_CONTEXT ( 'automotive_design' ) ;
#184 = DIRECTION ( 'NONE',  ( 1.000000000000000000, 0.0000000000000000000, -0.0000000000000000000 ) ) ;
#185 = FILL_AREA_STYLE_COLOUR ( '', #44 ) ;
#186 = AXIS2_PLACEMENT_3D ( 'NONE', #165, #132, #184 ) ;
#187 =( LENGTH_UNIT ( ) NAMED_UNIT ( * ) SI_UNIT ( $, .METRE. ) );
#188 = PRODUCT_CONTEXT ( 'NONE', #148, 'mechanical' ) ;
#189 = ADVANCED_FACE ( 'NONE', ( #122 ), #191, .T. ) ;
#190 = VECTOR ( 'NONE', #158, 39.37007874015748143 ) ;
#191 = CYLINDRICAL_SURFACE ( 'NONE', #118, 0.06249999999999997918 ) ;
#192 = CARTESIAN_POINT ( 'NONE',  ( 0.0000000000000000000, 0.0000000000000000000, 0.0000000000000000000 ) ) ;
#193 = VERTEX_POINT ( 'NONE', #58 ) ;
#194 = DIRECTION ( 'NONE',  ( -1.000000000000000000, 0.0000000000000000000, 0.0000000000000000000 ) ) ;
#195 = VERTEX_POINT ( 'NONE', #40 ) ;
#196 = FACE_OUTER_BOUND ( 'NONE', #131, .T. ) ;
#197 = ORIENTED_EDGE ( 'NONE', *, *, #83, .F. ) ;
#198 = EDGE_CURVE ( 'NONE', #156, #215, #138, .T. ) ;
#199 = CARTESIAN_POINT ( 'NONE',  ( -0.003999999999999999216, -4.898587196589411612E-19, 2.000000000000000000 ) ) ;
#200 = SURFACE_STYLE_FILL_AREA ( #39 ) ;
#201 = DIRECTION ( 'NONE',  ( 1.000000000000000000, 0.0000000000000000000, -0.0000000000000000000 ) ) ;
#202 = AXIS2_PLACEMENT_3D ( 'NONE', #168, #116, #2 ) ;
#203 = CARTESIAN_POINT ( 'NONE',  ( -0.003999999999999999216, 4.071950607164948101E-18, 0.0000000000000000000 ) ) ;
#204 = UNCERTAINTY_MEASURE_WITH_UNIT (LENGTH_MEASURE( 1.000000000000000082E-05 ), #99, 'distance_accuracy_value', 'NONE');
#205 =( LENGTH_UNIT ( ) NAMED_UNIT ( * ) SI_UNIT ( $, .METRE. ) );
#206 = DIRECTION ( 'NONE',  ( 0.0000000000000000000, 0.0000000000000000000, 1.000000000000000000 ) ) ;
#207 = PRODUCT_DEFINITION_FORMATION_WITH_SPECIFIED_SOURCE ( 'ANY', '', #247, .NOT_KNOWN. ) ;
#208 = ORIENTED_EDGE ( 'NONE', *, *, #45, .F. ) ;
#209 = CARTESIAN_POINT ( 'NONE',  ( 0.0000000000000000000, 0.0000000000000000000, 0.0000000000000000000 ) ) ;
#210 = VECTOR ( 'NONE', #227, 39.37007874015748143 ) ;
#211 = DIRECTION ( 'NONE',  ( -0.5000000000000009992, -6.123233995736778362E-17, -0.8660254037844380415 ) ) ;
#212 = CONICAL_SURFACE ( 'NONE', #241, 0.003999999999999999216, 0.5235987755983000369 ) ;
#213 = ORIENTED_EDGE ( 'NONE', *, *, #243, .F. ) ;
#214 = LINE ( 'NONE', #242, #152 ) ;
#215 = VERTEX_POINT ( 'NONE', #203 ) ;
#216 = DIRECTION ( 'NONE',  ( -1.000000000000000000, 0.0000000000000000000, 0.0000000000000000000 ) ) ;
#217 = CARTESIAN_POINT ( 'NONE',  ( 0.003999999999999999216, 0.0000000000000000000, 0.0000000000000000000 ) ) ;
#218 = VERTEX_POINT ( 'NONE', #150 ) ;
#219 = STYLED_ITEM ( 'NONE', ( #244 ), #10 ) ;
#220 = FACE_OUTER_BOUND ( 'NONE', #90, .T. ) ;
#221 = ORIENTED_EDGE ( 'NONE', *, *, #97, .T. ) ;
#222 = SURFACE_STYLE_USAGE ( .BOTH. , #80 ) ;
#223 = SURFACE_STYLE_USAGE ( .BOTH. , #182 ) ;
#224 = LENGTH_MEASURE_WITH_UNIT ( LENGTH_MEASURE( 0.02539999999999999897 ), #205 );
#225 = ADVANCED_FACE ( 'NONE', ( #114 ), #57, .T. ) ;
#226 = COLOUR_RGB ( '',0.7921568627450980005, 0.8196078431372548767, 0.9333333333333333481 ) ;
#227 = DIRECTION ( 'NONE',  ( -0.5000000000000009992, 6.123233995736778362E-17, 0.8660254037844380415 ) ) ;
#228 = CARTESIAN_POINT ( 'NONE',  ( 0.0000000000000000000, 0.0000000000000000000, 2.000000000000000000 ) ) ;
#229 = CONICAL_SURFACE ( 'NONE', #36, 0.003999999999999999216, 0.5235987755983000369 ) ;
#230 = PRODUCT_DEFINITION_SHAPE ( 'NONE', 'NONE',  #100 ) ;
#231 = CIRCLE ( 'NONE', #174, 0.06249999999999997918 ) ;
#232 = ORIENTED_EDGE ( 'NONE', *, *, #97, .F. ) ;
#233 = DIRECTION ( 'NONE',  ( 1.000000000000000000, 0.0000000000000000000, 0.0000000000000000000 ) ) ;
#234 = AXIS2_PLACEMENT_3D ( 'NONE', #28, #145, #142 ) ;
#235 = ORIENTED_EDGE ( 'NONE', *, *, #83, .T. ) ;
#236 = DIRECTION ( 'NONE',  ( 1.000000000000000000, 0.0000000000000000000, 0.0000000000000000000 ) ) ;
#237 = CARTESIAN_POINT ( 'NONE',  ( 0.0000000000000000000, 0.0000000000000000000, 2.000000000000000000 ) ) ;
#238 = ORIENTED_EDGE ( 'NONE', *, *, #198, .T. ) ;
#239 = DIRECTION ( 'NONE',  ( 0.0000000000000000000, 0.0000000000000000000, -1.000000000000000000 ) ) ;
#240 =( NAMED_UNIT ( * ) SI_UNIT ( $, .STERADIAN. ) SOLID_ANGLE_UNIT ( ) );
#241 = AXIS2_PLACEMENT_3D ( 'NONE', #106, #109, #178 ) ;
#242 = CARTESIAN_POINT ( 'NONE',  ( 0.003999999999999999216, 0.0000000000000000000, 2.000000000000000000 ) ) ;
#243 = EDGE_CURVE ( 'NONE', #215, #27, #117, .T. ) ;
#244 = PRESENTATION_STYLE_ASSIGNMENT (( #223 ) ) ;
#245 = DIMENSIONAL_EXPONENTS ( 1.000000000000000000, 0.0000000000000000000, 0.0000000000000000000, 0.0000000000000000000, 0.0000000000000000000, 0.0000000000000000000, 0.0000000000000000000 ) ;
#246 = ADVANCED_FACE ( 'NONE', ( #149 ), #163, .F. ) ;
#247 = PRODUCT ( 'Micro_RSC-125-2X', 'Micro_RSC-125-2X', '', ( #188 ) ) ;
#248 = CONICAL_SURFACE ( 'NONE', #81, 0.003999999999999999216, 0.5235987755983000369 ) ;
#249 =( NAMED_UNIT ( * ) PLANE_ANGLE_UNIT ( ) SI_UNIT ( $, .RADIAN. ) );
ENDSEC;
END-ISO-10303-21;
