ISO-10303-21;
HEADER;
FILE_DESCRIPTION (( 'STEP AP214' ),
    '1' );
FILE_NAME ('Micro_EMS-375-3X.STEP',
    '2021-09-01T17:55:35',
    ( '' ),
    ( '' ),
    'SwSTEP 2.0',
    'SolidWorks 2020',
    '' );
FILE_SCHEMA (( 'AUTOMOTIVE_DESIGN' ));
ENDSEC;

DATA;
#1 = CARTESIAN_POINT ( 'NONE',  ( 1.072868196215332272E-16, 0.0000000000000000000, 0.8760633653411783461 ) ) ;
#2 = EDGE_CURVE ( 'NONE', #101, #12, #132, .T. ) ;
#3 = VECTOR ( 'NONE', #37, 39.37007874015747433 ) ;
#4 = PRESENTATION_STYLE_ASSIGNMENT (( #96 ) ) ;
#5 = DIMENSIONAL_EXPONENTS ( 1.000000000000000000, 0.0000000000000000000, 0.0000000000000000000, 0.0000000000000000000, 0.0000000000000000000, 0.0000000000000000000, 0.0000000000000000000 ) ;
#6 = CARTESIAN_POINT ( 'NONE',  ( 0.1873125000000001317, 0.0000000000000000000, 0.8750000000000000000 ) ) ;
#7 = DIRECTION ( 'NONE',  ( 1.000000000000000000, 0.0000000000000000000, 0.0000000000000000000 ) ) ;
#8 = LINE ( 'NONE', #256, #144 ) ;
#9 = CARTESIAN_POINT ( 'NONE',  ( 2.809237542898491532E-33, 0.0000000000000000000, 2.293916535652885596E-17 ) ) ;
#10 = EDGE_CURVE ( 'NONE', #220, #101, #87, .T. ) ;
#11 = ORIENTED_EDGE ( 'NONE', *, *, #10, .F. ) ;
#12 = VERTEX_POINT ( 'NONE', #70 ) ;
#13 = SURFACE_STYLE_FILL_AREA ( #63 ) ;
#14 = ORIENTED_EDGE ( 'NONE', *, *, #127, .T. ) ;
#15 = CARTESIAN_POINT ( 'NONE',  ( -0.1873124999999999929, 0.0000000000000000000, 2.293916535652885596E-17 ) ) ;
#16 = ORIENTED_EDGE ( 'NONE', *, *, #236, .F. ) ;
#17 = CLOSED_SHELL ( 'NONE', ( #146, #182, #98, #252, #66, #151, #95, #91, #212, #135 ) ) ;
#18 = VECTOR ( 'NONE', #80, 39.37007874015748143 ) ;
#19 = DIRECTION ( 'NONE',  ( -1.000000000000000000, 0.0000000000000000000, 0.0000000000000000000 ) ) ;
#20 = EDGE_LOOP ( 'NONE', ( #126, #289 ) ) ;
#21 = DIRECTION ( 'NONE',  ( -1.000000000000000000, 0.0000000000000000000, 0.0000000000000000000 ) ) ;
#22 = ORIENTED_EDGE ( 'NONE', *, *, #108, .F. ) ;
#23 = DIRECTION ( 'NONE',  ( 1.000000000000000000, 0.0000000000000000000, 0.0000000000000000000 ) ) ;
#24 = CARTESIAN_POINT ( 'NONE',  ( 0.0000000000000000000, 0.0000000000000000000, 2.500000000000000000 ) ) ;
#25 = PRESENTATION_LAYER_ASSIGNMENT (  '', '', ( #143 ) ) ;
#26 = FACE_OUTER_BOUND ( 'NONE', #20, .T. ) ;
#27 = VECTOR ( 'NONE', #46, 39.37007874015748854 ) ;
#28 = DIRECTION ( 'NONE',  ( 0.0000000000000000000, 0.0000000000000000000, 1.000000000000000000 ) ) ;
#29 = COLOUR_RGB ( '',0.7921568627450980005, 0.8196078431372548767, 0.9333333333333333481 ) ;
#30 = SURFACE_STYLE_USAGE ( .BOTH. , #82 ) ;
#31 = EDGE_LOOP ( 'NONE', ( #267, #129, #107, #198 ) ) ;
#32 = UNCERTAINTY_MEASURE_WITH_UNIT (LENGTH_MEASURE( 1.000000000000000082E-05 ), #253, 'distance_accuracy_value', 'NONE');
#33 = LENGTH_MEASURE_WITH_UNIT ( LENGTH_MEASURE( 0.02539999999999999897 ), #106 );
#34 = APPLICATION_CONTEXT ( 'automotive_design' ) ;
#35 =( CONVERSION_BASED_UNIT ( 'INCH', #33 ) LENGTH_UNIT ( ) NAMED_UNIT ( #187 ) );
#36 = ORIENTED_EDGE ( 'NONE', *, *, #266, .F. ) ;
#37 = DIRECTION ( 'NONE',  ( -0.1736481776669311916, 2.126576849575783316E-17, 0.9848077530122080203 ) ) ;
#38 = ORIENTED_EDGE ( 'NONE', *, *, #127, .F. ) ;
#39 = DIRECTION ( 'NONE',  ( -1.224646799147353207E-16, -0.0000000000000000000, -1.000000000000000000 ) ) ;
#40 = MECHANICAL_DESIGN_GEOMETRIC_PRESENTATION_REPRESENTATION (  '', ( #143 ), #148 ) ;
#41 = DIRECTION ( 'NONE',  ( 0.0000000000000000000, 0.0000000000000000000, 1.000000000000000000 ) ) ;
#42 = PRODUCT_RELATED_PRODUCT_CATEGORY ( 'part', '', ( #111 ) ) ;
#43 = DIRECTION ( 'NONE',  ( -0.7071067811865385799, 0.0000000000000000000, -0.7071067811865563435 ) ) ;
#44 = CARTESIAN_POINT ( 'NONE',  ( 0.0000000000000000000, 0.0000000000000000000, 2.500000000000000000 ) ) ;
#45 = CIRCLE ( 'NONE', #292, 0.1724999999999995981 ) ;
#46 = DIRECTION ( 'NONE',  ( 0.7071067811865385799, 8.659560562354823157E-17, -0.7071067811865563435 ) ) ;
#47 = PRODUCT_DEFINITION_CONTEXT ( 'detailed design', #163, 'design' ) ;
#48 = CARTESIAN_POINT ( 'NONE',  ( 0.0000000000000000000, 0.0000000000000000000, 2.500000000000000000 ) ) ;
#49 = DIRECTION ( 'NONE',  ( -1.000000000000000000, 0.0000000000000000000, 0.0000000000000000000 ) ) ;
#50 = CIRCLE ( 'NONE', #189, 0.1873125000000000207 ) ;
#51 = AXIS2_PLACEMENT_3D ( 'NONE', #280, #76, #124 ) ;
#52 =( NAMED_UNIT ( * ) SI_UNIT ( $, .STERADIAN. ) SOLID_ANGLE_UNIT ( ) );
#53 = PRODUCT_DEFINITION ( 'UNKNOWN', '', #89, #47 ) ;
#54 = PLANE ( 'NONE',  #241 ) ;
#55 = VECTOR ( 'NONE', #298, 39.37007874015748143 ) ;
#56 = EDGE_LOOP ( 'NONE', ( #36, #14, #216, #294 ) ) ;
#57 = ORIENTED_EDGE ( 'NONE', *, *, #219, .F. ) ;
#58 = CARTESIAN_POINT ( 'NONE',  ( 0.0000000000000000000, 0.0000000000000000000, 0.0000000000000000000 ) ) ;
#59 = ORIENTED_EDGE ( 'NONE', *, *, #260, .F. ) ;
#60 = SHAPE_DEFINITION_REPRESENTATION ( #286, #141 ) ;
#61 = AXIS2_PLACEMENT_3D ( 'NONE', #272, #297, #248 ) ;
#62 = VERTEX_POINT ( 'NONE', #240 ) ;
#63 = FILL_AREA_STYLE ('',( #177 ) ) ;
#64 = ORIENTED_EDGE ( 'NONE', *, *, #299, .T. ) ;
#65 = CARTESIAN_POINT ( 'NONE',  ( 1.071565949253934025E-16, 0.0000000000000000000, 0.8750000000000000000 ) ) ;
#66 = ADVANCED_FACE ( 'NONE', ( #181 ), #86, .T. ) ;
#67 = DIRECTION ( 'NONE',  ( -1.000000000000000000, 0.0000000000000000000, 0.0000000000000000000 ) ) ;
#68 = COLOUR_RGB ( '',0.7921568627450980005, 0.8196078431372548767, 0.9333333333333333481 ) ;
#69 = EDGE_LOOP ( 'NONE', ( #11, #83, #81, #174 ) ) ;
#70 = CARTESIAN_POINT ( 'NONE',  ( -0.1873124999999999929, 0.0000000000000000000, 4.587833071305771192E-17 ) ) ;
#71 = LINE ( 'NONE', #228, #279 ) ;
#72 = VECTOR ( 'NONE', #116, 39.37007874015748143 ) ;
#73 = CARTESIAN_POINT ( 'NONE',  ( 0.0000000000000000000, 0.0000000000000000000, 2.484999999999999432 ) ) ;
#74 = DIRECTION ( 'NONE',  ( 1.000000000000000000, 0.0000000000000000000, 0.0000000000000000000 ) ) ;
#75 = CARTESIAN_POINT ( 'NONE',  ( 0.0000000000000000000, 0.0000000000000000000, 2.500000000000000000 ) ) ;
#76 = DIRECTION ( 'NONE',  ( -0.0000000000000000000, -0.0000000000000000000, -1.000000000000000000 ) ) ;
#77 = DIRECTION ( 'NONE',  ( -1.000000000000000000, 0.0000000000000000000, 1.224646799147352961E-16 ) ) ;
#78 = VERTEX_POINT ( 'NONE', #269 ) ;
#79 = EDGE_CURVE ( 'NONE', #220, #78, #161, .T. ) ;
#80 = DIRECTION ( 'NONE',  ( -1.224646799147353207E-16, -0.0000000000000000000, -1.000000000000000000 ) ) ;
#81 = ORIENTED_EDGE ( 'NONE', *, *, #290, .T. ) ;
#82 = SURFACE_SIDE_STYLE ('',( #13 ) ) ;
#83 = ORIENTED_EDGE ( 'NONE', *, *, #102, .T. ) ;
#84 = AXIS2_PLACEMENT_3D ( 'NONE', #1, #93, #188 ) ;
#85 = CARTESIAN_POINT ( 'NONE',  ( 0.0000000000000000000, 0.0000000000000000000, 0.0000000000000000000 ) ) ;
#86 = CYLINDRICAL_SURFACE ( 'NONE', #123, 0.1875000000000000278 ) ;
#87 = LINE ( 'NONE', #202, #72 ) ;
#88 = CIRCLE ( 'NONE', #115, 0.1875000000000000278 ) ;
#89 = PRODUCT_DEFINITION_FORMATION_WITH_SPECIFIED_SOURCE ( 'ANY', '', #111, .NOT_KNOWN. ) ;
#90 = DIRECTION ( 'NONE',  ( 0.0000000000000000000, 0.0000000000000000000, -1.000000000000000000 ) ) ;
#91 = ADVANCED_FACE ( 'NONE', ( #225 ), #166, .T. ) ;
#92 = FACE_OUTER_BOUND ( 'NONE', #258, .T. ) ;
#93 = DIRECTION ( 'NONE',  ( -1.224646799147353207E-16, -0.0000000000000000000, -1.000000000000000000 ) ) ;
#94 = CIRCLE ( 'NONE', #281, 0.1875000000000000278 ) ;
#95 = ADVANCED_FACE ( 'NONE', ( #273 ), #208, .T. ) ;
#96 = SURFACE_STYLE_USAGE ( .BOTH. , #191 ) ;
#97 = FACE_OUTER_BOUND ( 'NONE', #31, .T. ) ;
#98 = ADVANCED_FACE ( 'NONE', ( #92 ), #176, .T. ) ;
#99 = DIRECTION ( 'NONE',  ( 1.000000000000000000, 0.0000000000000000000, -0.0000000000000000000 ) ) ;
#100 = LINE ( 'NONE', #261, #231 ) ;
#101 = VERTEX_POINT ( 'NONE', #268 ) ;
#102 = EDGE_CURVE ( 'NONE', #220, #137, #50, .T. ) ;
#103 = LENGTH_MEASURE_WITH_UNIT ( LENGTH_MEASURE( 0.02539999999999999897 ), #257 );
#104 = EDGE_CURVE ( 'NONE', #291, #78, #203, .T. ) ;
#105 = VERTEX_POINT ( 'NONE', #274 ) ;
#106 =( LENGTH_UNIT ( ) NAMED_UNIT ( * ) SI_UNIT ( $, .METRE. ) );
#107 = ORIENTED_EDGE ( 'NONE', *, *, #104, .T. ) ;
#108 = EDGE_CURVE ( 'NONE', #155, #162, #71, .T. ) ;
#109 = AXIS2_PLACEMENT_3D ( 'NONE', #159, #243, #224 ) ;
#110 = ORIENTED_EDGE ( 'NONE', *, *, #10, .T. ) ;
#111 = PRODUCT ( 'Micro_EMS-375-3X', 'Micro_EMS-375-3X', '', ( #175 ) ) ;
#112 = CARTESIAN_POINT ( 'NONE',  ( 0.1724999999999995981, 2.112515728529179297E-17, 2.500000000000000000 ) ) ;
#113 = CARTESIAN_POINT ( 'NONE',  ( 1.071565949253934025E-16, 0.0000000000000000000, 0.8750000000000000000 ) ) ;
#114 = CARTESIAN_POINT ( 'NONE',  ( 0.0000000000000000000, 0.0000000000000000000, 2.484999999999999432 ) ) ;
#115 = AXIS2_PLACEMENT_3D ( 'NONE', #73, #210, #7 ) ;
#116 = DIRECTION ( 'NONE',  ( -1.224646799147353207E-16, -0.0000000000000000000, -1.000000000000000000 ) ) ;
#117 = EDGE_CURVE ( 'NONE', #105, #62, #165, .T. ) ;
#118 = DIRECTION ( 'NONE',  ( 0.0000000000000000000, 0.0000000000000000000, -1.000000000000000000 ) ) ;
#119 = CARTESIAN_POINT ( 'NONE',  ( 1.071565949253934025E-16, 0.0000000000000000000, 0.8750000000000000000 ) ) ;
#120 = AXIS2_PLACEMENT_3D ( 'NONE', #113, #185, #23 ) ;
#121 = CARTESIAN_POINT ( 'NONE',  ( 1.071565949253934025E-16, 0.0000000000000000000, 0.8750000000000000000 ) ) ;
#122 = DIRECTION ( 'NONE',  ( -1.224646799147353207E-16, -0.0000000000000000000, -1.000000000000000000 ) ) ;
#123 = AXIS2_PLACEMENT_3D ( 'NONE', #44, #183, #205 ) ;
#124 = DIRECTION ( 'NONE',  ( -1.000000000000000000, 0.0000000000000000000, 0.0000000000000000000 ) ) ;
#125 = PRESENTATION_STYLE_ASSIGNMENT (( #30 ) ) ;
#126 = ORIENTED_EDGE ( 'NONE', *, *, #164, .T. ) ;
#127 = EDGE_CURVE ( 'NONE', #62, #162, #94, .T. ) ;
#128 = ORIENTED_EDGE ( 'NONE', *, *, #299, .F. ) ;
#129 = ORIENTED_EDGE ( 'NONE', *, *, #260, .T. ) ;
#130 = ORIENTED_EDGE ( 'NONE', *, *, #108, .T. ) ;
#131 = ORIENTED_EDGE ( 'NONE', *, *, #117, .F. ) ;
#132 = CIRCLE ( 'NONE', #158, 0.1873124999999999929 ) ;
#133 = CARTESIAN_POINT ( 'NONE',  ( -0.1873124999999999096, 2.295064642027087123E-17, 0.8750000000000000000 ) ) ;
#134 = DIRECTION ( 'NONE',  ( -1.224646799147353207E-16, -0.0000000000000000000, -1.000000000000000000 ) ) ;
#135 = ADVANCED_FACE ( 'NONE', ( #206 ), #246, .F. ) ;
#136 = CARTESIAN_POINT ( 'NONE',  ( 0.0000000000000000000, 0.0000000000000000000, 2.500000000000000000 ) ) ;
#137 = VERTEX_POINT ( 'NONE', #133 ) ;
#138 = AXIS2_PLACEMENT_3D ( 'NONE', #277, #122, #230 ) ;
#139 = CARTESIAN_POINT ( 'NONE',  ( 0.1873125000000001317, 0.0000000000000000000, 0.8750000000000000000 ) ) ;
#140 = DIRECTION ( 'NONE',  ( 1.224646799147353207E-16, 0.0000000000000000000, 1.000000000000000000 ) ) ;
#141 = ADVANCED_BREP_SHAPE_REPRESENTATION ( 'Micro_EMS-375-3X', ( #195, #190 ), #271 ) ;
#142 = SURFACE_STYLE_FILL_AREA ( #169 ) ;
#143 = STYLED_ITEM ( 'NONE', ( #4 ), #195 ) ;
#144 = VECTOR ( 'NONE', #192, 39.37007874015748143 ) ;
#145 = DIRECTION ( 'NONE',  ( 1.000000000000000000, 0.0000000000000000000, 0.0000000000000000000 ) ) ;
#146 = ADVANCED_FACE ( 'NONE', ( #223 ), #295, .T. ) ;
#147 =( LENGTH_UNIT ( ) NAMED_UNIT ( * ) SI_UNIT ( $, .METRE. ) );
#148 =( GEOMETRIC_REPRESENTATION_CONTEXT ( 3 ) GLOBAL_UNCERTAINTY_ASSIGNED_CONTEXT ( ( #32 ) ) GLOBAL_UNIT_ASSIGNED_CONTEXT ( ( #253, #254, #52 ) ) REPRESENTATION_CONTEXT ( 'NONE', 'WORKASPACE' ) );
#149 =( CONVERSION_BASED_UNIT ( 'INCH', #103 ) LENGTH_UNIT ( ) NAMED_UNIT ( #250 ) );
#150 =( NAMED_UNIT ( * ) SI_UNIT ( $, .STERADIAN. ) SOLID_ANGLE_UNIT ( ) );
#151 = ADVANCED_FACE ( 'NONE', ( #26 ), #54, .T. ) ;
#152 = DIRECTION ( 'NONE',  ( 0.0000000000000000000, 0.0000000000000000000, 1.000000000000000000 ) ) ;
#153 = CIRCLE ( 'NONE', #200, 0.1873124999999999929 ) ;
#154 = ORIENTED_EDGE ( 'NONE', *, *, #104, .F. ) ;
#155 = VERTEX_POINT ( 'NONE', #229 ) ;
#156 = CARTESIAN_POINT ( 'NONE',  ( 2.809237542898491532E-33, 0.0000000000000000000, 2.293916535652885596E-17 ) ) ;
#157 = UNCERTAINTY_MEASURE_WITH_UNIT (LENGTH_MEASURE( 1.000000000000000082E-05 ), #35, 'distance_accuracy_value', 'NONE');
#158 = AXIS2_PLACEMENT_3D ( 'NONE', #156, #134, #227 ) ;
#159 = CARTESIAN_POINT ( 'NONE',  ( 0.0000000000000000000, 0.0000000000000000000, 0.0000000000000000000 ) ) ;
#160 = MECHANICAL_DESIGN_GEOMETRIC_PRESENTATION_REPRESENTATION (  '', ( #184 ), #276 ) ;
#161 = LINE ( 'NONE', #139, #55 ) ;
#162 = VERTEX_POINT ( 'NONE', #232 ) ;
#163 = APPLICATION_CONTEXT ( 'automotive_design' ) ;
#164 = EDGE_CURVE ( 'NONE', #155, #105, #265, .T. ) ;
#165 = LINE ( 'NONE', #112, #27 ) ;
#166 = CONICAL_SURFACE ( 'NONE', #120, 0.1873125000000000207, 0.1745329251994338915 ) ;
#167 = DIRECTION ( 'NONE',  ( -1.224646799147353207E-16, -0.0000000000000000000, -1.000000000000000000 ) ) ;
#168 = LENGTH_MEASURE_WITH_UNIT ( LENGTH_MEASURE( 0.02539999999999999897 ), #147 );
#169 = FILL_AREA_STYLE ('',( #278 ) ) ;
#170 = AXIS2_PLACEMENT_3D ( 'NONE', #85, #41, #180 ) ;
#171 = DIRECTION ( 'NONE',  ( 1.000000000000000000, 0.0000000000000000000, 0.0000000000000000000 ) ) ;
#172 = CYLINDRICAL_SURFACE ( 'NONE', #138, 0.1873124999999999929 ) ;
#173 = EDGE_LOOP ( 'NONE', ( #59, #196, #235, #262 ) ) ;
#174 = ORIENTED_EDGE ( 'NONE', *, *, #2, .F. ) ;
#175 = PRODUCT_CONTEXT ( 'NONE', #34, 'mechanical' ) ;
#176 = CONICAL_SURFACE ( 'NONE', #226, 0.1724999999999995981, 0.7853981633974357335 ) ;
#177 = FILL_AREA_STYLE_COLOUR ( '', #29 ) ;
#178 = EDGE_LOOP ( 'NONE', ( #64, #239 ) ) ;
#179 = EDGE_CURVE ( 'NONE', #137, #220, #275, .T. ) ;
#180 = DIRECTION ( 'NONE',  ( 1.000000000000000000, 0.0000000000000000000, -0.0000000000000000000 ) ) ;
#181 = FACE_OUTER_BOUND ( 'NONE', #56, .T. ) ;
#182 = ADVANCED_FACE ( 'NONE', ( #97 ), #247, .T. ) ;
#183 = DIRECTION ( 'NONE',  ( -0.0000000000000000000, -0.0000000000000000000, -1.000000000000000000 ) ) ;
#184 = STYLED_ITEM ( 'NONE', ( #125 ), #141 ) ;
#185 = DIRECTION ( 'NONE',  ( 1.224646799147353207E-16, 0.0000000000000000000, 1.000000000000000000 ) ) ;
#186 = ORIENTED_EDGE ( 'NONE', *, *, #266, .T. ) ;
#187 = DIMENSIONAL_EXPONENTS ( 1.000000000000000000, 0.0000000000000000000, 0.0000000000000000000, 0.0000000000000000000, 0.0000000000000000000, 0.0000000000000000000, 0.0000000000000000000 ) ;
#188 = DIRECTION ( 'NONE',  ( 1.000000000000000000, 0.0000000000000000000, 0.0000000000000000000 ) ) ;
#189 = AXIS2_PLACEMENT_3D ( 'NONE', #65, #39, #67 ) ;
#190 = AXIS2_PLACEMENT_3D ( 'NONE', #58, #152, #237 ) ;
#191 = SURFACE_SIDE_STYLE ('',( #142 ) ) ;
#192 = DIRECTION ( 'NONE',  ( -0.0000000000000000000, -0.0000000000000000000, -1.000000000000000000 ) ) ;
#193 = DIRECTION ( 'NONE',  ( -1.224646799147353207E-16, -0.0000000000000000000, -1.000000000000000000 ) ) ;
#194 =( NAMED_UNIT ( * ) SI_UNIT ( $, .STERADIAN. ) SOLID_ANGLE_UNIT ( ) );
#195 = MANIFOLD_SOLID_BREP ( 'Cut-Revolve1', #17 ) ;
#196 = ORIENTED_EDGE ( 'NONE', *, *, #102, .F. ) ;
#197 = APPLICATION_PROTOCOL_DEFINITION ( 'draft international standard', 'automotive_design', 1998, #34 ) ;
#198 = ORIENTED_EDGE ( 'NONE', *, *, #79, .F. ) ;
#199 = EDGE_LOOP ( 'NONE', ( #284, #186, #154, #221 ) ) ;
#200 = AXIS2_PLACEMENT_3D ( 'NONE', #9, #193, #77 ) ;
#201 = EDGE_LOOP ( 'NONE', ( #217, #110, #128, #215 ) ) ;
#202 = CARTESIAN_POINT ( 'NONE',  ( 0.1873124999999999929, 2.293916535652885596E-17, -2.293916535652885596E-17 ) ) ;
#203 = CIRCLE ( 'NONE', #61, 0.1875000000000000278 ) ;
#204 = DIRECTION ( 'NONE',  ( 1.000000000000000000, 0.0000000000000000000, 0.0000000000000000000 ) ) ;
#205 = DIRECTION ( 'NONE',  ( -1.000000000000000000, 0.0000000000000000000, 0.0000000000000000000 ) ) ;
#206 = FACE_OUTER_BOUND ( 'NONE', #178, .T. ) ;
#207 = LINE ( 'NONE', #249, #3 ) ;
#208 = CONICAL_SURFACE ( 'NONE', #222, 0.1724999999999995981, 0.7853981633974357335 ) ;
#209 = FACE_OUTER_BOUND ( 'NONE', #69, .T. ) ;
#210 = DIRECTION ( 'NONE',  ( 0.0000000000000000000, 0.0000000000000000000, -1.000000000000000000 ) ) ;
#211 = AXIS2_PLACEMENT_3D ( 'NONE', #119, #167, #49 ) ;
#212 = ADVANCED_FACE ( 'NONE', ( #209 ), #172, .T. ) ;
#213 = CIRCLE ( 'NONE', #84, 0.1875000000000000278 ) ;
#214 =( NAMED_UNIT ( * ) PLANE_ANGLE_UNIT ( ) SI_UNIT ( $, .RADIAN. ) );
#215 = ORIENTED_EDGE ( 'NONE', *, *, #290, .F. ) ;
#216 = ORIENTED_EDGE ( 'NONE', *, *, #245, .T. ) ;
#217 = ORIENTED_EDGE ( 'NONE', *, *, #179, .T. ) ;
#218 =( NAMED_UNIT ( * ) PLANE_ANGLE_UNIT ( ) SI_UNIT ( $, .RADIAN. ) );
#219 = EDGE_CURVE ( 'NONE', #162, #62, #88, .T. ) ;
#220 = VERTEX_POINT ( 'NONE', #6 ) ;
#221 = ORIENTED_EDGE ( 'NONE', *, *, #245, .F. ) ;
#222 = AXIS2_PLACEMENT_3D ( 'NONE', #136, #90, #19 ) ;
#223 = FACE_OUTER_BOUND ( 'NONE', #201, .T. ) ;
#224 = DIRECTION ( 'NONE',  ( -1.000000000000000000, 0.0000000000000000000, 1.224646799147352961E-16 ) ) ;
#225 = FACE_OUTER_BOUND ( 'NONE', #173, .T. ) ;
#226 = AXIS2_PLACEMENT_3D ( 'NONE', #296, #244, #21 ) ;
#227 = DIRECTION ( 'NONE',  ( -1.000000000000000000, 0.0000000000000000000, 1.224646799147352961E-16 ) ) ;
#228 = CARTESIAN_POINT ( 'NONE',  ( -0.1724999999999995981, 0.0000000000000000000, 2.500000000000000000 ) ) ;
#229 = CARTESIAN_POINT ( 'NONE',  ( -0.1724999999999995981, 0.0000000000000000000, 2.500000000000000000 ) ) ;
#230 = DIRECTION ( 'NONE',  ( -1.000000000000000000, 0.0000000000000000000, 1.224646799147352961E-16 ) ) ;
#231 = VECTOR ( 'NONE', #259, 39.37007874015748143 ) ;
#232 = CARTESIAN_POINT ( 'NONE',  ( -0.1875000000000000278, 0.0000000000000000000, 2.484999999999999432 ) ) ;
#233 = DIRECTION ( 'NONE',  ( 0.0000000000000000000, 0.0000000000000000000, 1.000000000000000000 ) ) ;
#234 = DIRECTION ( 'NONE',  ( 0.0000000000000000000, 0.0000000000000000000, 1.000000000000000000 ) ) ;
#235 = ORIENTED_EDGE ( 'NONE', *, *, #79, .T. ) ;
#236 = EDGE_CURVE ( 'NONE', #105, #155, #45, .T. ) ;
#237 = DIRECTION ( 'NONE',  ( 1.000000000000000000, 0.0000000000000000000, 0.0000000000000000000 ) ) ;
#238 = ORIENTED_EDGE ( 'NONE', *, *, #117, .T. ) ;
#239 = ORIENTED_EDGE ( 'NONE', *, *, #2, .T. ) ;
#240 = CARTESIAN_POINT ( 'NONE',  ( 0.1875000000000000278, 2.296212748401287726E-17, 2.484999999999999432 ) ) ;
#241 = AXIS2_PLACEMENT_3D ( 'NONE', #75, #233, #99 ) ;
#242 = PRESENTATION_LAYER_ASSIGNMENT (  '', '', ( #184 ) ) ;
#243 = DIRECTION ( 'NONE',  ( -1.224646799147353207E-16, -0.0000000000000000000, -1.000000000000000000 ) ) ;
#244 = DIRECTION ( 'NONE',  ( 0.0000000000000000000, 0.0000000000000000000, -1.000000000000000000 ) ) ;
#245 = EDGE_CURVE ( 'NONE', #162, #291, #8, .T. ) ;
#246 = PLANE ( 'NONE',  #170 ) ;
#247 = CONICAL_SURFACE ( 'NONE', #270, 0.1873125000000000207, 0.1745329251994338915 ) ;
#248 = DIRECTION ( 'NONE',  ( 1.000000000000000000, 0.0000000000000000000, 0.0000000000000000000 ) ) ;
#249 = CARTESIAN_POINT ( 'NONE',  ( -0.1873124999999999096, 2.293916535652885904E-17, 0.8750000000000000000 ) ) ;
#250 = DIMENSIONAL_EXPONENTS ( 1.000000000000000000, 0.0000000000000000000, 0.0000000000000000000, 0.0000000000000000000, 0.0000000000000000000, 0.0000000000000000000, 0.0000000000000000000 ) ;
#251 = CYLINDRICAL_SURFACE ( 'NONE', #51, 0.1875000000000000278 ) ;
#252 = ADVANCED_FACE ( 'NONE', ( #282 ), #251, .T. ) ;
#253 =( CONVERSION_BASED_UNIT ( 'INCH', #168 ) LENGTH_UNIT ( ) NAMED_UNIT ( #5 ) );
#254 =( NAMED_UNIT ( * ) PLANE_ANGLE_UNIT ( ) SI_UNIT ( $, .RADIAN. ) );
#255 = EDGE_CURVE ( 'NONE', #78, #291, #213, .T. ) ;
#256 = CARTESIAN_POINT ( 'NONE',  ( -0.1875000000000000278, 0.0000000000000000000, 2.500000000000000000 ) ) ;
#257 =( LENGTH_UNIT ( ) NAMED_UNIT ( * ) SI_UNIT ( $, .METRE. ) );
#258 = EDGE_LOOP ( 'NONE', ( #16, #238, #57, #22 ) ) ;
#259 = DIRECTION ( 'NONE',  ( -0.0000000000000000000, -0.0000000000000000000, -1.000000000000000000 ) ) ;
#260 = EDGE_CURVE ( 'NONE', #137, #291, #207, .T. ) ;
#261 = CARTESIAN_POINT ( 'NONE',  ( 0.1875000000000000278, 2.296212748401287726E-17, 2.500000000000000000 ) ) ;
#262 = ORIENTED_EDGE ( 'NONE', *, *, #255, .T. ) ;
#263 = APPLICATION_PROTOCOL_DEFINITION ( 'draft international standard', 'automotive_design', 1998, #163 ) ;
#264 = EDGE_LOOP ( 'NONE', ( #131, #287, #130, #38 ) ) ;
#265 = CIRCLE ( 'NONE', #285, 0.1724999999999995981 ) ;
#266 = EDGE_CURVE ( 'NONE', #62, #78, #100, .T. ) ;
#267 = ORIENTED_EDGE ( 'NONE', *, *, #179, .F. ) ;
#268 = CARTESIAN_POINT ( 'NONE',  ( 0.1873124999999999929, 2.293916535652885596E-17, 0.0000000000000000000 ) ) ;
#269 = CARTESIAN_POINT ( 'NONE',  ( 0.1875000000000000833, 2.296212748401288650E-17, 0.8760633653411783461 ) ) ;
#270 = AXIS2_PLACEMENT_3D ( 'NONE', #121, #140, #74 ) ;
#271 =( GEOMETRIC_REPRESENTATION_CONTEXT ( 3 ) GLOBAL_UNCERTAINTY_ASSIGNED_CONTEXT ( ( #157 ) ) GLOBAL_UNIT_ASSIGNED_CONTEXT ( ( #35, #218, #150 ) ) REPRESENTATION_CONTEXT ( 'NONE', 'WORKASPACE' ) );
#272 = CARTESIAN_POINT ( 'NONE',  ( 1.072868196215332272E-16, 0.0000000000000000000, 0.8760633653411783461 ) ) ;
#273 = FACE_OUTER_BOUND ( 'NONE', #264, .T. ) ;
#274 = CARTESIAN_POINT ( 'NONE',  ( 0.1724999999999995981, 2.204364238465233357E-17, 2.500000000000000000 ) ) ;
#275 = CIRCLE ( 'NONE', #211, 0.1873125000000000207 ) ;
#276 =( GEOMETRIC_REPRESENTATION_CONTEXT ( 3 ) GLOBAL_UNCERTAINTY_ASSIGNED_CONTEXT ( ( #293 ) ) GLOBAL_UNIT_ASSIGNED_CONTEXT ( ( #149, #214, #194 ) ) REPRESENTATION_CONTEXT ( 'NONE', 'WORKASPACE' ) );
#277 = CARTESIAN_POINT ( 'NONE',  ( 0.0000000000000000000, 0.0000000000000000000, 0.0000000000000000000 ) ) ;
#278 = FILL_AREA_STYLE_COLOUR ( '', #68 ) ;
#279 = VECTOR ( 'NONE', #43, 39.37007874015748854 ) ;
#280 = CARTESIAN_POINT ( 'NONE',  ( 0.0000000000000000000, 0.0000000000000000000, 2.500000000000000000 ) ) ;
#281 = AXIS2_PLACEMENT_3D ( 'NONE', #114, #118, #204 ) ;
#282 = FACE_OUTER_BOUND ( 'NONE', #199, .T. ) ;
#283 = CARTESIAN_POINT ( 'NONE',  ( -0.1874999999999999167, 0.0000000000000000000, 0.8760633653411783461 ) ) ;
#284 = ORIENTED_EDGE ( 'NONE', *, *, #219, .T. ) ;
#285 = AXIS2_PLACEMENT_3D ( 'NONE', #24, #28, #171 ) ;
#286 = PRODUCT_DEFINITION_SHAPE ( 'NONE', 'NONE',  #53 ) ;
#287 = ORIENTED_EDGE ( 'NONE', *, *, #164, .F. ) ;
#288 = LINE ( 'NONE', #15, #18 ) ;
#289 = ORIENTED_EDGE ( 'NONE', *, *, #236, .T. ) ;
#290 = EDGE_CURVE ( 'NONE', #137, #12, #288, .T. ) ;
#291 = VERTEX_POINT ( 'NONE', #283 ) ;
#292 = AXIS2_PLACEMENT_3D ( 'NONE', #48, #234, #145 ) ;
#293 = UNCERTAINTY_MEASURE_WITH_UNIT (LENGTH_MEASURE( 1.000000000000000082E-05 ), #149, 'distance_accuracy_value', 'NONE');
#294 = ORIENTED_EDGE ( 'NONE', *, *, #255, .F. ) ;
#295 = CYLINDRICAL_SURFACE ( 'NONE', #109, 0.1873124999999999929 ) ;
#296 = CARTESIAN_POINT ( 'NONE',  ( 0.0000000000000000000, 0.0000000000000000000, 2.500000000000000000 ) ) ;
#297 = DIRECTION ( 'NONE',  ( -1.224646799147353207E-16, -0.0000000000000000000, -1.000000000000000000 ) ) ;
#298 = DIRECTION ( 'NONE',  ( 0.1736481776669313859, 0.0000000000000000000, 0.9848077530122077983 ) ) ;
#299 = EDGE_CURVE ( 'NONE', #12, #101, #153, .T. ) ;
ENDSEC;
END-ISO-10303-21;
