ISO-10303-21;
HEADER;
FILE_DESCRIPTION (( 'STEP AP214' ),
    '1' );
FILE_NAME ('Micro_SFPM-100-30.STEP',
    '2021-09-02T07:44:25',
    ( '' ),
    ( '' ),
    'SwSTEP 2.0',
    'SolidWorks 2020',
    '' );
FILE_SCHEMA (( 'AUTOMOTIVE_DESIGN' ));
ENDSEC;

DATA;
#1 = DIRECTION ( 'NONE',  ( -1.000000000000000000, 0.0000000000000000000, 1.224646799147353207E-16 ) ) ;
#2 = ORIENTED_EDGE ( 'NONE', *, *, #288, .F. ) ;
#3 = AXIS2_PLACEMENT_3D ( 'NONE', #214, #216, #18 ) ;
#4 = DIRECTION ( 'NONE',  ( -1.224646799147353207E-16, -0.0000000000000000000, -1.000000000000000000 ) ) ;
#5 = FACE_OUTER_BOUND ( 'NONE', #166, .T. ) ;
#6 =( NAMED_UNIT ( * ) SI_UNIT ( $, .STERADIAN. ) SOLID_ANGLE_UNIT ( ) );
#7 = CARTESIAN_POINT ( 'NONE',  ( -0.1966536495000000273, 0.0000000000000000000, 2.408312624008205478E-17 ) ) ;
#8 = VECTOR ( 'NONE', #76, 39.37007874015748143 ) ;
#9 = DIRECTION ( 'NONE',  ( -1.000000000000000000, 0.0000000000000000000, 1.224646799147353207E-16 ) ) ;
#10 = DIRECTION ( 'NONE',  ( -0.0000000000000000000, -0.0000000000000000000, -1.000000000000000000 ) ) ;
#11 = ORIENTED_EDGE ( 'NONE', *, *, #273, .F. ) ;
#12 = AXIS2_PLACEMENT_3D ( 'NONE', #115, #4, #87 ) ;
#13 =( NAMED_UNIT ( * ) SI_UNIT ( $, .STERADIAN. ) SOLID_ANGLE_UNIT ( ) );
#14 = LENGTH_MEASURE_WITH_UNIT ( LENGTH_MEASURE( 0.02539999999999999897 ), #296 );
#15 = DIRECTION ( 'NONE',  ( -1.000000000000000000, 0.0000000000000000000, 0.0000000000000000000 ) ) ;
#16 = EDGE_LOOP ( 'NONE', ( #231, #198, #68, #287 ) ) ;
#17 = STYLED_ITEM ( 'NONE', ( #177 ), #110 ) ;
#18 = DIRECTION ( 'NONE',  ( -1.000000000000000000, 0.0000000000000000000, 0.0000000000000000000 ) ) ;
#19 = PRESENTATION_STYLE_ASSIGNMENT (( #150 ) ) ;
#20 = CARTESIAN_POINT ( 'NONE',  ( 1.446432783766537245E-16, 0.0000000000000000000, 1.181102000000000096 ) ) ;
#21 = VECTOR ( 'NONE', #167, 39.37007874015748143 ) ;
#22 = AXIS2_PLACEMENT_3D ( 'NONE', #67, #251, #255 ) ;
#23 = ORIENTED_EDGE ( 'NONE', *, *, #233, .F. ) ;
#24 =( LENGTH_UNIT ( ) NAMED_UNIT ( * ) SI_UNIT ( $, .METRE. ) );
#25 = EDGE_LOOP ( 'NONE', ( #239, #114, #84, #259 ) ) ;
#26 = AXIS2_PLACEMENT_3D ( 'NONE', #128, #46, #1 ) ;
#27 = LINE ( 'NONE', #203, #211 ) ;
#28 = VERTEX_POINT ( 'NONE', #263 ) ;
#29 = FACE_OUTER_BOUND ( 'NONE', #186, .T. ) ;
#30 = FACE_OUTER_BOUND ( 'NONE', #237, .T. ) ;
#31 = ORIENTED_EDGE ( 'NONE', *, *, #295, .T. ) ;
#32 = FILL_AREA_STYLE_COLOUR ( '', #227 ) ;
#33 = DIRECTION ( 'NONE',  ( -1.224646799147353207E-16, -0.0000000000000000000, -1.000000000000000000 ) ) ;
#34 = EDGE_CURVE ( 'NONE', #48, #28, #240, .T. ) ;
#35 = EDGE_CURVE ( 'NONE', #111, #206, #112, .T. ) ;
#36 = AXIS2_PLACEMENT_3D ( 'NONE', #185, #33, #9 ) ;
#37 = DIRECTION ( 'NONE',  ( 1.000000000000000000, 0.0000000000000000000, 0.0000000000000000000 ) ) ;
#38 = EDGE_LOOP ( 'NONE', ( #11, #116, #137, #100 ) ) ;
#39 = EDGE_CURVE ( 'NONE', #59, #229, #213, .T. ) ;
#40 = EDGE_CURVE ( 'NONE', #247, #28, #85, .T. ) ;
#41 = PRODUCT_DEFINITION_SHAPE ( 'NONE', 'NONE',  #135 ) ;
#42 = DIRECTION ( 'NONE',  ( -0.0000000000000000000, -0.0000000000000000000, -1.000000000000000000 ) ) ;
#43 = DIRECTION ( 'NONE',  ( -1.000000000000000000, 0.0000000000000000000, 0.0000000000000000000 ) ) ;
#44 = AXIS2_PLACEMENT_3D ( 'NONE', #172, #299, #162 ) ;
#45 = DIRECTION ( 'NONE',  ( 1.000000000000000000, 0.0000000000000000000, 0.0000000000000000000 ) ) ;
#46 = DIRECTION ( 'NONE',  ( -1.224646799147353207E-16, -0.0000000000000000000, -1.000000000000000000 ) ) ;
#47 = ADVANCED_FACE ( 'NONE', ( #267 ), #72, .T. ) ;
#48 = VERTEX_POINT ( 'NONE', #171 ) ;
#49 = EDGE_CURVE ( 'NONE', #59, #28, #271, .T. ) ;
#50 = EDGE_CURVE ( 'NONE', #48, #105, #133, .T. ) ;
#51 = CARTESIAN_POINT ( 'NONE',  ( 0.0000000000000000000, 0.0000000000000000000, 0.0000000000000000000 ) ) ;
#52 = ORIENTED_EDGE ( 'NONE', *, *, #298, .T. ) ;
#53 = AXIS2_PLACEMENT_3D ( 'NONE', #210, #10, #73 ) ;
#54 = LINE ( 'NONE', #163, #270 ) ;
#55 = CYLINDRICAL_SURFACE ( 'NONE', #225, 0.1968504999999999838 ) ;
#56 = ORIENTED_EDGE ( 'NONE', *, *, #291, .F. ) ;
#57 = DIRECTION ( 'NONE',  ( 0.7071067811865290320, 8.659560562354704828E-17, -0.7071067811865660024 ) ) ;
#58 = STYLED_ITEM ( 'NONE', ( #19 ), #83 ) ;
#59 = VERTEX_POINT ( 'NONE', #107 ) ;
#60 = DIRECTION ( 'NONE',  ( -1.000000000000000000, 0.0000000000000000000, 0.0000000000000000000 ) ) ;
#61 = MECHANICAL_DESIGN_GEOMETRIC_PRESENTATION_REPRESENTATION (  '', ( #58 ), #75 ) ;
#62 = DIRECTION ( 'NONE',  ( 0.0000000000000000000, 0.0000000000000000000, 1.000000000000000000 ) ) ;
#63 = CARTESIAN_POINT ( 'NONE',  ( 0.0000000000000000000, 0.0000000000000000000, 5.905511999999999873 ) ) ;
#64 = DIRECTION ( 'NONE',  ( -1.224646799147353207E-16, -0.0000000000000000000, -1.000000000000000000 ) ) ;
#65 = SURFACE_STYLE_FILL_AREA ( #124 ) ;
#66 = EDGE_CURVE ( 'NONE', #229, #247, #194, .T. ) ;
#67 = CARTESIAN_POINT ( 'NONE',  ( 0.0000000000000000000, 0.0000000000000000000, 5.890511999999999304 ) ) ;
#68 = ORIENTED_EDGE ( 'NONE', *, *, #34, .T. ) ;
#69 = CARTESIAN_POINT ( 'NONE',  ( -0.1966536494999999996, 0.0000000000000000000, 4.816625248016410340E-17 ) ) ;
#70 = ORIENTED_EDGE ( 'NONE', *, *, #40, .T. ) ;
#71 = LENGTH_MEASURE_WITH_UNIT ( LENGTH_MEASURE( 0.02539999999999999897 ), #256 );
#72 = CONICAL_SURFACE ( 'NONE', #130, 0.1818504999999999705, 0.7853981633974221888 ) ;
#73 = DIRECTION ( 'NONE',  ( -1.000000000000000000, 0.0000000000000000000, 0.0000000000000000000 ) ) ;
#74 = CARTESIAN_POINT ( 'NONE',  ( -0.1968504999999998450, 0.0000000000000000000, 1.182218394661832317 ) ) ;
#75 =( GEOMETRIC_REPRESENTATION_CONTEXT ( 3 ) GLOBAL_UNCERTAINTY_ASSIGNED_CONTEXT ( ( #200 ) ) GLOBAL_UNIT_ASSIGNED_CONTEXT ( ( #102, #125, #127 ) ) REPRESENTATION_CONTEXT ( 'NONE', 'WORKASPACE' ) );
#76 = DIRECTION ( 'NONE',  ( -0.0000000000000000000, -0.0000000000000000000, -1.000000000000000000 ) ) ;
#77 = AXIS2_PLACEMENT_3D ( 'NONE', #51, #279, #232 ) ;
#78 = ADVANCED_FACE ( 'NONE', ( #294 ), #152, .T. ) ;
#79 = ORIENTED_EDGE ( 'NONE', *, *, #182, .T. ) ;
#80 = DIRECTION ( 'NONE',  ( 1.224646799147353207E-16, 0.0000000000000000000, 1.000000000000000000 ) ) ;
#81 = VECTOR ( 'NONE', #277, 39.37007874015748143 ) ;
#82 = DIRECTION ( 'NONE',  ( -1.000000000000000000, 0.0000000000000000000, 1.224646799147353207E-16 ) ) ;
#83 = MANIFOLD_SOLID_BREP ( 'Cut-Revolve1', #281 ) ;
#84 = ORIENTED_EDGE ( 'NONE', *, *, #269, .F. ) ;
#85 = CIRCLE ( 'NONE', #250, 0.1968504999999999838 ) ;
#86 = DIRECTION ( 'NONE',  ( 0.0000000000000000000, 0.0000000000000000000, 1.000000000000000000 ) ) ;
#87 = DIRECTION ( 'NONE',  ( -1.000000000000000000, 0.0000000000000000000, 1.224646799147353207E-16 ) ) ;
#88 = ORIENTED_EDGE ( 'NONE', *, *, #40, .F. ) ;
#89 = DIMENSIONAL_EXPONENTS ( 1.000000000000000000, 0.0000000000000000000, 0.0000000000000000000, 0.0000000000000000000, 0.0000000000000000000, 0.0000000000000000000, 0.0000000000000000000 ) ;
#90 = CYLINDRICAL_SURFACE ( 'NONE', #36, 0.1966536495000000273 ) ;
#91 = EDGE_LOOP ( 'NONE', ( #31, #106 ) ) ;
#92 = SURFACE_SIDE_STYLE ('',( #272 ) ) ;
#93 = DIRECTION ( 'NONE',  ( -1.224646799147353207E-16, -0.0000000000000000000, -1.000000000000000000 ) ) ;
#94 = CARTESIAN_POINT ( 'NONE',  ( 0.0000000000000000000, 0.0000000000000000000, 5.905511999999999873 ) ) ;
#95 = PRODUCT_CONTEXT ( 'NONE', #148, 'mechanical' ) ;
#96 = DIRECTION ( 'NONE',  ( -0.0000000000000000000, -0.0000000000000000000, -1.000000000000000000 ) ) ;
#97 = FACE_OUTER_BOUND ( 'NONE', #222, .T. ) ;
#98 = EDGE_CURVE ( 'NONE', #28, #247, #235, .T. ) ;
#99 = CONICAL_SURFACE ( 'NONE', #282, 0.1966536495000000273, 0.1745329251994338915 ) ;
#100 = ORIENTED_EDGE ( 'NONE', *, *, #39, .F. ) ;
#101 = CIRCLE ( 'NONE', #22, 0.1968504999999999838 ) ;
#102 =( CONVERSION_BASED_UNIT ( 'INCH', #14 ) LENGTH_UNIT ( ) NAMED_UNIT ( #191 ) );
#103 = APPLICATION_PROTOCOL_DEFINITION ( 'draft international standard', 'automotive_design', 1998, #164 ) ;
#104 = ADVANCED_FACE ( 'NONE', ( #29 ), #238, .T. ) ;
#105 = VERTEX_POINT ( 'NONE', #175 ) ;
#106 = ORIENTED_EDGE ( 'NONE', *, *, #288, .T. ) ;
#107 = CARTESIAN_POINT ( 'NONE',  ( 0.1968504999999999838, 2.410723347355560646E-17, 5.890511999999999304 ) ) ;
#108 = ADVANCED_FACE ( 'NONE', ( #290 ), #286, .T. ) ;
#109 = ORIENTED_EDGE ( 'NONE', *, *, #269, .T. ) ;
#110 = ADVANCED_BREP_SHAPE_REPRESENTATION ( 'Micro_SFPM-100-30', ( #83, #283 ), #179 ) ;
#111 = VERTEX_POINT ( 'NONE', #144 ) ;
#112 = CIRCLE ( 'NONE', #249, 0.1818504999999999705 ) ;
#113 = DIRECTION ( 'NONE',  ( -0.1736481776669311916, 2.126576849575783316E-17, 0.9848077530122080203 ) ) ;
#114 = ORIENTED_EDGE ( 'NONE', *, *, #273, .T. ) ;
#115 = CARTESIAN_POINT ( 'NONE',  ( 2.949332346337811403E-33, 0.0000000000000000000, 2.408312624008205170E-17 ) ) ;
#116 = ORIENTED_EDGE ( 'NONE', *, *, #35, .F. ) ;
#117 = CARTESIAN_POINT ( 'NONE',  ( -0.1968504999999999838, 0.0000000000000000000, 5.890511999999999304 ) ) ;
#118 = VECTOR ( 'NONE', #113, 39.37007874015747433 ) ;
#119 = AXIS2_PLACEMENT_3D ( 'NONE', #20, #289, #15 ) ;
#120 = CARTESIAN_POINT ( 'NONE',  ( -0.1966536494999999163, 2.408312624008205478E-17, 1.181102000000000096 ) ) ;
#121 = ADVANCED_FACE ( 'NONE', ( #220 ), #153, .T. ) ;
#122 = SHAPE_DEFINITION_REPRESENTATION ( #41, #110 ) ;
#123 = CIRCLE ( 'NONE', #297, 0.1966536494999999996 ) ;
#124 = FILL_AREA_STYLE ('',( #260 ) ) ;
#125 =( NAMED_UNIT ( * ) PLANE_ANGLE_UNIT ( ) SI_UNIT ( $, .RADIAN. ) );
#126 = ADVANCED_FACE ( 'NONE', ( #245 ), #136, .F. ) ;
#127 =( NAMED_UNIT ( * ) SI_UNIT ( $, .STERADIAN. ) SOLID_ANGLE_UNIT ( ) );
#128 = CARTESIAN_POINT ( 'NONE',  ( 0.0000000000000000000, 0.0000000000000000000, 0.0000000000000000000 ) ) ;
#129 = CARTESIAN_POINT ( 'NONE',  ( 0.1968504999999999838, 2.410723347355560646E-17, 5.905511999999999873 ) ) ;
#130 = AXIS2_PLACEMENT_3D ( 'NONE', #212, #293, #43 ) ;
#131 = EDGE_CURVE ( 'NONE', #206, #111, #242, .T. ) ;
#132 = DIRECTION ( 'NONE',  ( 0.0000000000000000000, 0.0000000000000000000, -1.000000000000000000 ) ) ;
#133 = CIRCLE ( 'NONE', #3, 0.1966536495000000273 ) ;
#134 = DIMENSIONAL_EXPONENTS ( 1.000000000000000000, 0.0000000000000000000, 0.0000000000000000000, 0.0000000000000000000, 0.0000000000000000000, 0.0000000000000000000, 0.0000000000000000000 ) ;
#135 = PRODUCT_DEFINITION ( 'UNKNOWN', '', #219, #275 ) ;
#136 = PLANE ( 'NONE',  #77 ) ;
#137 = ORIENTED_EDGE ( 'NONE', *, *, #174, .T. ) ;
#138 = CYLINDRICAL_SURFACE ( 'NONE', #53, 0.1968504999999999838 ) ;
#139 = DIRECTION ( 'NONE',  ( 0.0000000000000000000, 0.0000000000000000000, 1.000000000000000000 ) ) ;
#140 = EDGE_LOOP ( 'NONE', ( #224, #156 ) ) ;
#141 = CARTESIAN_POINT ( 'NONE',  ( 1.446432783766537245E-16, 0.0000000000000000000, 1.181102000000000096 ) ) ;
#142 = DIRECTION ( 'NONE',  ( 0.0000000000000000000, 0.0000000000000000000, -1.000000000000000000 ) ) ;
#143 = CARTESIAN_POINT ( 'NONE',  ( 0.0000000000000000000, 0.0000000000000000000, 5.890511999999999304 ) ) ;
#144 = CARTESIAN_POINT ( 'NONE',  ( -0.1818504999999999705, 0.0000000000000000000, 5.905511999999999873 ) ) ;
#145 = COLOUR_RGB ( '',0.7921568627450980005, 0.8196078431372548767, 0.9333333333333333481 ) ;
#146 = CARTESIAN_POINT ( 'NONE',  ( 1.446432783766537245E-16, 0.0000000000000000000, 1.181102000000000096 ) ) ;
#147 = CARTESIAN_POINT ( 'NONE',  ( 1.447799972915735400E-16, 0.0000000000000000000, 1.182218394661832317 ) ) ;
#148 = APPLICATION_CONTEXT ( 'automotive_design' ) ;
#149 = CARTESIAN_POINT ( 'NONE',  ( 0.1966536495000001661, 0.0000000000000000000, 1.181102000000000096 ) ) ;
#150 = SURFACE_STYLE_USAGE ( .BOTH. , #292 ) ;
#151 = AXIS2_PLACEMENT_3D ( 'NONE', #168, #62, #221 ) ;
#152 = CONICAL_SURFACE ( 'NONE', #165, 0.1966536495000000273, 0.1745329251994338915 ) ;
#153 = PLANE ( 'NONE',  #151 ) ;
#154 = MECHANICAL_DESIGN_GEOMETRIC_PRESENTATION_REPRESENTATION (  '', ( #17 ), #215 ) ;
#155 = CARTESIAN_POINT ( 'NONE',  ( 2.949332346337811403E-33, 0.0000000000000000000, 2.408312624008205170E-17 ) ) ;
#156 = ORIENTED_EDGE ( 'NONE', *, *, #131, .T. ) ;
#157 = DIRECTION ( 'NONE',  ( -1.000000000000000000, 0.0000000000000000000, 0.0000000000000000000 ) ) ;
#158 = ORIENTED_EDGE ( 'NONE', *, *, #49, .T. ) ;
#159 = DIRECTION ( 'NONE',  ( 1.000000000000000000, 0.0000000000000000000, 0.0000000000000000000 ) ) ;
#160 = ORIENTED_EDGE ( 'NONE', *, *, #49, .F. ) ;
#161 = SURFACE_STYLE_USAGE ( .BOTH. , #92 ) ;
#162 = DIRECTION ( 'NONE',  ( 1.000000000000000000, 0.0000000000000000000, 0.0000000000000000000 ) ) ;
#163 = CARTESIAN_POINT ( 'NONE',  ( 0.1818504999999999705, 2.227026327483457147E-17, 5.905511999999999873 ) ) ;
#164 = APPLICATION_CONTEXT ( 'automotive_design' ) ;
#165 = AXIS2_PLACEMENT_3D ( 'NONE', #146, #80, #234 ) ;
#166 = EDGE_LOOP ( 'NONE', ( #23, #188, #254, #2 ) ) ;
#167 = DIRECTION ( 'NONE',  ( 0.1736481776669313859, 0.0000000000000000000, 0.9848077530122077983 ) ) ;
#168 = CARTESIAN_POINT ( 'NONE',  ( 0.0000000000000000000, 0.0000000000000000000, 5.905511999999999873 ) ) ;
#169 = PRESENTATION_LAYER_ASSIGNMENT (  '', '', ( #58 ) ) ;
#170 = DIRECTION ( 'NONE',  ( 1.000000000000000000, 0.0000000000000000000, 0.0000000000000000000 ) ) ;
#171 = CARTESIAN_POINT ( 'NONE',  ( 0.1966536495000001661, 0.0000000000000000000, 1.181102000000000096 ) ) ;
#172 = CARTESIAN_POINT ( 'NONE',  ( 1.447799972915735400E-16, 0.0000000000000000000, 1.182218394661832317 ) ) ;
#173 = AXIS2_PLACEMENT_3D ( 'NONE', #94, #142, #60 ) ;
#174 = EDGE_CURVE ( 'NONE', #111, #229, #27, .T. ) ;
#175 = CARTESIAN_POINT ( 'NONE',  ( -0.1966536494999999163, 2.409517985681882908E-17, 1.181102000000000096 ) ) ;
#176 = VECTOR ( 'NONE', #42, 39.37007874015748143 ) ;
#177 = PRESENTATION_STYLE_ASSIGNMENT (( #161 ) ) ;
#178 = ORIENTED_EDGE ( 'NONE', *, *, #66, .T. ) ;
#179 =( GEOMETRIC_REPRESENTATION_CONTEXT ( 3 ) GLOBAL_UNCERTAINTY_ASSIGNED_CONTEXT ( ( #184 ) ) GLOBAL_UNIT_ASSIGNED_CONTEXT ( ( #209, #248, #6 ) ) REPRESENTATION_CONTEXT ( 'NONE', 'WORKASPACE' ) );
#180 = DIRECTION ( 'NONE',  ( 1.000000000000000000, 0.0000000000000000000, 0.0000000000000000000 ) ) ;
#181 = DIRECTION ( 'NONE',  ( 1.224646799147353207E-16, 0.0000000000000000000, 1.000000000000000000 ) ) ;
#182 = EDGE_CURVE ( 'NONE', #105, #247, #284, .T. ) ;
#183 = VERTEX_POINT ( 'NONE', #69 ) ;
#184 = UNCERTAINTY_MEASURE_WITH_UNIT (LENGTH_MEASURE( 1.000000000000000082E-05 ), #209, 'distance_accuracy_value', 'NONE');
#185 = CARTESIAN_POINT ( 'NONE',  ( 0.0000000000000000000, 0.0000000000000000000, 0.0000000000000000000 ) ) ;
#186 = EDGE_LOOP ( 'NONE', ( #52, #193, #265, #56 ) ) ;
#187 = FACE_OUTER_BOUND ( 'NONE', #208, .T. ) ;
#188 = ORIENTED_EDGE ( 'NONE', *, *, #50, .T. ) ;
#189 = CIRCLE ( 'NONE', #119, 0.1966536495000000273 ) ;
#190 = DIRECTION ( 'NONE',  ( -1.224646799147353207E-16, -0.0000000000000000000, -1.000000000000000000 ) ) ;
#191 = DIMENSIONAL_EXPONENTS ( 1.000000000000000000, 0.0000000000000000000, 0.0000000000000000000, 0.0000000000000000000, 0.0000000000000000000, 0.0000000000000000000, 0.0000000000000000000 ) ;
#192 = AXIS2_PLACEMENT_3D ( 'NONE', #226, #139, #159 ) ;
#193 = ORIENTED_EDGE ( 'NONE', *, *, #233, .T. ) ;
#194 = LINE ( 'NONE', #197, #8 ) ;
#195 = VECTOR ( 'NONE', #190, 39.37007874015748143 ) ;
#196 = DIRECTION ( 'NONE',  ( 1.000000000000000000, 0.0000000000000000000, 0.0000000000000000000 ) ) ;
#197 = CARTESIAN_POINT ( 'NONE',  ( -0.1968504999999999838, 0.0000000000000000000, 5.905511999999999873 ) ) ;
#198 = ORIENTED_EDGE ( 'NONE', *, *, #50, .F. ) ;
#199 = ADVANCED_FACE ( 'NONE', ( #5 ), #90, .T. ) ;
#200 = UNCERTAINTY_MEASURE_WITH_UNIT (LENGTH_MEASURE( 1.000000000000000082E-05 ), #102, 'distance_accuracy_value', 'NONE');
#201 =( CONVERSION_BASED_UNIT ( 'INCH', #217 ) LENGTH_UNIT ( ) NAMED_UNIT ( #89 ) );
#202 = ORIENTED_EDGE ( 'NONE', *, *, #298, .F. ) ;
#203 = CARTESIAN_POINT ( 'NONE',  ( -0.1818504999999999705, 0.0000000000000000000, 5.905511999999999873 ) ) ;
#204 = ORIENTED_EDGE ( 'NONE', *, *, #39, .T. ) ;
#205 = LINE ( 'NONE', #7, #81 ) ;
#206 = VERTEX_POINT ( 'NONE', #253 ) ;
#207 = LINE ( 'NONE', #246, #195 ) ;
#208 = EDGE_LOOP ( 'NONE', ( #202, #79, #70, #278 ) ) ;
#209 =( CONVERSION_BASED_UNIT ( 'INCH', #71 ) LENGTH_UNIT ( ) NAMED_UNIT ( #134 ) );
#210 = CARTESIAN_POINT ( 'NONE',  ( 0.0000000000000000000, 0.0000000000000000000, 5.905511999999999873 ) ) ;
#211 = VECTOR ( 'NONE', #230, 39.37007874015748143 ) ;
#212 = CARTESIAN_POINT ( 'NONE',  ( 0.0000000000000000000, 0.0000000000000000000, 5.905511999999999873 ) ) ;
#213 = CIRCLE ( 'NONE', #258, 0.1968504999999999838 ) ;
#214 = CARTESIAN_POINT ( 'NONE',  ( 1.446432783766537245E-16, 0.0000000000000000000, 1.181102000000000096 ) ) ;
#215 =( GEOMETRIC_REPRESENTATION_CONTEXT ( 3 ) GLOBAL_UNCERTAINTY_ASSIGNED_CONTEXT ( ( #268 ) ) GLOBAL_UNIT_ASSIGNED_CONTEXT ( ( #201, #241, #13 ) ) REPRESENTATION_CONTEXT ( 'NONE', 'WORKASPACE' ) );
#216 = DIRECTION ( 'NONE',  ( -1.224646799147353207E-16, -0.0000000000000000000, -1.000000000000000000 ) ) ;
#217 = LENGTH_MEASURE_WITH_UNIT ( LENGTH_MEASURE( 0.02539999999999999897 ), #24 );
#218 = CIRCLE ( 'NONE', #12, 0.1966536494999999996 ) ;
#219 = PRODUCT_DEFINITION_FORMATION_WITH_SPECIFIED_SOURCE ( 'ANY', '', #266, .NOT_KNOWN. ) ;
#220 = FACE_OUTER_BOUND ( 'NONE', #140, .T. ) ;
#221 = DIRECTION ( 'NONE',  ( 1.000000000000000000, 0.0000000000000000000, -0.0000000000000000000 ) ) ;
#222 = EDGE_LOOP ( 'NONE', ( #109, #158, #88, #280 ) ) ;
#223 = ADVANCED_FACE ( 'NONE', ( #30 ), #55, .T. ) ;
#224 = ORIENTED_EDGE ( 'NONE', *, *, #35, .T. ) ;
#225 = AXIS2_PLACEMENT_3D ( 'NONE', #228, #96, #157 ) ;
#226 = CARTESIAN_POINT ( 'NONE',  ( 0.0000000000000000000, 0.0000000000000000000, 5.905511999999999873 ) ) ;
#227 = COLOUR_RGB ( '',0.7921568627450980005, 0.8196078431372548767, 0.9333333333333333481 ) ;
#228 = CARTESIAN_POINT ( 'NONE',  ( 0.0000000000000000000, 0.0000000000000000000, 5.905511999999999873 ) ) ;
#229 = VERTEX_POINT ( 'NONE', #117 ) ;
#230 = DIRECTION ( 'NONE',  ( -0.7071067811865290320, 0.0000000000000000000, -0.7071067811865660024 ) ) ;
#231 = ORIENTED_EDGE ( 'NONE', *, *, #182, .F. ) ;
#232 = DIRECTION ( 'NONE',  ( 1.000000000000000000, 0.0000000000000000000, -0.0000000000000000000 ) ) ;
#233 = EDGE_CURVE ( 'NONE', #48, #244, #207, .T. ) ;
#234 = DIRECTION ( 'NONE',  ( 1.000000000000000000, 0.0000000000000000000, 0.0000000000000000000 ) ) ;
#235 = CIRCLE ( 'NONE', #44, 0.1968504999999999838 ) ;
#236 = DIRECTION ( 'NONE',  ( 0.0000000000000000000, 0.0000000000000000000, 1.000000000000000000 ) ) ;
#237 = EDGE_LOOP ( 'NONE', ( #160, #204, #178, #252 ) ) ;
#238 = CYLINDRICAL_SURFACE ( 'NONE', #26, 0.1966536495000000273 ) ;
#239 = ORIENTED_EDGE ( 'NONE', *, *, #131, .F. ) ;
#240 = LINE ( 'NONE', #149, #21 ) ;
#241 =( NAMED_UNIT ( * ) PLANE_ANGLE_UNIT ( ) SI_UNIT ( $, .RADIAN. ) );
#242 = CIRCLE ( 'NONE', #192, 0.1818504999999999705 ) ;
#243 = ADVANCED_FACE ( 'NONE', ( #187 ), #99, .T. ) ;
#244 = VERTEX_POINT ( 'NONE', #285 ) ;
#245 = FACE_OUTER_BOUND ( 'NONE', #91, .T. ) ;
#246 = CARTESIAN_POINT ( 'NONE',  ( 0.1966536495000000273, 2.408312624008205478E-17, -2.408312624008205478E-17 ) ) ;
#247 = VERTEX_POINT ( 'NONE', #74 ) ;
#248 =( NAMED_UNIT ( * ) PLANE_ANGLE_UNIT ( ) SI_UNIT ( $, .RADIAN. ) );
#249 = AXIS2_PLACEMENT_3D ( 'NONE', #63, #236, #45 ) ;
#250 = AXIS2_PLACEMENT_3D ( 'NONE', #147, #64, #196 ) ;
#251 = DIRECTION ( 'NONE',  ( 0.0000000000000000000, 0.0000000000000000000, -1.000000000000000000 ) ) ;
#252 = ORIENTED_EDGE ( 'NONE', *, *, #98, .F. ) ;
#253 = CARTESIAN_POINT ( 'NONE',  ( 0.1818504999999999705, 2.318874837419509050E-17, 5.905511999999999873 ) ) ;
#254 = ORIENTED_EDGE ( 'NONE', *, *, #291, .T. ) ;
#255 = DIRECTION ( 'NONE',  ( 1.000000000000000000, 0.0000000000000000000, 0.0000000000000000000 ) ) ;
#256 =( LENGTH_UNIT ( ) NAMED_UNIT ( * ) SI_UNIT ( $, .METRE. ) );
#257 = APPLICATION_PROTOCOL_DEFINITION ( 'draft international standard', 'automotive_design', 1998, #148 ) ;
#258 = AXIS2_PLACEMENT_3D ( 'NONE', #143, #132, #170 ) ;
#259 = ORIENTED_EDGE ( 'NONE', *, *, #174, .F. ) ;
#260 = FILL_AREA_STYLE_COLOUR ( '', #145 ) ;
#261 = FILL_AREA_STYLE ('',( #32 ) ) ;
#262 = PRESENTATION_LAYER_ASSIGNMENT (  '', '', ( #17 ) ) ;
#263 = CARTESIAN_POINT ( 'NONE',  ( 0.1968505000000001226, 2.410723347355561878E-17, 1.182218394661832317 ) ) ;
#264 = PRODUCT_RELATED_PRODUCT_CATEGORY ( 'part', '', ( #266 ) ) ;
#265 = ORIENTED_EDGE ( 'NONE', *, *, #295, .F. ) ;
#266 = PRODUCT ( 'Micro_SFPM-100-30', 'Micro_SFPM-100-30', '', ( #95 ) ) ;
#267 = FACE_OUTER_BOUND ( 'NONE', #38, .T. ) ;
#268 = UNCERTAINTY_MEASURE_WITH_UNIT (LENGTH_MEASURE( 1.000000000000000082E-05 ), #201, 'distance_accuracy_value', 'NONE');
#269 = EDGE_CURVE ( 'NONE', #229, #59, #101, .T. ) ;
#270 = VECTOR ( 'NONE', #57, 39.37007874015748143 ) ;
#271 = LINE ( 'NONE', #129, #176 ) ;
#272 = SURFACE_STYLE_FILL_AREA ( #261 ) ;
#273 = EDGE_CURVE ( 'NONE', #206, #59, #54, .T. ) ;
#274 = ADVANCED_FACE ( 'NONE', ( #97 ), #138, .T. ) ;
#275 = PRODUCT_DEFINITION_CONTEXT ( 'detailed design', #164, 'design' ) ;
#276 = CARTESIAN_POINT ( 'NONE',  ( 0.0000000000000000000, 0.0000000000000000000, 0.0000000000000000000 ) ) ;
#277 = DIRECTION ( 'NONE',  ( -1.224646799147353207E-16, -0.0000000000000000000, -1.000000000000000000 ) ) ;
#278 = ORIENTED_EDGE ( 'NONE', *, *, #34, .F. ) ;
#279 = DIRECTION ( 'NONE',  ( 0.0000000000000000000, 0.0000000000000000000, 1.000000000000000000 ) ) ;
#280 = ORIENTED_EDGE ( 'NONE', *, *, #66, .F. ) ;
#281 = CLOSED_SHELL ( 'NONE', ( #104, #243, #108, #274, #223, #121, #47, #78, #199, #126 ) ) ;
#282 = AXIS2_PLACEMENT_3D ( 'NONE', #141, #181, #37 ) ;
#283 = AXIS2_PLACEMENT_3D ( 'NONE', #276, #86, #180 ) ;
#284 = LINE ( 'NONE', #120, #118 ) ;
#285 = CARTESIAN_POINT ( 'NONE',  ( 0.1966536494999999996, 2.408312624008205170E-17, 3.791200677927629740E-33 ) ) ;
#286 = CONICAL_SURFACE ( 'NONE', #173, 0.1818504999999999705, 0.7853981633974221888 ) ;
#287 = ORIENTED_EDGE ( 'NONE', *, *, #98, .T. ) ;
#288 = EDGE_CURVE ( 'NONE', #244, #183, #218, .T. ) ;
#289 = DIRECTION ( 'NONE',  ( -1.224646799147353207E-16, -0.0000000000000000000, -1.000000000000000000 ) ) ;
#290 = FACE_OUTER_BOUND ( 'NONE', #25, .T. ) ;
#291 = EDGE_CURVE ( 'NONE', #105, #183, #205, .T. ) ;
#292 = SURFACE_SIDE_STYLE ('',( #65 ) ) ;
#293 = DIRECTION ( 'NONE',  ( 0.0000000000000000000, 0.0000000000000000000, -1.000000000000000000 ) ) ;
#294 = FACE_OUTER_BOUND ( 'NONE', #16, .T. ) ;
#295 = EDGE_CURVE ( 'NONE', #183, #244, #123, .T. ) ;
#296 =( LENGTH_UNIT ( ) NAMED_UNIT ( * ) SI_UNIT ( $, .METRE. ) );
#297 = AXIS2_PLACEMENT_3D ( 'NONE', #155, #93, #82 ) ;
#298 = EDGE_CURVE ( 'NONE', #105, #48, #189, .T. ) ;
#299 = DIRECTION ( 'NONE',  ( -1.224646799147353207E-16, -0.0000000000000000000, -1.000000000000000000 ) ) ;
ENDSEC;
END-ISO-10303-21;
