ISO-10303-21;
HEADER;
FILE_DESCRIPTION (( 'STEP AP214' ),
    '1' );
FILE_NAME ('07022.STEP',
    '2023-07-12T13:05:09',
    ( '' ),
    ( '' ),
    'SwSTEP 2.0',
    'SolidWorks 2023',
    '' );
FILE_SCHEMA (( 'AUTOMOTIVE_DESIGN' ));
ENDSEC;

DATA;
#1 =( NAMED_UNIT ( * ) PLANE_ANGLE_UNIT ( ) SI_UNIT ( $, .RADIAN. ) );
#2 = CIRCLE ( 'NONE', #61, 0.1874999999999996947 ) ;
#3 = DIMENSIONAL_EXPONENTS ( 1.000000000000000000, 0.000000000000000000, 0.000000000000000000, 0.000000000000000000, 0.000000000000000000, 0.000000000000000000, 0.000000000000000000 ) ;
#4 = ORIENTED_EDGE ( 'NONE', *, *, #137, .T. ) ;
#5 = EDGE_CURVE ( 'NONE', #303, #15, #45, .T. ) ;
#6 = PRESENTATION_LAYER_ASSIGNMENT (  '', '', ( #164 ) ) ;
#7 =( NAMED_UNIT ( * ) SI_UNIT ( $, .STERADIAN. ) SOLID_ANGLE_UNIT ( ) );
#8 = EDGE_CURVE ( 'NONE', #18, #303, #2, .T. ) ;
#9 = APPLICATION_CONTEXT ( 'automotive_design' ) ;
#10 =( NAMED_UNIT ( * ) PLANE_ANGLE_UNIT ( ) SI_UNIT ( $, .RADIAN. ) );
#11 = FILL_AREA_STYLE ('',( #115 ) ) ;
#12 = AXIS2_PLACEMENT_3D ( 'NONE', #134, #291, #202 ) ;
#13 = DIRECTION ( 'NONE',  ( -1.000000000000000000, 5.489477152233698413E-18, 0.000000000000000000 ) ) ;
#14 = EDGE_CURVE ( 'NONE', #303, #18, #197, .T. ) ;
#15 = VERTEX_POINT ( 'NONE', #220 ) ;
#16 = SHAPE_DEFINITION_REPRESENTATION ( #69, #287 ) ;
#17 = FILL_AREA_STYLE_COLOUR ( '', #81 ) ;
#18 = VERTEX_POINT ( 'NONE', #47 ) ;
#19 = CARTESIAN_POINT ( 'NONE',  ( 0.1874999999999999167, 2.500000000000000000, 2.296212748401285260E-17 ) ) ;
#20 = PRODUCT_DEFINITION_CONTEXT ( 'detailed design', #9, 'design' ) ;
#21 = CARTESIAN_POINT ( 'NONE',  ( 6.123233995736772199E-17, 2.500000000000000000, 0.000000000000000000 ) ) ;
#22 = SURFACE_SIDE_STYLE ('',( #237 ) ) ;
#23 = DIRECTION ( 'NONE',  ( -1.000000000000000000, 0.000000000000000000, 0.000000000000000000 ) ) ;
#24 = APPLICATION_PROTOCOL_DEFINITION ( 'draft international standard', 'automotive_design', 1998, #9 ) ;
#25 = EDGE_CURVE ( 'NONE', #15, #126, #75, .T. ) ;
#26 = EDGE_LOOP ( 'NONE', ( #52, #37 ) ) ;
#27 = CIRCLE ( 'NONE', #207, 0.1875000000000000555 ) ;
#28 = ORIENTED_EDGE ( 'NONE', *, *, #8, .T. ) ;
#29 = ORIENTED_EDGE ( 'NONE', *, *, #59, .T. ) ;
#30 = DIMENSIONAL_EXPONENTS ( 1.000000000000000000, 0.000000000000000000, 0.000000000000000000, 0.000000000000000000, 0.000000000000000000, 0.000000000000000000, 0.000000000000000000 ) ;
#31 = CYLINDRICAL_SURFACE ( 'NONE', #163, 0.1874999999999998335 ) ;
#32 = CARTESIAN_POINT ( 'NONE',  ( -0.1875000000000000555, 0.2641377481542530603, 0.000000000000000000 ) ) ;
#33 = DIRECTION ( 'NONE',  ( 0.5000000000000009992, 0.8660254037844379305, 6.123233995736778362E-17 ) ) ;
#34 = DIMENSIONAL_EXPONENTS ( 1.000000000000000000, 0.000000000000000000, 0.000000000000000000, 0.000000000000000000, 0.000000000000000000, 0.000000000000000000, 0.000000000000000000 ) ;
#35 =( LENGTH_UNIT ( ) NAMED_UNIT ( * ) SI_UNIT ( $, .METRE. ) );
#36 = CARTESIAN_POINT ( 'NONE',  ( 0.03500000000000000333, 0.000000000000000000, 4.286263797015735979E-18 ) ) ;
#37 = ORIENTED_EDGE ( 'NONE', *, *, #176, .F. ) ;
#38 = VERTEX_POINT ( 'NONE', #151 ) ;
#39 = UNCERTAINTY_MEASURE_WITH_UNIT (LENGTH_MEASURE( 1.000000000000000082E-05 ), #182, 'distance_accuracy_value', 'NONE');
#40 = PRODUCT ( '07022', '07022', '', ( #185 ) ) ;
#41 =( NAMED_UNIT ( * ) PLANE_ANGLE_UNIT ( ) SI_UNIT ( $, .RADIAN. ) );
#42 =( NAMED_UNIT ( * ) SI_UNIT ( $, .STERADIAN. ) SOLID_ANGLE_UNIT ( ) );
#43 = AXIS2_PLACEMENT_3D ( 'NONE', #180, #60, #152 ) ;
#44 = DIRECTION ( 'NONE',  ( 1.000000000000000000, 1.253425424662519065E-16, 0.000000000000000000 ) ) ;
#45 = LINE ( 'NONE', #171, #62 ) ;
#46 = DIRECTION ( 'NONE',  ( -5.489477152233698413E-18, -1.000000000000000000, -0.000000000000000000 ) ) ;
#47 = CARTESIAN_POINT ( 'NONE',  ( 0.1875000000000000555, 0.2641377481542530603, 2.296212748401286493E-17 ) ) ;
#48 = CARTESIAN_POINT ( 'NONE',  ( 1.449978133535230861E-18, 0.2641377481542530603, 0.000000000000000000 ) ) ;
#49 = MECHANICAL_DESIGN_GEOMETRIC_PRESENTATION_REPRESENTATION (  '', ( #123 ), #178 ) ;
#50 = CARTESIAN_POINT ( 'NONE',  ( 3.414809992080329023E-16, 0.2641377481542530603, 0.000000000000000000 ) ) ;
#51 = CONICAL_SURFACE ( 'NONE', #12, 0.03500000000000000333, 0.5235987755983001479 ) ;
#52 = ORIENTED_EDGE ( 'NONE', *, *, #137, .F. ) ;
#53 =( CONVERSION_BASED_UNIT ( 'INCH', #170 ) LENGTH_UNIT ( ) NAMED_UNIT ( #30 ) );
#54 =( GEOMETRIC_REPRESENTATION_CONTEXT ( 3 ) GLOBAL_UNCERTAINTY_ASSIGNED_CONTEXT ( ( #233 ) ) GLOBAL_UNIT_ASSIGNED_CONTEXT ( ( #188, #167, #42 ) ) REPRESENTATION_CONTEXT ( 'NONE', 'WORKASPACE' ) );
#55 = LENGTH_MEASURE_WITH_UNIT ( LENGTH_MEASURE( 0.02539999999999999897 ), #35 );
#56 = EDGE_LOOP ( 'NONE', ( #264, #154, #281, #245 ) ) ;
#57 = FILL_AREA_STYLE ('',( #199 ) ) ;
#58 = SURFACE_STYLE_USAGE ( .BOTH. , #133 ) ;
#59 = EDGE_CURVE ( 'NONE', #126, #15, #211, .T. ) ;
#60 = DIRECTION ( 'NONE',  ( -5.489477152233698413E-18, -1.000000000000000000, -0.000000000000000000 ) ) ;
#61 = AXIS2_PLACEMENT_3D ( 'NONE', #50, #279, #100 ) ;
#62 = VECTOR ( 'NONE', #65, 39.37007874015748143 ) ;
#63 = AXIS2_PLACEMENT_3D ( 'NONE', #48, #46, #308 ) ;
#64 = DIRECTION ( 'NONE',  ( 0.000000000000000000, 0.000000000000000000, 1.000000000000000000 ) ) ;
#65 = DIRECTION ( 'NONE',  ( -1.253425424662519065E-16, 1.000000000000000000, -0.000000000000000000 ) ) ;
#66 = CARTESIAN_POINT ( 'NONE',  ( 1.449978133535230861E-18, 0.2641377481542530603, 0.000000000000000000 ) ) ;
#67 = FILL_AREA_STYLE ('',( #17 ) ) ;
#68 = ORIENTED_EDGE ( 'NONE', *, *, #172, .T. ) ;
#69 = PRODUCT_DEFINITION_SHAPE ( 'NONE', 'NONE',  #92 ) ;
#70 = AXIS2_PLACEMENT_3D ( 'NONE', #262, #139, #13 ) ;
#71 = ADVANCED_FACE ( 'NONE', ( #244 ), #260, .T. ) ;
#72 = DIRECTION ( 'NONE',  ( -1.000000000000000000, -1.821231995776178437E-16, 0.000000000000000000 ) ) ;
#73 = EDGE_CURVE ( 'NONE', #38, #166, #231, .T. ) ;
#74 =( NAMED_UNIT ( * ) PLANE_ANGLE_UNIT ( ) SI_UNIT ( $, .RADIAN. ) );
#75 = CIRCLE ( 'NONE', #249, 0.1874999999999999722 ) ;
#76 = DIRECTION ( 'NONE',  ( -1.000000000000000000, -1.253425424662519065E-16, 0.000000000000000000 ) ) ;
#77 = PLANE ( 'NONE',  #88 ) ;
#78 = MANIFOLD_SOLID_BREP ( 'Revolve - Cutting Edge', #144 ) ;
#79 = STYLED_ITEM ( 'NONE', ( #204 ), #136 ) ;
#80 = FILL_AREA_STYLE ('',( #181 ) ) ;
#81 = COLOUR_RGB ( '',1.000000000000000000, 0.000000000000000000, 0.000000000000000000 ) ;
#82 =( NAMED_UNIT ( * ) SI_UNIT ( $, .STERADIAN. ) SOLID_ANGLE_UNIT ( ) );
#83 = SURFACE_SIDE_STYLE ('',( #269 ) ) ;
#84 = ORIENTED_EDGE ( 'NONE', *, *, #215, .T. ) ;
#85 = LINE ( 'NONE', #19, #288 ) ;
#86 = UNCERTAINTY_MEASURE_WITH_UNIT (LENGTH_MEASURE( 1.000000000000000082E-05 ), #230, 'distance_accuracy_value', 'NONE');
#87 = DIRECTION ( 'NONE',  ( 5.489477152233698413E-18, 1.000000000000000000, 0.000000000000000000 ) ) ;
#88 = AXIS2_PLACEMENT_3D ( 'NONE', #114, #158, #76 ) ;
#89 = CARTESIAN_POINT ( 'NONE',  ( 0.1875000000000000555, 0.2641377481542530603, 2.296212748401287109E-17 ) ) ;
#90 =( NAMED_UNIT ( * ) SI_UNIT ( $, .STERADIAN. ) SOLID_ANGLE_UNIT ( ) );
#91 = DIRECTION ( 'NONE',  ( 1.000000000000000000, 0.000000000000000000, 0.000000000000000000 ) ) ;
#92 = PRODUCT_DEFINITION ( 'UNKNOWN', '', #278, #20 ) ;
#93 = EDGE_LOOP ( 'NONE', ( #248, #29 ) ) ;
#94 = DIRECTION ( 'NONE',  ( 1.253425424662519065E-16, -1.000000000000000000, 0.000000000000000000 ) ) ;
#95 =( GEOMETRIC_REPRESENTATION_CONTEXT ( 3 ) GLOBAL_UNCERTAINTY_ASSIGNED_CONTEXT ( ( #113 ) ) GLOBAL_UNIT_ASSIGNED_CONTEXT ( ( #236, #41, #90 ) ) REPRESENTATION_CONTEXT ( 'NONE', 'WORKASPACE' ) );
#96 = PRESENTATION_STYLE_ASSIGNMENT (( #282 ) ) ;
#97 = PRESENTATION_STYLE_ASSIGNMENT (( #121 ) ) ;
#98 = ORIENTED_EDGE ( 'NONE', *, *, #14, .F. ) ;
#99 =( GEOMETRIC_REPRESENTATION_CONTEXT ( 3 ) GLOBAL_UNCERTAINTY_ASSIGNED_CONTEXT ( ( #39 ) ) GLOBAL_UNIT_ASSIGNED_CONTEXT ( ( #182, #74, #174 ) ) REPRESENTATION_CONTEXT ( 'NONE', 'WORKASPACE' ) );
#100 = DIRECTION ( 'NONE',  ( -1.000000000000000000, -1.821231995776178437E-16, 0.000000000000000000 ) ) ;
#101 = EDGE_CURVE ( 'NONE', #309, #38, #266, .T. ) ;
#102 = COLOUR_RGB ( '',1.000000000000000000, 0.000000000000000000, 0.000000000000000000 ) ;
#103 = CIRCLE ( 'NONE', #296, 0.03500000000000000333 ) ;
#104 = DIMENSIONAL_EXPONENTS ( 1.000000000000000000, 0.000000000000000000, 0.000000000000000000, 0.000000000000000000, 0.000000000000000000, 0.000000000000000000, 0.000000000000000000 ) ;
#105 = SURFACE_STYLE_FILL_AREA ( #11 ) ;
#106 = EDGE_LOOP ( 'NONE', ( #141, #28, #232, #177 ) ) ;
#107 = ADVANCED_FACE ( 'NONE', ( #246 ), #31, .T. ) ;
#108 = CARTESIAN_POINT ( 'NONE',  ( 6.123233995736772199E-17, 2.500000000000000000, 0.000000000000000000 ) ) ;
#109 = COLOUR_RGB ( '',1.000000000000000000, 0.000000000000000000, 0.000000000000000000 ) ;
#110 = SURFACE_STYLE_USAGE ( .BOTH. , #83 ) ;
#111 = AXIS2_PLACEMENT_3D ( 'NONE', #148, #64, #253 ) ;
#112 =( LENGTH_UNIT ( ) NAMED_UNIT ( * ) SI_UNIT ( $, .METRE. ) );
#113 = UNCERTAINTY_MEASURE_WITH_UNIT (LENGTH_MEASURE( 1.000000000000000082E-05 ), #236, 'distance_accuracy_value', 'NONE');
#114 = CARTESIAN_POINT ( 'NONE',  ( 3.414809992080329023E-16, 0.2641377481542530603, 0.000000000000000000 ) ) ;
#115 = FILL_AREA_STYLE_COLOUR ( '', #109 ) ;
#116 = APPLICATION_CONTEXT ( 'automotive_design' ) ;
#117 = AXIS2_PLACEMENT_3D ( 'NONE', #165, #238, #23 ) ;
#118 = DIRECTION ( 'NONE',  ( 1.000000000000000000, -5.489477152233698413E-18, 0.000000000000000000 ) ) ;
#119 = PRESENTATION_LAYER_ASSIGNMENT (  '', '', ( #283 ) ) ;
#120 = CARTESIAN_POINT ( 'NONE',  ( -0.1874999999999993616, 0.2641377481542530048, 0.000000000000000000 ) ) ;
#121 = SURFACE_STYLE_USAGE ( .BOTH. , #22 ) ;
#122 = EDGE_LOOP ( 'NONE', ( #98, #301 ) ) ;
#123 = STYLED_ITEM ( 'NONE', ( #96 ), #71 ) ;
#124 = AXIS2_PLACEMENT_3D ( 'NONE', #299, #87, #187 ) ;
#125 = EDGE_LOOP ( 'NONE', ( #190, #84 ) ) ;
#126 = VERTEX_POINT ( 'NONE', #131 ) ;
#127 = MECHANICAL_DESIGN_GEOMETRIC_PRESENTATION_REPRESENTATION (  '', ( #79 ), #255 ) ;
#128 = AXIS2_PLACEMENT_3D ( 'NONE', #217, #94, #44 ) ;
#129 = AXIS2_PLACEMENT_3D ( 'NONE', #284, #150, #72 ) ;
#130 = FILL_AREA_STYLE ('',( #175 ) ) ;
#131 = CARTESIAN_POINT ( 'NONE',  ( 0.1875000000000000555, 2.500000000000000000, 2.296212748401286493E-17 ) ) ;
#132 = LENGTH_MEASURE_WITH_UNIT ( LENGTH_MEASURE( 0.02539999999999999897 ), #267 );
#133 = SURFACE_SIDE_STYLE ('',( #105 ) ) ;
#134 = CARTESIAN_POINT ( 'NONE',  ( 1.054702579171352945E-36, 1.921317003281794608E-19, 0.000000000000000000 ) ) ;
#135 = MECHANICAL_DESIGN_GEOMETRIC_PRESENTATION_REPRESENTATION (  '', ( #283 ), #193 ) ;
#136 = ADVANCED_FACE ( 'NONE', ( #209 ), #225, .T. ) ;
#137 = EDGE_CURVE ( 'NONE', #240, #166, #27, .T. ) ;
#138 = LENGTH_MEASURE_WITH_UNIT ( LENGTH_MEASURE( 0.02539999999999999897 ), #157 );
#139 = DIRECTION ( 'NONE',  ( 5.489477152233698413E-18, 1.000000000000000000, 0.000000000000000000 ) ) ;
#140 = DIRECTION ( 'NONE',  ( -1.253425424662519065E-16, 1.000000000000000000, -0.000000000000000000 ) ) ;
#141 = ORIENTED_EDGE ( 'NONE', *, *, #305, .F. ) ;
#142 = DIRECTION ( 'NONE',  ( -5.489477152233698413E-18, -1.000000000000000000, -0.000000000000000000 ) ) ;
#143 = CARTESIAN_POINT ( 'NONE',  ( -0.03500000000000000333, 3.842634006563589217E-19, 0.000000000000000000 ) ) ;
#144 = CLOSED_SHELL ( 'NONE', ( #226, #186, #71, #136 ) ) ;
#145 = CYLINDRICAL_SURFACE ( 'NONE', #149, 0.1874999999999998335 ) ;
#146 = CARTESIAN_POINT ( 'NONE',  ( 5.273512895856764724E-37, 9.606585016408973042E-20, 0.000000000000000000 ) ) ;
#147 = EDGE_LOOP ( 'NONE', ( #259, #290, #258, #194 ) ) ;
#148 = CARTESIAN_POINT ( 'NONE',  ( 0.000000000000000000, 0.000000000000000000, 0.000000000000000000 ) ) ;
#149 = AXIS2_PLACEMENT_3D ( 'NONE', #21, #140, #250 ) ;
#150 = DIRECTION ( 'NONE',  ( -1.253425424662519065E-16, 1.000000000000000000, -0.000000000000000000 ) ) ;
#151 = CARTESIAN_POINT ( 'NONE',  ( 0.03500000000000000333, 0.000000000000000000, 1.362419564051430508E-17 ) ) ;
#152 = DIRECTION ( 'NONE',  ( 1.000000000000000000, -5.489477152233698413E-18, 0.000000000000000000 ) ) ;
#153 = DIMENSIONAL_EXPONENTS ( 1.000000000000000000, 0.000000000000000000, 0.000000000000000000, 0.000000000000000000, 0.000000000000000000, 0.000000000000000000, 0.000000000000000000 ) ;
#154 = ORIENTED_EDGE ( 'NONE', *, *, #73, .T. ) ;
#155 = FACE_OUTER_BOUND ( 'NONE', #56, .T. ) ;
#156 = SURFACE_SIDE_STYLE ('',( #251 ) ) ;
#157 =( LENGTH_UNIT ( ) NAMED_UNIT ( * ) SI_UNIT ( $, .METRE. ) );
#158 = DIRECTION ( 'NONE',  ( -1.253425424662519065E-16, 1.000000000000000000, 0.000000000000000000 ) ) ;
#159 = UNCERTAINTY_MEASURE_WITH_UNIT (LENGTH_MEASURE( 1.000000000000000082E-05 ), #53, 'distance_accuracy_value', 'NONE');
#160 = DIRECTION ( 'NONE',  ( -0.5000000000000009992, 0.8660254037844379305, 0.000000000000000000 ) ) ;
#161 = FACE_OUTER_BOUND ( 'NONE', #26, .T. ) ;
#162 = APPLICATION_PROTOCOL_DEFINITION ( 'draft international standard', 'automotive_design', 1998, #116 ) ;
#163 = AXIS2_PLACEMENT_3D ( 'NONE', #108, #205, #294 ) ;
#164 = STYLED_ITEM ( 'NONE', ( #268 ), #226 ) ;
#165 = CARTESIAN_POINT ( 'NONE',  ( 6.123233995736772199E-17, 2.500000000000000000, 0.000000000000000000 ) ) ;
#166 = VERTEX_POINT ( 'NONE', #89 ) ;
#167 =( NAMED_UNIT ( * ) PLANE_ANGLE_UNIT ( ) SI_UNIT ( $, .RADIAN. ) );
#168 = DIRECTION ( 'NONE',  ( -1.253425424662519065E-16, 1.000000000000000000, -0.000000000000000000 ) ) ;
#169 = PRESENTATION_LAYER_ASSIGNMENT (  '', '', ( #206 ) ) ;
#170 = LENGTH_MEASURE_WITH_UNIT ( LENGTH_MEASURE( 0.02539999999999999897 ), #219 );
#171 = CARTESIAN_POINT ( 'NONE',  ( -0.1874999999999997780, 2.500000000000000000, 0.000000000000000000 ) ) ;
#172 = EDGE_CURVE ( 'NONE', #309, #240, #273, .T. ) ;
#173 = ADVANCED_FACE ( 'NONE', ( #277 ), #192, .F. ) ;
#174 =( NAMED_UNIT ( * ) SI_UNIT ( $, .STERADIAN. ) SOLID_ANGLE_UNIT ( ) );
#175 = FILL_AREA_STYLE_COLOUR ( '', #198 ) ;
#176 = EDGE_CURVE ( 'NONE', #166, #240, #201, .T. ) ;
#177 = ORIENTED_EDGE ( 'NONE', *, *, #59, .F. ) ;
#178 =( GEOMETRIC_REPRESENTATION_CONTEXT ( 3 ) GLOBAL_UNCERTAINTY_ASSIGNED_CONTEXT ( ( #159 ) ) GLOBAL_UNIT_ASSIGNED_CONTEXT ( ( #53, #1, #82 ) ) REPRESENTATION_CONTEXT ( 'NONE', 'WORKASPACE' ) );
#179 = SURFACE_STYLE_FILL_AREA ( #130 ) ;
#180 = CARTESIAN_POINT ( 'NONE',  ( 1.054702579171352945E-36, 1.921317003281794608E-19, 0.000000000000000000 ) ) ;
#181 = FILL_AREA_STYLE_COLOUR ( '', #235 ) ;
#182 =( CONVERSION_BASED_UNIT ( 'INCH', #132 ) LENGTH_UNIT ( ) NAMED_UNIT ( #200 ) );
#183 = PRESENTATION_LAYER_ASSIGNMENT (  '', '', ( #123 ) ) ;
#184 = MECHANICAL_DESIGN_GEOMETRIC_PRESENTATION_REPRESENTATION (  '', ( #164 ), #212 ) ;
#185 = PRODUCT_CONTEXT ( 'NONE', #116, 'mechanical' ) ;
#186 = ADVANCED_FACE ( 'NONE', ( #161 ), #210, .T. ) ;
#187 = DIRECTION ( 'NONE',  ( -1.000000000000000000, 5.489477152233698413E-18, 0.000000000000000000 ) ) ;
#188 =( CONVERSION_BASED_UNIT ( 'INCH', #239 ) LENGTH_UNIT ( ) NAMED_UNIT ( #104 ) );
#189 = CARTESIAN_POINT ( 'NONE',  ( -0.03500000000000000333, 3.842634006563589217E-19, 0.000000000000000000 ) ) ;
#190 = ORIENTED_EDGE ( 'NONE', *, *, #101, .T. ) ;
#191 = CLOSED_SHELL ( 'NONE', ( #107, #243, #222, #173 ) ) ;
#192 = PLANE ( 'NONE',  #128 ) ;
#193 =( GEOMETRIC_REPRESENTATION_CONTEXT ( 3 ) GLOBAL_UNCERTAINTY_ASSIGNED_CONTEXT ( ( #275 ) ) GLOBAL_UNIT_ASSIGNED_CONTEXT ( ( #227, #224, #7 ) ) REPRESENTATION_CONTEXT ( 'NONE', 'WORKASPACE' ) );
#194 = ORIENTED_EDGE ( 'NONE', *, *, #5, .F. ) ;
#195 = FILL_AREA_STYLE ('',( #216 ) ) ;
#196 = DIRECTION ( 'NONE',  ( -1.000000000000000000, 0.000000000000000000, 0.000000000000000000 ) ) ;
#197 = CIRCLE ( 'NONE', #129, 0.1874999999999996947 ) ;
#198 = COLOUR_RGB ( '',0.7921568627450980005, 0.8196078431372548767, 0.9333333333333333481 ) ;
#199 = FILL_AREA_STYLE_COLOUR ( '', #300 ) ;
#200 = DIMENSIONAL_EXPONENTS ( 1.000000000000000000, 0.000000000000000000, 0.000000000000000000, 0.000000000000000000, 0.000000000000000000, 0.000000000000000000, 0.000000000000000000 ) ;
#201 = CIRCLE ( 'NONE', #63, 0.1875000000000000555 ) ;
#202 = DIRECTION ( 'NONE',  ( -1.000000000000000000, 5.489477152233698413E-18, 0.000000000000000000 ) ) ;
#203 = ORIENTED_EDGE ( 'NONE', *, *, #101, .F. ) ;
#204 = PRESENTATION_STYLE_ASSIGNMENT (( #58 ) ) ;
#205 = DIRECTION ( 'NONE',  ( -1.253425424662519065E-16, 1.000000000000000000, -0.000000000000000000 ) ) ;
#206 = STYLED_ITEM ( 'NONE', ( #265 ), #78 ) ;
#207 = AXIS2_PLACEMENT_3D ( 'NONE', #66, #280, #91 ) ;
#208 = SURFACE_STYLE_USAGE ( .BOTH. , #263 ) ;
#209 = FACE_OUTER_BOUND ( 'NONE', #125, .T. ) ;
#210 = PLANE ( 'NONE',  #124 ) ;
#211 = CIRCLE ( 'NONE', #117, 0.1874999999999999722 ) ;
#212 =( GEOMETRIC_REPRESENTATION_CONTEXT ( 3 ) GLOBAL_UNCERTAINTY_ASSIGNED_CONTEXT ( ( #86 ) ) GLOBAL_UNIT_ASSIGNED_CONTEXT ( ( #230, #10, #228 ) ) REPRESENTATION_CONTEXT ( 'NONE', 'WORKASPACE' ) );
#213 = FACE_OUTER_BOUND ( 'NONE', #106, .T. ) ;
#214 = ORIENTED_EDGE ( 'NONE', *, *, #73, .F. ) ;
#215 = EDGE_CURVE ( 'NONE', #38, #309, #103, .T. ) ;
#216 = FILL_AREA_STYLE_COLOUR ( '', #102 ) ;
#217 = CARTESIAN_POINT ( 'NONE',  ( 0.1875000000000000555, 2.500000000000000000, 0.000000000000000000 ) ) ;
#218 = AXIS2_PLACEMENT_3D ( 'NONE', #146, #256, #234 ) ;
#219 =( LENGTH_UNIT ( ) NAMED_UNIT ( * ) SI_UNIT ( $, .METRE. ) );
#220 = CARTESIAN_POINT ( 'NONE',  ( -0.1874999999999999167, 2.500000000000000000, 0.000000000000000000 ) ) ;
#221 = PRESENTATION_LAYER_ASSIGNMENT (  '', '', ( #271 ) ) ;
#222 = ADVANCED_FACE ( 'NONE', ( #213 ), #145, .T. ) ;
#223 = VECTOR ( 'NONE', #160, 39.37007874015748854 ) ;
#224 =( NAMED_UNIT ( * ) PLANE_ANGLE_UNIT ( ) SI_UNIT ( $, .RADIAN. ) );
#225 = PLANE ( 'NONE',  #218 ) ;
#226 = ADVANCED_FACE ( 'NONE', ( #155 ), #51, .T. ) ;
#227 =( CONVERSION_BASED_UNIT ( 'INCH', #55 ) LENGTH_UNIT ( ) NAMED_UNIT ( #34 ) );
#228 =( NAMED_UNIT ( * ) SI_UNIT ( $, .STERADIAN. ) SOLID_ANGLE_UNIT ( ) );
#229 =( NAMED_UNIT ( * ) PLANE_ANGLE_UNIT ( ) SI_UNIT ( $, .RADIAN. ) );
#230 =( CONVERSION_BASED_UNIT ( 'INCH', #138 ) LENGTH_UNIT ( ) NAMED_UNIT ( #153 ) );
#231 = LINE ( 'NONE', #36, #295 ) ;
#232 = ORIENTED_EDGE ( 'NONE', *, *, #5, .T. ) ;
#233 = UNCERTAINTY_MEASURE_WITH_UNIT (LENGTH_MEASURE( 1.000000000000000082E-05 ), #188, 'distance_accuracy_value', 'NONE');
#234 = DIRECTION ( 'NONE',  ( 1.000000000000000000, -5.489477152233698413E-18, 0.000000000000000000 ) ) ;
#235 = COLOUR_RGB ( '',1.000000000000000000, 0.000000000000000000, 0.000000000000000000 ) ;
#236 =( CONVERSION_BASED_UNIT ( 'INCH', #272 ) LENGTH_UNIT ( ) NAMED_UNIT ( #3 ) );
#237 = SURFACE_STYLE_FILL_AREA ( #67 ) ;
#238 = DIRECTION ( 'NONE',  ( -1.253425424662519065E-16, 1.000000000000000000, -0.000000000000000000 ) ) ;
#239 = LENGTH_MEASURE_WITH_UNIT ( LENGTH_MEASURE( 0.02539999999999999897 ), #306 );
#240 = VERTEX_POINT ( 'NONE', #32 ) ;
#241 = MECHANICAL_DESIGN_GEOMETRIC_PRESENTATION_REPRESENTATION (  '', ( #271 ), #54 ) ;
#242 = SURFACE_STYLE_FILL_AREA ( #195 ) ;
#243 = ADVANCED_FACE ( 'NONE', ( #289 ), #77, .F. ) ;
#244 = FACE_OUTER_BOUND ( 'NONE', #261, .T. ) ;
#245 = ORIENTED_EDGE ( 'NONE', *, *, #172, .F. ) ;
#246 = FACE_OUTER_BOUND ( 'NONE', #147, .T. ) ;
#247 = MECHANICAL_DESIGN_GEOMETRIC_PRESENTATION_REPRESENTATION (  '', ( #206 ), #99 ) ;
#248 = ORIENTED_EDGE ( 'NONE', *, *, #25, .T. ) ;
#249 = AXIS2_PLACEMENT_3D ( 'NONE', #257, #168, #196 ) ;
#250 = DIRECTION ( 'NONE',  ( -1.000000000000000000, 0.000000000000000000, 0.000000000000000000 ) ) ;
#251 = SURFACE_STYLE_FILL_AREA ( #57 ) ;
#252 = CARTESIAN_POINT ( 'NONE',  ( 1.054702579171352945E-36, 1.921317003281794608E-19, 0.000000000000000000 ) ) ;
#253 = DIRECTION ( 'NONE',  ( 1.000000000000000000, 0.000000000000000000, 0.000000000000000000 ) ) ;
#254 = PRESENTATION_LAYER_ASSIGNMENT (  '', '', ( #79 ) ) ;
#255 =( GEOMETRIC_REPRESENTATION_CONTEXT ( 3 ) GLOBAL_UNCERTAINTY_ASSIGNED_CONTEXT ( ( #304 ) ) GLOBAL_UNIT_ASSIGNED_CONTEXT ( ( #292, #229, #270 ) ) REPRESENTATION_CONTEXT ( 'NONE', 'WORKASPACE' ) );
#256 = DIRECTION ( 'NONE',  ( -5.489477152233698413E-18, -1.000000000000000000, 0.000000000000000000 ) ) ;
#257 = CARTESIAN_POINT ( 'NONE',  ( 6.123233995736772199E-17, 2.500000000000000000, 0.000000000000000000 ) ) ;
#258 = ORIENTED_EDGE ( 'NONE', *, *, #25, .F. ) ;
#259 = ORIENTED_EDGE ( 'NONE', *, *, #14, .T. ) ;
#260 = CONICAL_SURFACE ( 'NONE', #70, 0.03500000000000000333, 0.5235987755983001479 ) ;
#261 = EDGE_LOOP ( 'NONE', ( #214, #203, #68, #4 ) ) ;
#262 = CARTESIAN_POINT ( 'NONE',  ( 1.054702579171352945E-36, 1.921317003281794608E-19, 0.000000000000000000 ) ) ;
#263 = SURFACE_SIDE_STYLE ('',( #179 ) ) ;
#264 = ORIENTED_EDGE ( 'NONE', *, *, #215, .F. ) ;
#265 = PRESENTATION_STYLE_ASSIGNMENT (( #286 ) ) ;
#266 = CIRCLE ( 'NONE', #43, 0.03500000000000000333 ) ;
#267 =( LENGTH_UNIT ( ) NAMED_UNIT ( * ) SI_UNIT ( $, .METRE. ) );
#268 = PRESENTATION_STYLE_ASSIGNMENT (( #110 ) ) ;
#269 = SURFACE_STYLE_FILL_AREA ( #80 ) ;
#270 =( NAMED_UNIT ( * ) SI_UNIT ( $, .STERADIAN. ) SOLID_ANGLE_UNIT ( ) );
#271 = STYLED_ITEM ( 'NONE', ( #97 ), #186 ) ;
#272 = LENGTH_MEASURE_WITH_UNIT ( LENGTH_MEASURE( 0.02539999999999999897 ), #276 );
#273 = LINE ( 'NONE', #189, #223 ) ;
#274 = PRODUCT_RELATED_PRODUCT_CATEGORY ( 'part', '', ( #40 ) ) ;
#275 = UNCERTAINTY_MEASURE_WITH_UNIT (LENGTH_MEASURE( 1.000000000000000082E-05 ), #227, 'distance_accuracy_value', 'NONE');
#276 =( LENGTH_UNIT ( ) NAMED_UNIT ( * ) SI_UNIT ( $, .METRE. ) );
#277 = FACE_OUTER_BOUND ( 'NONE', #93, .T. ) ;
#278 = PRODUCT_DEFINITION_FORMATION_WITH_SPECIFIED_SOURCE ( 'ANY', '', #40, .NOT_KNOWN. ) ;
#279 = DIRECTION ( 'NONE',  ( -1.253425424662519065E-16, 1.000000000000000000, -0.000000000000000000 ) ) ;
#280 = DIRECTION ( 'NONE',  ( -5.489477152233698413E-18, -1.000000000000000000, -0.000000000000000000 ) ) ;
#281 = ORIENTED_EDGE ( 'NONE', *, *, #176, .T. ) ;
#282 = SURFACE_STYLE_USAGE ( .BOTH. , #307 ) ;
#283 = STYLED_ITEM ( 'NONE', ( #298 ), #285 ) ;
#284 = CARTESIAN_POINT ( 'NONE',  ( 3.414809992080329023E-16, 0.2641377481542530603, 0.000000000000000000 ) ) ;
#285 = MANIFOLD_SOLID_BREP ( 'Revolve - Tool Body (Tipped Off)', #191 ) ;
#286 = SURFACE_STYLE_USAGE ( .BOTH. , #156 ) ;
#287 = ADVANCED_BREP_SHAPE_REPRESENTATION ( '07022', ( #78, #285, #111 ), #95 ) ;
#288 = VECTOR ( 'NONE', #302, 39.37007874015748143 ) ;
#289 = FACE_OUTER_BOUND ( 'NONE', #122, .T. ) ;
#290 = ORIENTED_EDGE ( 'NONE', *, *, #305, .T. ) ;
#291 = DIRECTION ( 'NONE',  ( 5.489477152233698413E-18, 1.000000000000000000, 0.000000000000000000 ) ) ;
#292 =( CONVERSION_BASED_UNIT ( 'INCH', #297 ) LENGTH_UNIT ( ) NAMED_UNIT ( #293 ) );
#293 = DIMENSIONAL_EXPONENTS ( 1.000000000000000000, 0.000000000000000000, 0.000000000000000000, 0.000000000000000000, 0.000000000000000000, 0.000000000000000000, 0.000000000000000000 ) ;
#294 = DIRECTION ( 'NONE',  ( -1.000000000000000000, 0.000000000000000000, 0.000000000000000000 ) ) ;
#295 = VECTOR ( 'NONE', #33, 39.37007874015748854 ) ;
#296 = AXIS2_PLACEMENT_3D ( 'NONE', #252, #142, #118 ) ;
#297 = LENGTH_MEASURE_WITH_UNIT ( LENGTH_MEASURE( 0.02539999999999999897 ), #112 );
#298 = PRESENTATION_STYLE_ASSIGNMENT (( #208 ) ) ;
#299 = CARTESIAN_POINT ( 'NONE',  ( 1.449978133535231054E-18, 0.2641377481542531158, 0.000000000000000000 ) ) ;
#300 = COLOUR_RGB ( '',0.7921568627450980005, 0.8196078431372548767, 0.9333333333333333481 ) ;
#301 = ORIENTED_EDGE ( 'NONE', *, *, #8, .F. ) ;
#302 = DIRECTION ( 'NONE',  ( -1.253425424662519065E-16, 1.000000000000000000, -0.000000000000000000 ) ) ;
#303 = VERTEX_POINT ( 'NONE', #120 ) ;
#304 = UNCERTAINTY_MEASURE_WITH_UNIT (LENGTH_MEASURE( 1.000000000000000082E-05 ), #292, 'distance_accuracy_value', 'NONE');
#305 = EDGE_CURVE ( 'NONE', #18, #126, #85, .T. ) ;
#306 =( LENGTH_UNIT ( ) NAMED_UNIT ( * ) SI_UNIT ( $, .METRE. ) );
#307 = SURFACE_SIDE_STYLE ('',( #242 ) ) ;
#308 = DIRECTION ( 'NONE',  ( 1.000000000000000000, 0.000000000000000000, 0.000000000000000000 ) ) ;
#309 = VERTEX_POINT ( 'NONE', #143 ) ;
ENDSEC;
END-ISO-10303-21;
