ISO-10303-21;
HEADER;
FILE_DESCRIPTION (( 'STEP AP214' ),
    '1' );
FILE_NAME ('Micro_AEMM-070-4.STEP',
    '2022-03-15T14:28:24',
    ( '' ),
    ( '' ),
    'SwSTEP 2.0',
    'SolidWorks 2022',
    '' );
FILE_SCHEMA (( 'AUTOMOTIVE_DESIGN' ));
ENDSEC;

DATA;
#1 = DIRECTION ( 'NONE',  ( -1.000000000000000000, 0.000000000000000000, 0.000000000000000000 ) ) ;
#2 = ORIENTED_EDGE ( 'NONE', *, *, #263, .F. ) ;
#3 = ORIENTED_EDGE ( 'NONE', *, *, #143, .F. ) ;
#4 = AXIS2_PLACEMENT_3D ( 'NONE', #250, #244, #40 ) ;
#5 = PRESENTATION_LAYER_ASSIGNMENT (  '', '', ( #169 ) ) ;
#6 = LINE ( 'NONE', #297, #65 ) ;
#7 = ORIENTED_EDGE ( 'NONE', *, *, #143, .T. ) ;
#8 = VECTOR ( 'NONE', #73, 39.37007874015748143 ) ;
#9 = DIRECTION ( 'NONE',  ( -1.224646799147353207E-16, -0.000000000000000000, -1.000000000000000000 ) ) ;
#10 = ADVANCED_FACE ( 'NONE', ( #136 ), #179, .T. ) ;
#11 = LENGTH_MEASURE_WITH_UNIT ( LENGTH_MEASURE( 0.02539999999999999897 ), #31 );
#12 = DIRECTION ( 'NONE',  ( 0.000000000000000000, 0.000000000000000000, 1.000000000000000000 ) ) ;
#13 = PRODUCT ( 'Micro_AEMM-070-4', 'Micro_AEMM-070-4', '', ( #29 ) ) ;
#14 = CARTESIAN_POINT ( 'NONE',  ( -0.1424804999999990940, 0.000000000000000000, 2.480315000000000047 ) ) ;
#15 = AXIS2_PLACEMENT_3D ( 'NONE', #198, #46, #147 ) ;
#16 = CONICAL_SURFACE ( 'NONE', #62, 0.1424804999999990940, 0.7853981633974699283 ) ;
#17 = EDGE_CURVE ( 'NONE', #127, #111, #30, .T. ) ;
#18 = CARTESIAN_POINT ( 'NONE',  ( -0.1424804999999990940, 0.000000000000000000, 2.480315000000000047 ) ) ;
#19 = DIRECTION ( 'NONE',  ( 0.7071067811865627828, 8.659560562355118980E-17, -0.7071067811865321406 ) ) ;
#20 = ORIENTED_EDGE ( 'NONE', *, *, #139, .T. ) ;
#21 = APPLICATION_PROTOCOL_DEFINITION ( 'draft international standard', 'automotive_design', 1998, #264 ) ;
#22 = VERTEX_POINT ( 'NONE', #159 ) ;
#23 = VERTEX_POINT ( 'NONE', #249 ) ;
#24 = CARTESIAN_POINT ( 'NONE',  ( 2.064534889826502042E-33, 0.000000000000000000, 1.685820671938972047E-17 ) ) ;
#25 = ORIENTED_EDGE ( 'NONE', *, *, #129, .T. ) ;
#26 = UNCERTAINTY_MEASURE_WITH_UNIT (LENGTH_MEASURE( 1.000000000000000082E-05 ), #206, 'distance_accuracy_value', 'NONE');
#27 = ORIENTED_EDGE ( 'NONE', *, *, #263, .T. ) ;
#28 = EDGE_CURVE ( 'NONE', #111, #94, #172, .T. ) ;
#29 = PRODUCT_CONTEXT ( 'NONE', #264, 'mechanical' ) ;
#30 = LINE ( 'NONE', #177, #8 ) ;
#31 =( LENGTH_UNIT ( ) NAMED_UNIT ( * ) SI_UNIT ( $, .METRE. ) );
#32 =( NAMED_UNIT ( * ) SI_UNIT ( $, .STERADIAN. ) SOLID_ANGLE_UNIT ( ) );
#33 = CARTESIAN_POINT ( 'NONE',  ( 0.1574805000000001343, 1.928579902531249261E-17, 0.9785626597331489318 ) ) ;
#34 = SURFACE_STYLE_USAGE ( .BOTH. , #60 ) ;
#35 = EDGE_CURVE ( 'NONE', #93, #22, #68, .T. ) ;
#36 = EDGE_CURVE ( 'NONE', #251, #23, #224, .T. ) ;
#37 = CARTESIAN_POINT ( 'NONE',  ( -0.1574804999999999955, 0.000000000000000000, 2.465314999999999923 ) ) ;
#38 = CIRCLE ( 'NONE', #269, 0.1376577045000000055 ) ;
#39 = DIRECTION ( 'NONE',  ( -1.000000000000000000, 0.000000000000000000, 0.000000000000000000 ) ) ;
#40 = DIRECTION ( 'NONE',  ( 1.000000000000000000, 0.000000000000000000, -0.000000000000000000 ) ) ;
#41 = DIMENSIONAL_EXPONENTS ( 1.000000000000000000, 0.000000000000000000, 0.000000000000000000, 0.000000000000000000, 0.000000000000000000, 0.000000000000000000, 0.000000000000000000 ) ;
#42 = CARTESIAN_POINT ( 'NONE',  ( 1.060718027907086782E-16, 0.000000000000000000, 0.8661419999999999675 ) ) ;
#43 = DIRECTION ( 'NONE',  ( -1.224646799147353207E-16, -0.000000000000000000, -1.000000000000000000 ) ) ;
#44 = CYLINDRICAL_SURFACE ( 'NONE', #85, 0.1574804999999999955 ) ;
#45 = CONICAL_SURFACE ( 'NONE', #15, 0.1376577045000000055, 0.1745329251994339192 ) ;
#46 = DIRECTION ( 'NONE',  ( 1.224646799147353207E-16, 0.000000000000000000, 1.000000000000000000 ) ) ;
#47 = DIRECTION ( 'NONE',  ( 0.000000000000000000, 0.000000000000000000, 1.000000000000000000 ) ) ;
#48 = CARTESIAN_POINT ( 'NONE',  ( 0.000000000000000000, 0.000000000000000000, 2.480315000000000047 ) ) ;
#49 = ORIENTED_EDGE ( 'NONE', *, *, #299, .T. ) ;
#50 = DIRECTION ( 'NONE',  ( 1.000000000000000000, 0.000000000000000000, 0.000000000000000000 ) ) ;
#51 = ORIENTED_EDGE ( 'NONE', *, *, #129, .F. ) ;
#52 = ORIENTED_EDGE ( 'NONE', *, *, #242, .T. ) ;
#53 = AXIS2_PLACEMENT_3D ( 'NONE', #48, #268, #66 ) ;
#54 = EDGE_LOOP ( 'NONE', ( #138, #108, #182, #252 ) ) ;
#55 = APPLICATION_PROTOCOL_DEFINITION ( 'draft international standard', 'automotive_design', 1998, #283 ) ;
#56 = LENGTH_MEASURE_WITH_UNIT ( LENGTH_MEASURE( 0.02539999999999999897 ), #187 );
#57 = CARTESIAN_POINT ( 'NONE',  ( 0.1376577045000000055, 1.685820671938972047E-17, -1.685820671938972047E-17 ) ) ;
#58 = FACE_OUTER_BOUND ( 'NONE', #79, .T. ) ;
#59 = CIRCLE ( 'NONE', #284, 0.1574804999999999955 ) ;
#60 = SURFACE_SIDE_STYLE ('',( #121 ) ) ;
#61 = ADVANCED_FACE ( 'NONE', ( #107 ), #45, .T. ) ;
#62 = AXIS2_PLACEMENT_3D ( 'NONE', #287, #101, #39 ) ;
#63 = ADVANCED_FACE ( 'NONE', ( #58 ), #97, .T. ) ;
#64 = DIRECTION ( 'NONE',  ( -0.7071067811865627828, 0.000000000000000000, -0.7071067811865321406 ) ) ;
#65 = VECTOR ( 'NONE', #173, 39.37007874015748143 ) ;
#66 = DIRECTION ( 'NONE',  ( -1.000000000000000000, 0.000000000000000000, 0.000000000000000000 ) ) ;
#67 = CARTESIAN_POINT ( 'NONE',  ( 1.198393629007321272E-16, 0.000000000000000000, 0.9785626597331489318 ) ) ;
#68 = LINE ( 'NONE', #152, #278 ) ;
#69 = DIRECTION ( 'NONE',  ( 0.1736481776669314137, 0.000000000000000000, 0.9848077530122077983 ) ) ;
#70 = ORIENTED_EDGE ( 'NONE', *, *, #35, .F. ) ;
#71 = CARTESIAN_POINT ( 'NONE',  ( 1.060718027907086782E-16, 0.000000000000000000, 0.8661419999999999675 ) ) ;
#72 = CONICAL_SURFACE ( 'NONE', #262, 0.1424804999999990940, 0.7853981633974699283 ) ;
#73 = DIRECTION ( 'NONE',  ( -0.000000000000000000, -0.000000000000000000, -1.000000000000000000 ) ) ;
#74 = ORIENTED_EDGE ( 'NONE', *, *, #202, .T. ) ;
#75 = ORIENTED_EDGE ( 'NONE', *, *, #36, .F. ) ;
#76 = CIRCLE ( 'NONE', #156, 0.1424804999999990940 ) ;
#77 = SURFACE_SIDE_STYLE ('',( #256 ) ) ;
#78 = CARTESIAN_POINT ( 'NONE',  ( 0.000000000000000000, 0.000000000000000000, 0.000000000000000000 ) ) ;
#79 = EDGE_LOOP ( 'NONE', ( #280, #74, #222, #226 ) ) ;
#80 = CARTESIAN_POINT ( 'NONE',  ( 0.000000000000000000, 0.000000000000000000, 2.480315000000000047 ) ) ;
#81 = PRODUCT_DEFINITION ( 'UNKNOWN', '', #137, #277 ) ;
#82 = ADVANCED_FACE ( 'NONE', ( #257 ), #116, .T. ) ;
#83 = CIRCLE ( 'NONE', #265, 0.1424804999999990940 ) ;
#84 = DIMENSIONAL_EXPONENTS ( 1.000000000000000000, 0.000000000000000000, 0.000000000000000000, 0.000000000000000000, 0.000000000000000000, 0.000000000000000000, 0.000000000000000000 ) ;
#85 = AXIS2_PLACEMENT_3D ( 'NONE', #90, #178, #275 ) ;
#86 = DIRECTION ( 'NONE',  ( -1.000000000000000000, 0.000000000000000000, 1.224646799147353207E-16 ) ) ;
#87 = EDGE_CURVE ( 'NONE', #95, #89, #237, .T. ) ;
#88 = ORIENTED_EDGE ( 'NONE', *, *, #153, .F. ) ;
#89 = VERTEX_POINT ( 'NONE', #235 ) ;
#90 = CARTESIAN_POINT ( 'NONE',  ( 0.000000000000000000, 0.000000000000000000, 2.480315000000000047 ) ) ;
#91 = EDGE_LOOP ( 'NONE', ( #271, #298 ) ) ;
#92 = VECTOR ( 'NONE', #64, 39.37007874015748854 ) ;
#93 = VERTEX_POINT ( 'NONE', #146 ) ;
#94 = VERTEX_POINT ( 'NONE', #33 ) ;
#95 = VERTEX_POINT ( 'NONE', #211 ) ;
#96 = FILL_AREA_STYLE_COLOUR ( '', #247 ) ;
#97 = CYLINDRICAL_SURFACE ( 'NONE', #119, 0.1376577045000000055 ) ;
#98 =( CONVERSION_BASED_UNIT ( 'INCH', #259 ) LENGTH_UNIT ( ) NAMED_UNIT ( #84 ) );
#99 = AXIS2_PLACEMENT_3D ( 'NONE', #103, #124, #148 ) ;
#100 = CARTESIAN_POINT ( 'NONE',  ( -0.1574804999999998567, 0.000000000000000000, 0.9785626597331489318 ) ) ;
#101 = DIRECTION ( 'NONE',  ( 0.000000000000000000, 0.000000000000000000, -1.000000000000000000 ) ) ;
#102 = EDGE_CURVE ( 'NONE', #251, #229, #76, .T. ) ;
#103 = CARTESIAN_POINT ( 'NONE',  ( 2.064534889826502042E-33, 0.000000000000000000, 1.685820671938972047E-17 ) ) ;
#104 = STYLED_ITEM ( 'NONE', ( #238 ), #289 ) ;
#105 = AXIS2_PLACEMENT_3D ( 'NONE', #115, #295, #132 ) ;
#106 = LINE ( 'NONE', #217, #296 ) ;
#107 = FACE_OUTER_BOUND ( 'NONE', #175, .T. ) ;
#108 = ORIENTED_EDGE ( 'NONE', *, *, #258, .T. ) ;
#109 = SHAPE_DEFINITION_REPRESENTATION ( #239, #167 ) ;
#110 = ORIENTED_EDGE ( 'NONE', *, *, #36, .T. ) ;
#111 = VERTEX_POINT ( 'NONE', #100 ) ;
#112 = DIRECTION ( 'NONE',  ( 1.224646799147353207E-16, 0.000000000000000000, 1.000000000000000000 ) ) ;
#113 = AXIS2_PLACEMENT_3D ( 'NONE', #151, #161, #1 ) ;
#114 = ORIENTED_EDGE ( 'NONE', *, *, #299, .F. ) ;
#115 = CARTESIAN_POINT ( 'NONE',  ( 1.198393629007321272E-16, 0.000000000000000000, 0.9785626597331489318 ) ) ;
#116 = CYLINDRICAL_SURFACE ( 'NONE', #209, 0.1376577045000000055 ) ;
#117 = DIRECTION ( 'NONE',  ( -1.224646799147353207E-16, -0.000000000000000000, -1.000000000000000000 ) ) ;
#118 = CARTESIAN_POINT ( 'NONE',  ( 0.000000000000000000, 0.000000000000000000, 2.480315000000000047 ) ) ;
#119 = AXIS2_PLACEMENT_3D ( 'NONE', #281, #9, #190 ) ;
#120 = AXIS2_PLACEMENT_3D ( 'NONE', #253, #47, #223 ) ;
#121 = SURFACE_STYLE_FILL_AREA ( #233 ) ;
#122 = ADVANCED_FACE ( 'NONE', ( #192 ), #16, .T. ) ;
#123 = CLOSED_SHELL ( 'NONE', ( #82, #248, #122, #282, #184, #10, #149, #61, #63, #225 ) ) ;
#124 = DIRECTION ( 'NONE',  ( -1.224646799147353207E-16, -0.000000000000000000, -1.000000000000000000 ) ) ;
#125 = AXIS2_PLACEMENT_3D ( 'NONE', #67, #270, #50 ) ;
#126 = CARTESIAN_POINT ( 'NONE',  ( 0.1424804999999990940, 1.836731392595189962E-17, 2.480315000000000047 ) ) ;
#127 = VERTEX_POINT ( 'NONE', #37 ) ;
#128 = CIRCLE ( 'NONE', #113, 0.1376577045000000055 ) ;
#129 = EDGE_CURVE ( 'NONE', #23, #127, #292, .T. ) ;
#130 = ORIENTED_EDGE ( 'NONE', *, *, #17, .F. ) ;
#131 = AXIS2_PLACEMENT_3D ( 'NONE', #231, #246, #276 ) ;
#132 = DIRECTION ( 'NONE',  ( 1.000000000000000000, 0.000000000000000000, 0.000000000000000000 ) ) ;
#133 = ORIENTED_EDGE ( 'NONE', *, *, #274, .T. ) ;
#134 = DIRECTION ( 'NONE',  ( 1.000000000000000000, 0.000000000000000000, 0.000000000000000000 ) ) ;
#135 = ORIENTED_EDGE ( 'NONE', *, *, #258, .F. ) ;
#136 = FACE_OUTER_BOUND ( 'NONE', #91, .T. ) ;
#137 = PRODUCT_DEFINITION_FORMATION_WITH_SPECIFIED_SOURCE ( 'ANY', '', #13, .NOT_KNOWN. ) ;
#138 = ORIENTED_EDGE ( 'NONE', *, *, #294, .F. ) ;
#139 = EDGE_CURVE ( 'NONE', #89, #22, #144, .T. ) ;
#140 =( CONVERSION_BASED_UNIT ( 'INCH', #56 ) LENGTH_UNIT ( ) NAMED_UNIT ( #195 ) );
#141 = DIRECTION ( 'NONE',  ( -1.000000000000000000, 0.000000000000000000, 0.000000000000000000 ) ) ;
#142 = DIRECTION ( 'NONE',  ( -1.224646799147353207E-16, -0.000000000000000000, -1.000000000000000000 ) ) ;
#143 = EDGE_CURVE ( 'NONE', #229, #127, #293, .T. ) ;
#144 = CIRCLE ( 'NONE', #99, 0.1376577045000000055 ) ;
#145 = DIRECTION ( 'NONE',  ( 1.000000000000000000, 0.000000000000000000, 0.000000000000000000 ) ) ;
#146 = CARTESIAN_POINT ( 'NONE',  ( -0.1376577044999999222, 1.807200287235109884E-17, 0.8661419999999999675 ) ) ;
#147 = DIRECTION ( 'NONE',  ( 1.000000000000000000, 0.000000000000000000, 0.000000000000000000 ) ) ;
#148 = DIRECTION ( 'NONE',  ( -1.000000000000000000, 0.000000000000000000, 1.224646799147353207E-16 ) ) ;
#149 = ADVANCED_FACE ( 'NONE', ( #193 ), #72, .T. ) ;
#150 = FACE_OUTER_BOUND ( 'NONE', #228, .T. ) ;
#151 = CARTESIAN_POINT ( 'NONE',  ( 1.060718027907086782E-16, 0.000000000000000000, 0.8661419999999999675 ) ) ;
#152 = CARTESIAN_POINT ( 'NONE',  ( -0.1376577045000000055, 0.000000000000000000, 1.685820671938972047E-17 ) ) ;
#153 = EDGE_CURVE ( 'NONE', #229, #251, #83, .T. ) ;
#154 = FACE_OUTER_BOUND ( 'NONE', #286, .T. ) ;
#155 = EDGE_LOOP ( 'NONE', ( #75, #88, #7, #51 ) ) ;
#156 = AXIS2_PLACEMENT_3D ( 'NONE', #118, #12, #210 ) ;
#157 =( GEOMETRIC_REPRESENTATION_CONTEXT ( 3 ) GLOBAL_UNCERTAINTY_ASSIGNED_CONTEXT ( ( #26 ) ) GLOBAL_UNIT_ASSIGNED_CONTEXT ( ( #206, #207, #32 ) ) REPRESENTATION_CONTEXT ( 'NONE', 'WORKASPACE' ) );
#158 = CYLINDRICAL_SURFACE ( 'NONE', #53, 0.1574804999999999955 ) ;
#159 = CARTESIAN_POINT ( 'NONE',  ( -0.1376577045000000055, 0.000000000000000000, 3.371641343877944094E-17 ) ) ;
#160 = UNCERTAINTY_MEASURE_WITH_UNIT (LENGTH_MEASURE( 1.000000000000000082E-05 ), #98, 'distance_accuracy_value', 'NONE');
#161 = DIRECTION ( 'NONE',  ( -1.224646799147353207E-16, -0.000000000000000000, -1.000000000000000000 ) ) ;
#162 = ORIENTED_EDGE ( 'NONE', *, *, #17, .T. ) ;
#163 = EDGE_LOOP ( 'NONE', ( #254, #186, #205, #70 ) ) ;
#164 = EDGE_CURVE ( 'NONE', #94, #111, #243, .T. ) ;
#165 = CARTESIAN_POINT ( 'NONE',  ( 0.000000000000000000, 0.000000000000000000, 2.465314999999999923 ) ) ;
#166 = DIRECTION ( 'NONE',  ( -1.224646799147353207E-16, -0.000000000000000000, -1.000000000000000000 ) ) ;
#167 = ADVANCED_BREP_SHAPE_REPRESENTATION ( 'Micro_AEMM-070-4', ( #289, #120 ), #240 ) ;
#168 = SURFACE_STYLE_USAGE ( .BOTH. , #77 ) ;
#169 = STYLED_ITEM ( 'NONE', ( #261 ), #167 ) ;
#170 = DIRECTION ( 'NONE',  ( 0.000000000000000000, 0.000000000000000000, -1.000000000000000000 ) ) ;
#171 = COLOUR_RGB ( '',0.7921568627450980005, 0.8196078431372548767, 0.9333333333333333481 ) ;
#172 = CIRCLE ( 'NONE', #105, 0.1574804999999999955 ) ;
#173 = DIRECTION ( 'NONE',  ( -0.000000000000000000, -0.000000000000000000, -1.000000000000000000 ) ) ;
#174 = FACE_OUTER_BOUND ( 'NONE', #54, .T. ) ;
#175 = EDGE_LOOP ( 'NONE', ( #135, #201, #133, #199 ) ) ;
#176 = LINE ( 'NONE', #272, #203 ) ;
#177 = CARTESIAN_POINT ( 'NONE',  ( -0.1574804999999999955, 0.000000000000000000, 2.480315000000000047 ) ) ;
#178 = DIRECTION ( 'NONE',  ( -0.000000000000000000, -0.000000000000000000, -1.000000000000000000 ) ) ;
#179 = PLANE ( 'NONE',  #131 ) ;
#180 = VECTOR ( 'NONE', #142, 39.37007874015748143 ) ;
#181 = FACE_OUTER_BOUND ( 'NONE', #279, .T. ) ;
#182 = ORIENTED_EDGE ( 'NONE', *, *, #28, .T. ) ;
#183 =( LENGTH_UNIT ( ) NAMED_UNIT ( * ) SI_UNIT ( $, .METRE. ) );
#184 = ADVANCED_FACE ( 'NONE', ( #181 ), #158, .T. ) ;
#185 = EDGE_LOOP ( 'NONE', ( #273, #110, #114, #3 ) ) ;
#186 = ORIENTED_EDGE ( 'NONE', *, *, #87, .T. ) ;
#187 =( LENGTH_UNIT ( ) NAMED_UNIT ( * ) SI_UNIT ( $, .METRE. ) );
#188 =( NAMED_UNIT ( * ) PLANE_ANGLE_UNIT ( ) SI_UNIT ( $, .RADIAN. ) );
#189 = MECHANICAL_DESIGN_GEOMETRIC_PRESENTATION_REPRESENTATION (  '', ( #169 ), #220 ) ;
#190 = DIRECTION ( 'NONE',  ( -1.000000000000000000, 0.000000000000000000, 1.224646799147353207E-16 ) ) ;
#191 =( NAMED_UNIT ( * ) PLANE_ANGLE_UNIT ( ) SI_UNIT ( $, .RADIAN. ) );
#192 = FACE_OUTER_BOUND ( 'NONE', #185, .T. ) ;
#193 = FACE_OUTER_BOUND ( 'NONE', #155, .T. ) ;
#194 = AXIS2_PLACEMENT_3D ( 'NONE', #291, #267, #241 ) ;
#195 = DIMENSIONAL_EXPONENTS ( 1.000000000000000000, 0.000000000000000000, 0.000000000000000000, 0.000000000000000000, 0.000000000000000000, 0.000000000000000000, 0.000000000000000000 ) ;
#196 = DIRECTION ( 'NONE',  ( -1.224646799147353207E-16, -0.000000000000000000, -1.000000000000000000 ) ) ;
#197 = DIRECTION ( 'NONE',  ( 1.000000000000000000, 0.000000000000000000, 0.000000000000000000 ) ) ;
#198 = CARTESIAN_POINT ( 'NONE',  ( 1.060718027907086782E-16, 0.000000000000000000, 0.8661419999999999675 ) ) ;
#199 = ORIENTED_EDGE ( 'NONE', *, *, #164, .T. ) ;
#200 = ORIENTED_EDGE ( 'NONE', *, *, #164, .F. ) ;
#201 = ORIENTED_EDGE ( 'NONE', *, *, #202, .F. ) ;
#202 = EDGE_CURVE ( 'NONE', #95, #93, #128, .T. ) ;
#203 = VECTOR ( 'NONE', #69, 39.37007874015748143 ) ;
#204 = DIRECTION ( 'NONE',  ( -0.1736481776669312194, 2.126576849575783625E-17, 0.9848077530122080203 ) ) ;
#205 = ORIENTED_EDGE ( 'NONE', *, *, #242, .F. ) ;
#206 =( CONVERSION_BASED_UNIT ( 'INCH', #11 ) LENGTH_UNIT ( ) NAMED_UNIT ( #41 ) );
#207 =( NAMED_UNIT ( * ) PLANE_ANGLE_UNIT ( ) SI_UNIT ( $, .RADIAN. ) );
#208 = FILL_AREA_STYLE ('',( #96 ) ) ;
#209 = AXIS2_PLACEMENT_3D ( 'NONE', #78, #166, #260 ) ;
#210 = DIRECTION ( 'NONE',  ( 1.000000000000000000, 0.000000000000000000, 0.000000000000000000 ) ) ;
#211 = CARTESIAN_POINT ( 'NONE',  ( 0.1376577045000001165, 0.000000000000000000, 0.8661419999999999675 ) ) ;
#212 = DIRECTION ( 'NONE',  ( 0.000000000000000000, 0.000000000000000000, -1.000000000000000000 ) ) ;
#213 = DIRECTION ( 'NONE',  ( -1.000000000000000000, 0.000000000000000000, 0.000000000000000000 ) ) ;
#214 = PRESENTATION_LAYER_ASSIGNMENT (  '', '', ( #104 ) ) ;
#215 = CARTESIAN_POINT ( 'NONE',  ( 0.000000000000000000, 0.000000000000000000, 2.480315000000000047 ) ) ;
#216 = PRODUCT_RELATED_PRODUCT_CATEGORY ( 'part', '', ( #13 ) ) ;
#217 = CARTESIAN_POINT ( 'NONE',  ( -0.1376577044999999222, 1.685820671938972047E-17, 0.8661419999999999675 ) ) ;
#218 = CARTESIAN_POINT ( 'NONE',  ( 0.1424804999999990940, 1.744882882659133128E-17, 2.480315000000000047 ) ) ;
#219 = VECTOR ( 'NONE', #19, 39.37007874015748854 ) ;
#220 =( GEOMETRIC_REPRESENTATION_CONTEXT ( 3 ) GLOBAL_UNCERTAINTY_ASSIGNED_CONTEXT ( ( #232 ) ) GLOBAL_UNIT_ASSIGNED_CONTEXT ( ( #140, #191, #234 ) ) REPRESENTATION_CONTEXT ( 'NONE', 'WORKASPACE' ) );
#221 = DIRECTION ( 'NONE',  ( 0.000000000000000000, 0.000000000000000000, 1.000000000000000000 ) ) ;
#222 = ORIENTED_EDGE ( 'NONE', *, *, #35, .T. ) ;
#223 = DIRECTION ( 'NONE',  ( 1.000000000000000000, 0.000000000000000000, 0.000000000000000000 ) ) ;
#224 = LINE ( 'NONE', #218, #219 ) ;
#225 = ADVANCED_FACE ( 'NONE', ( #150 ), #227, .F. ) ;
#226 = ORIENTED_EDGE ( 'NONE', *, *, #139, .F. ) ;
#227 = PLANE ( 'NONE',  #4 ) ;
#228 = EDGE_LOOP ( 'NONE', ( #52, #20 ) ) ;
#229 = VERTEX_POINT ( 'NONE', #18 ) ;
#230 = CIRCLE ( 'NONE', #266, 0.1376577045000000055 ) ;
#231 = CARTESIAN_POINT ( 'NONE',  ( 0.000000000000000000, 0.000000000000000000, 2.480315000000000047 ) ) ;
#232 = UNCERTAINTY_MEASURE_WITH_UNIT (LENGTH_MEASURE( 1.000000000000000082E-05 ), #140, 'distance_accuracy_value', 'NONE');
#233 = FILL_AREA_STYLE ('',( #288 ) ) ;
#234 =( NAMED_UNIT ( * ) SI_UNIT ( $, .STERADIAN. ) SOLID_ANGLE_UNIT ( ) );
#235 = CARTESIAN_POINT ( 'NONE',  ( 0.1376577045000000055, 1.685820671938972047E-17, 0.000000000000000000 ) ) ;
#236 = CONICAL_SURFACE ( 'NONE', #290, 0.1376577045000000055, 0.1745329251994339192 ) ;
#237 = LINE ( 'NONE', #57, #180 ) ;
#238 = PRESENTATION_STYLE_ASSIGNMENT (( #34 ) ) ;
#239 = PRODUCT_DEFINITION_SHAPE ( 'NONE', 'NONE',  #81 ) ;
#240 =( GEOMETRIC_REPRESENTATION_CONTEXT ( 3 ) GLOBAL_UNCERTAINTY_ASSIGNED_CONTEXT ( ( #160 ) ) GLOBAL_UNIT_ASSIGNED_CONTEXT ( ( #98, #188, #285 ) ) REPRESENTATION_CONTEXT ( 'NONE', 'WORKASPACE' ) );
#241 = DIRECTION ( 'NONE',  ( 1.000000000000000000, 0.000000000000000000, 0.000000000000000000 ) ) ;
#242 = EDGE_CURVE ( 'NONE', #22, #89, #38, .T. ) ;
#243 = CIRCLE ( 'NONE', #125, 0.1574804999999999955 ) ;
#244 = DIRECTION ( 'NONE',  ( 0.000000000000000000, 0.000000000000000000, 1.000000000000000000 ) ) ;
#245 = ORIENTED_EDGE ( 'NONE', *, *, #28, .F. ) ;
#246 = DIRECTION ( 'NONE',  ( 0.000000000000000000, 0.000000000000000000, 1.000000000000000000 ) ) ;
#247 = COLOUR_RGB ( '',0.7921568627450980005, 0.8196078431372548767, 0.9333333333333333481 ) ;
#248 = ADVANCED_FACE ( 'NONE', ( #174 ), #236, .T. ) ;
#249 = CARTESIAN_POINT ( 'NONE',  ( 0.1574804999999999955, 1.928579902531247412E-17, 2.465314999999999923 ) ) ;
#250 = CARTESIAN_POINT ( 'NONE',  ( 0.000000000000000000, 0.000000000000000000, 0.000000000000000000 ) ) ;
#251 = VERTEX_POINT ( 'NONE', #126 ) ;
#252 = ORIENTED_EDGE ( 'NONE', *, *, #274, .F. ) ;
#253 = CARTESIAN_POINT ( 'NONE',  ( 0.000000000000000000, 0.000000000000000000, 0.000000000000000000 ) ) ;
#254 = ORIENTED_EDGE ( 'NONE', *, *, #294, .T. ) ;
#255 = MECHANICAL_DESIGN_GEOMETRIC_PRESENTATION_REPRESENTATION (  '', ( #104 ), #157 ) ;
#256 = SURFACE_STYLE_FILL_AREA ( #208 ) ;
#257 = FACE_OUTER_BOUND ( 'NONE', #163, .T. ) ;
#258 = EDGE_CURVE ( 'NONE', #93, #111, #106, .T. ) ;
#259 = LENGTH_MEASURE_WITH_UNIT ( LENGTH_MEASURE( 0.02539999999999999897 ), #183 );
#260 = DIRECTION ( 'NONE',  ( -1.000000000000000000, 0.000000000000000000, 1.224646799147353207E-16 ) ) ;
#261 = PRESENTATION_STYLE_ASSIGNMENT (( #168 ) ) ;
#262 = AXIS2_PLACEMENT_3D ( 'NONE', #80, #170, #213 ) ;
#263 = EDGE_CURVE ( 'NONE', #23, #94, #6, .T. ) ;
#264 = APPLICATION_CONTEXT ( 'automotive_design' ) ;
#265 = AXIS2_PLACEMENT_3D ( 'NONE', #215, #221, #134 ) ;
#266 = AXIS2_PLACEMENT_3D ( 'NONE', #71, #117, #141 ) ;
#267 = DIRECTION ( 'NONE',  ( 0.000000000000000000, 0.000000000000000000, -1.000000000000000000 ) ) ;
#268 = DIRECTION ( 'NONE',  ( -0.000000000000000000, -0.000000000000000000, -1.000000000000000000 ) ) ;
#269 = AXIS2_PLACEMENT_3D ( 'NONE', #24, #196, #86 ) ;
#270 = DIRECTION ( 'NONE',  ( -1.224646799147353207E-16, -0.000000000000000000, -1.000000000000000000 ) ) ;
#271 = ORIENTED_EDGE ( 'NONE', *, *, #153, .T. ) ;
#272 = CARTESIAN_POINT ( 'NONE',  ( 0.1376577045000001165, 0.000000000000000000, 0.8661419999999999675 ) ) ;
#273 = ORIENTED_EDGE ( 'NONE', *, *, #102, .F. ) ;
#274 = EDGE_CURVE ( 'NONE', #95, #94, #176, .T. ) ;
#275 = DIRECTION ( 'NONE',  ( -1.000000000000000000, 0.000000000000000000, 0.000000000000000000 ) ) ;
#276 = DIRECTION ( 'NONE',  ( 1.000000000000000000, 0.000000000000000000, -0.000000000000000000 ) ) ;
#277 = PRODUCT_DEFINITION_CONTEXT ( 'detailed design', #283, 'design' ) ;
#278 = VECTOR ( 'NONE', #43, 39.37007874015748143 ) ;
#279 = EDGE_LOOP ( 'NONE', ( #2, #25, #162, #200 ) ) ;
#280 = ORIENTED_EDGE ( 'NONE', *, *, #87, .F. ) ;
#281 = CARTESIAN_POINT ( 'NONE',  ( 0.000000000000000000, 0.000000000000000000, 0.000000000000000000 ) ) ;
#282 = ADVANCED_FACE ( 'NONE', ( #154 ), #44, .T. ) ;
#283 = APPLICATION_CONTEXT ( 'automotive_design' ) ;
#284 = AXIS2_PLACEMENT_3D ( 'NONE', #165, #212, #145 ) ;
#285 =( NAMED_UNIT ( * ) SI_UNIT ( $, .STERADIAN. ) SOLID_ANGLE_UNIT ( ) );
#286 = EDGE_LOOP ( 'NONE', ( #49, #27, #245, #130 ) ) ;
#287 = CARTESIAN_POINT ( 'NONE',  ( 0.000000000000000000, 0.000000000000000000, 2.480315000000000047 ) ) ;
#288 = FILL_AREA_STYLE_COLOUR ( '', #171 ) ;
#289 = MANIFOLD_SOLID_BREP ( 'Cut-Revolve1', #123 ) ;
#290 = AXIS2_PLACEMENT_3D ( 'NONE', #42, #112, #197 ) ;
#291 = CARTESIAN_POINT ( 'NONE',  ( 0.000000000000000000, 0.000000000000000000, 2.465314999999999923 ) ) ;
#292 = CIRCLE ( 'NONE', #194, 0.1574804999999999955 ) ;
#293 = LINE ( 'NONE', #14, #92 ) ;
#294 = EDGE_CURVE ( 'NONE', #93, #95, #230, .T. ) ;
#295 = DIRECTION ( 'NONE',  ( -1.224646799147353207E-16, -0.000000000000000000, -1.000000000000000000 ) ) ;
#296 = VECTOR ( 'NONE', #204, 39.37007874015747433 ) ;
#297 = CARTESIAN_POINT ( 'NONE',  ( 0.1574804999999999955, 1.928579902531247412E-17, 2.480315000000000047 ) ) ;
#298 = ORIENTED_EDGE ( 'NONE', *, *, #102, .T. ) ;
#299 = EDGE_CURVE ( 'NONE', #127, #23, #59, .T. ) ;
ENDSEC;
END-ISO-10303-21;
