ISO-10303-21;
HEADER;
FILE_DESCRIPTION (( 'STEP AP214' ),
    '1' );
FILE_NAME ('Micro_SFPM-020-10.STEP',
    '2021-09-02T06:34:33',
    ( '' ),
    ( '' ),
    'SwSTEP 2.0',
    'SolidWorks 2020',
    '' );
FILE_SCHEMA (( 'AUTOMOTIVE_DESIGN' ));
ENDSEC;

DATA;
#1 = VERTEX_POINT ( 'NONE', #279 ) ;
#2 = VECTOR ( 'NONE', #126, 39.37007874015748143 ) ;
#3 = CARTESIAN_POINT ( 'NONE',  ( -0.03933062999999998449, 4.816613013794887743E-18, 0.2362200000000000133 ) ) ;
#4 = APPLICATION_PROTOCOL_DEFINITION ( 'draft international standard', 'automotive_design', 1998, #278 ) ;
#5 = CARTESIAN_POINT ( 'NONE',  ( 0.04405499999999960142, 6.313666573004155588E-18, 2.244094000000000033 ) ) ;
#6 = CIRCLE ( 'NONE', #9, 0.05905500000000001720 ) ;
#7 = CARTESIAN_POINT ( 'NONE',  ( 0.0000000000000000000, 0.0000000000000000000, 0.0000000000000000000 ) ) ;
#8 = CARTESIAN_POINT ( 'NONE',  ( 0.0000000000000000000, 0.0000000000000000000, 2.244094000000000033 ) ) ;
#9 = AXIS2_PLACEMENT_3D ( 'NONE', #173, #192, #215 ) ;
#10 = DIRECTION ( 'NONE',  ( -1.000000000000000000, 0.0000000000000000000, 0.0000000000000000000 ) ) ;
#11 = CARTESIAN_POINT ( 'NONE',  ( -0.05905500000000001720, 0.0000000000000000000, 2.244094000000000033 ) ) ;
#12 =( GEOMETRIC_REPRESENTATION_CONTEXT ( 3 ) GLOBAL_UNCERTAINTY_ASSIGNED_CONTEXT ( ( #299 ) ) GLOBAL_UNIT_ASSIGNED_CONTEXT ( ( #227, #226, #111 ) ) REPRESENTATION_CONTEXT ( 'NONE', 'WORKASPACE' ) );
#13 = DIRECTION ( 'NONE',  ( -1.224646799147353207E-16, -0.0000000000000000000, -1.000000000000000000 ) ) ;
#14 = SURFACE_STYLE_USAGE ( .BOTH. , #136 ) ;
#15 = ORIENTED_EDGE ( 'NONE', *, *, #234, .T. ) ;
#16 = ORIENTED_EDGE ( 'NONE', *, *, #220, .F. ) ;
#17 = CIRCLE ( 'NONE', #197, 0.05905500000000001720 ) ;
#18 = EDGE_CURVE ( 'NONE', #187, #42, #62, .T. ) ;
#19 =( NAMED_UNIT ( * ) SI_UNIT ( $, .STERADIAN. ) SOLID_ANGLE_UNIT ( ) );
#20 = ORIENTED_EDGE ( 'NONE', *, *, #298, .F. ) ;
#21 = ORIENTED_EDGE ( 'NONE', *, *, #245, .F. ) ;
#22 = LINE ( 'NONE', #166, #185 ) ;
#23 = ORIENTED_EDGE ( 'NONE', *, *, #168, .T. ) ;
#24 = UNCERTAINTY_MEASURE_WITH_UNIT (LENGTH_MEASURE( 1.000000000000000082E-05 ), #233, 'distance_accuracy_value', 'NONE');
#25 = CARTESIAN_POINT ( 'NONE',  ( -0.05905500000000001720, 0.0000000000000000000, 2.229093999999999465 ) ) ;
#26 = STYLED_ITEM ( 'NONE', ( #143 ), #46 ) ;
#27 = ORIENTED_EDGE ( 'NONE', *, *, #204, .T. ) ;
#28 = ORIENTED_EDGE ( 'NONE', *, *, #18, .T. ) ;
#29 = PRODUCT_DEFINITION ( 'UNKNOWN', '', #164, #121 ) ;
#30 = AXIS2_PLACEMENT_3D ( 'NONE', #146, #257, #238 ) ;
#31 = ORIENTED_EDGE ( 'NONE', *, *, #234, .F. ) ;
#32 = DIRECTION ( 'NONE',  ( -1.000000000000000000, 0.0000000000000000000, 1.224646799147353207E-16 ) ) ;
#33 = DIRECTION ( 'NONE',  ( -0.0000000000000000000, -0.0000000000000000000, -1.000000000000000000 ) ) ;
#34 = CARTESIAN_POINT ( 'NONE',  ( -0.04405499999999960142, 0.0000000000000000000, 2.244094000000000033 ) ) ;
#35 = COLOUR_RGB ( '',0.7921568627450980005, 0.8196078431372548767, 0.9333333333333333481 ) ;
#36 = LENGTH_MEASURE_WITH_UNIT ( LENGTH_MEASURE( 0.02539999999999999897 ), #115 );
#37 = VERTEX_POINT ( 'NONE', #25 ) ;
#38 = CARTESIAN_POINT ( 'NONE',  ( 0.0000000000000000000, 0.0000000000000000000, 2.244094000000000033 ) ) ;
#39 = CIRCLE ( 'NONE', #116, 0.03933063000000001225 ) ;
#40 = ORIENTED_EDGE ( 'NONE', *, *, #181, .F. ) ;
#41 = LINE ( 'NONE', #219, #82 ) ;
#42 = VERTEX_POINT ( 'NONE', #5 ) ;
#43 = ORIENTED_EDGE ( 'NONE', *, *, #149, .T. ) ;
#44 = SURFACE_SIDE_STYLE ('',( #141 ) ) ;
#45 = CARTESIAN_POINT ( 'NONE',  ( 2.892860668945878169E-17, 0.0000000000000000000, 0.2362200000000000133 ) ) ;
#46 = ADVANCED_BREP_SHAPE_REPRESENTATION ( 'Micro_SFPM-020-10', ( #177, #209 ), #271 ) ;
#47 = AXIS2_PLACEMENT_3D ( 'NONE', #7, #199, #242 ) ;
#48 = AXIS2_PLACEMENT_3D ( 'NONE', #291, #61, #161 ) ;
#49 = DIRECTION ( 'NONE',  ( -0.0000000000000000000, -0.0000000000000000000, -1.000000000000000000 ) ) ;
#50 = EDGE_CURVE ( 'NONE', #255, #253, #81, .T. ) ;
#51 = DIRECTION ( 'NONE',  ( -1.224646799147353207E-16, -0.0000000000000000000, -1.000000000000000000 ) ) ;
#52 = CYLINDRICAL_SURFACE ( 'NONE', #232, 0.03933063000000000531 ) ;
#53 = FACE_OUTER_BOUND ( 'NONE', #118, .T. ) ;
#54 = CIRCLE ( 'NONE', #267, 0.03933063000000001225 ) ;
#55 = CYLINDRICAL_SURFACE ( 'NONE', #95, 0.03933063000000000531 ) ;
#56 = CARTESIAN_POINT ( 'NONE',  ( -0.03933062999999998449, 6.024382343079791968E-18, 0.2362200000000000133 ) ) ;
#57 = DIRECTION ( 'NONE',  ( 1.000000000000000000, 0.0000000000000000000, -0.0000000000000000000 ) ) ;
#58 = CONICAL_SURFACE ( 'NONE', #89, 0.03933063000000001225, 0.1745329251994338915 ) ;
#59 = CARTESIAN_POINT ( 'NONE',  ( 2.892860668945878169E-17, 0.0000000000000000000, 0.2362200000000000133 ) ) ;
#60 = ORIENTED_EDGE ( 'NONE', *, *, #220, .T. ) ;
#61 = DIRECTION ( 'NONE',  ( 0.0000000000000000000, 0.0000000000000000000, -1.000000000000000000 ) ) ;
#62 = CIRCLE ( 'NONE', #30, 0.04405499999999960142 ) ;
#63 = ORIENTED_EDGE ( 'NONE', *, *, #239, .F. ) ;
#64 = CARTESIAN_POINT ( 'NONE',  ( 0.03933062999999999837, 4.816613013794885432E-18, -9.478001694819074349E-34 ) ) ;
#65 = EDGE_LOOP ( 'NONE', ( #68, #127, #69, #195 ) ) ;
#66 = DIRECTION ( 'NONE',  ( 0.0000000000000000000, 0.0000000000000000000, -1.000000000000000000 ) ) ;
#67 = PRODUCT ( 'Micro_SFPM-020-10', 'Micro_SFPM-020-10', '', ( #256 ) ) ;
#68 = ORIENTED_EDGE ( 'NONE', *, *, #214, .T. ) ;
#69 = ORIENTED_EDGE ( 'NONE', *, *, #50, .F. ) ;
#70 = DIRECTION ( 'NONE',  ( 0.0000000000000000000, 0.0000000000000000000, 1.000000000000000000 ) ) ;
#71 = DIRECTION ( 'NONE',  ( -1.000000000000000000, 0.0000000000000000000, 0.0000000000000000000 ) ) ;
#72 = AXIS2_PLACEMENT_3D ( 'NONE', #8, #49, #71 ) ;
#73 = MECHANICAL_DESIGN_GEOMETRIC_PRESENTATION_REPRESENTATION (  '', ( #289 ), #12 ) ;
#74 = LENGTH_MEASURE_WITH_UNIT ( LENGTH_MEASURE( 0.02539999999999999897 ), #297 );
#75 = ADVANCED_FACE ( 'NONE', ( #53 ), #263, .F. ) ;
#76 = ADVANCED_FACE ( 'NONE', ( #151 ), #231, .T. ) ;
#77 = CIRCLE ( 'NONE', #48, 0.05905500000000001720 ) ;
#78 = CARTESIAN_POINT ( 'NONE',  ( 5.898649710075393742E-34, 0.0000000000000000000, 4.816613013794885432E-18 ) ) ;
#79 = CARTESIAN_POINT ( 'NONE',  ( 0.04405499999999960142, 5.395181473643616524E-18, 2.244094000000000033 ) ) ;
#80 = DIRECTION ( 'NONE',  ( -1.224646799147353207E-16, -0.0000000000000000000, -1.000000000000000000 ) ) ;
#81 = CIRCLE ( 'NONE', #134, 0.03933062999999999837 ) ;
#82 = VECTOR ( 'NONE', #120, 39.37007874015748143 ) ;
#83 = ADVANCED_FACE ( 'NONE', ( #99 ), #282, .T. ) ;
#84 = CARTESIAN_POINT ( 'NONE',  ( 4.262780716838940317E-17, 0.0000000000000000000, 0.3480824609844123674 ) ) ;
#85 = DIRECTION ( 'NONE',  ( -1.224646799147353207E-16, -0.0000000000000000000, -1.000000000000000000 ) ) ;
#86 = ORIENTED_EDGE ( 'NONE', *, *, #18, .F. ) ;
#87 = EDGE_CURVE ( 'NONE', #201, #255, #124, .T. ) ;
#88 = DIRECTION ( 'NONE',  ( 1.000000000000000000, 0.0000000000000000000, 0.0000000000000000000 ) ) ;
#89 = AXIS2_PLACEMENT_3D ( 'NONE', #59, #248, #160 ) ;
#90 = ORIENTED_EDGE ( 'NONE', *, *, #87, .T. ) ;
#91 = CARTESIAN_POINT ( 'NONE',  ( 0.05905500000000001720, 7.232151672364695422E-18, 2.244094000000000033 ) ) ;
#92 = VERTEX_POINT ( 'NONE', #107 ) ;
#93 =( NAMED_UNIT ( * ) PLANE_ANGLE_UNIT ( ) SI_UNIT ( $, .RADIAN. ) );
#94 = VECTOR ( 'NONE', #202, 39.37007874015748143 ) ;
#95 = AXIS2_PLACEMENT_3D ( 'NONE', #133, #269, #205 ) ;
#96 =( NAMED_UNIT ( * ) PLANE_ANGLE_UNIT ( ) SI_UNIT ( $, .RADIAN. ) );
#97 = DIRECTION ( 'NONE',  ( -0.1736481776669311916, 2.126576849575783316E-17, 0.9848077530122080203 ) ) ;
#98 = CARTESIAN_POINT ( 'NONE',  ( 0.0000000000000000000, 0.0000000000000000000, 0.0000000000000000000 ) ) ;
#99 = FACE_OUTER_BOUND ( 'NONE', #236, .T. ) ;
#100 = ADVANCED_FACE ( 'NONE', ( #196 ), #175, .T. ) ;
#101 =( LENGTH_UNIT ( ) NAMED_UNIT ( * ) SI_UNIT ( $, .METRE. ) );
#102 = APPLICATION_CONTEXT ( 'automotive_design' ) ;
#103 = VECTOR ( 'NONE', #97, 39.37007874015747433 ) ;
#104 = COLOUR_RGB ( '',0.7921568627450980005, 0.8196078431372548767, 0.9333333333333333481 ) ;
#105 = EDGE_CURVE ( 'NONE', #42, #217, #287, .T. ) ;
#106 = CARTESIAN_POINT ( 'NONE',  ( 0.0000000000000000000, 0.0000000000000000000, 0.0000000000000000000 ) ) ;
#107 = CARTESIAN_POINT ( 'NONE',  ( 0.05905500000000005884, 7.232151672364700045E-18, 0.3480824609844123674 ) ) ;
#108 = DIRECTION ( 'NONE',  ( 0.0000000000000000000, 0.0000000000000000000, -1.000000000000000000 ) ) ;
#109 = CARTESIAN_POINT ( 'NONE',  ( -0.04405499999999960142, 0.0000000000000000000, 2.244094000000000033 ) ) ;
#110 = AXIS2_PLACEMENT_3D ( 'NONE', #243, #130, #10 ) ;
#111 =( NAMED_UNIT ( * ) SI_UNIT ( $, .STERADIAN. ) SOLID_ANGLE_UNIT ( ) );
#112 = ADVANCED_FACE ( 'NONE', ( #285 ), #265, .T. ) ;
#113 = LINE ( 'NONE', #34, #135 ) ;
#114 = ORIENTED_EDGE ( 'NONE', *, *, #200, .T. ) ;
#115 =( LENGTH_UNIT ( ) NAMED_UNIT ( * ) SI_UNIT ( $, .METRE. ) );
#116 = AXIS2_PLACEMENT_3D ( 'NONE', #290, #13, #274 ) ;
#117 = ORIENTED_EDGE ( 'NONE', *, *, #214, .F. ) ;
#118 = EDGE_LOOP ( 'NONE', ( #163, #43 ) ) ;
#119 = DIRECTION ( 'NONE',  ( 0.1736481776669313859, 0.0000000000000000000, 0.9848077530122077983 ) ) ;
#120 = DIRECTION ( 'NONE',  ( -1.224646799147353207E-16, -0.0000000000000000000, -1.000000000000000000 ) ) ;
#121 = PRODUCT_DEFINITION_CONTEXT ( 'detailed design', #278, 'design' ) ;
#122 = VERTEX_POINT ( 'NONE', #244 ) ;
#123 = CARTESIAN_POINT ( 'NONE',  ( -0.03933062999999999837, 0.0000000000000000000, 9.633226027589770864E-18 ) ) ;
#124 = LINE ( 'NONE', #218, #2 ) ;
#125 = MECHANICAL_DESIGN_GEOMETRIC_PRESENTATION_REPRESENTATION (  '', ( #26 ), #259 ) ;
#126 = DIRECTION ( 'NONE',  ( -1.224646799147353207E-16, -0.0000000000000000000, -1.000000000000000000 ) ) ;
#127 = ORIENTED_EDGE ( 'NONE', *, *, #284, .T. ) ;
#128 = AXIS2_PLACEMENT_3D ( 'NONE', #45, #281, #224 ) ;
#129 = AXIS2_PLACEMENT_3D ( 'NONE', #207, #292, #88 ) ;
#130 = DIRECTION ( 'NONE',  ( 0.0000000000000000000, 0.0000000000000000000, -1.000000000000000000 ) ) ;
#131 = ADVANCED_FACE ( 'NONE', ( #221 ), #52, .T. ) ;
#132 = LINE ( 'NONE', #3, #103 ) ;
#133 = CARTESIAN_POINT ( 'NONE',  ( 0.0000000000000000000, 0.0000000000000000000, 0.0000000000000000000 ) ) ;
#134 = AXIS2_PLACEMENT_3D ( 'NONE', #78, #222, #260 ) ;
#135 = VECTOR ( 'NONE', #206, 39.37007874015748143 ) ;
#136 = SURFACE_SIDE_STYLE ('',( #189 ) ) ;
#137 = ORIENTED_EDGE ( 'NONE', *, *, #251, .F. ) ;
#138 = DIRECTION ( 'NONE',  ( -0.0000000000000000000, -0.0000000000000000000, -1.000000000000000000 ) ) ;
#139 = EDGE_LOOP ( 'NONE', ( #276, #86, #15, #63 ) ) ;
#140 = ORIENTED_EDGE ( 'NONE', *, *, #105, .T. ) ;
#141 = SURFACE_STYLE_FILL_AREA ( #254 ) ;
#142 = EDGE_LOOP ( 'NONE', ( #28, #165 ) ) ;
#143 = PRESENTATION_STYLE_ASSIGNMENT (( #193 ) ) ;
#144 = ADVANCED_FACE ( 'NONE', ( #153 ), #145, .T. ) ;
#145 = CONICAL_SURFACE ( 'NONE', #110, 0.04405499999999960142, 0.7853981633974446153 ) ;
#146 = CARTESIAN_POINT ( 'NONE',  ( 0.0000000000000000000, 0.0000000000000000000, 2.244094000000000033 ) ) ;
#147 = SHAPE_DEFINITION_REPRESENTATION ( #188, #46 ) ;
#148 = DIMENSIONAL_EXPONENTS ( 1.000000000000000000, 0.0000000000000000000, 0.0000000000000000000, 0.0000000000000000000, 0.0000000000000000000, 0.0000000000000000000, 0.0000000000000000000 ) ;
#149 = EDGE_CURVE ( 'NONE', #253, #255, #223, .T. ) ;
#150 = DIMENSIONAL_EXPONENTS ( 1.000000000000000000, 0.0000000000000000000, 0.0000000000000000000, 0.0000000000000000000, 0.0000000000000000000, 0.0000000000000000000, 0.0000000000000000000 ) ;
#151 = FACE_OUTER_BOUND ( 'NONE', #249, .T. ) ;
#152 = DIRECTION ( 'NONE',  ( -1.000000000000000000, 0.0000000000000000000, 0.0000000000000000000 ) ) ;
#153 = FACE_OUTER_BOUND ( 'NONE', #139, .T. ) ;
#154 = VECTOR ( 'NONE', #138, 39.37007874015748143 ) ;
#155 = CARTESIAN_POINT ( 'NONE',  ( 0.0000000000000000000, 0.0000000000000000000, 2.244094000000000033 ) ) ;
#156 = LINE ( 'NONE', #91, #154 ) ;
#157 = DIRECTION ( 'NONE',  ( 1.000000000000000000, 0.0000000000000000000, 0.0000000000000000000 ) ) ;
#158 = AXIS2_PLACEMENT_3D ( 'NONE', #155, #172, #241 ) ;
#159 = CARTESIAN_POINT ( 'NONE',  ( 0.05905500000000001720, 7.232151672364695422E-18, 2.229093999999999465 ) ) ;
#160 = DIRECTION ( 'NONE',  ( 1.000000000000000000, 0.0000000000000000000, 0.0000000000000000000 ) ) ;
#161 = DIRECTION ( 'NONE',  ( 1.000000000000000000, 0.0000000000000000000, 0.0000000000000000000 ) ) ;
#162 = UNCERTAINTY_MEASURE_WITH_UNIT (LENGTH_MEASURE( 1.000000000000000082E-05 ), #171, 'distance_accuracy_value', 'NONE');
#163 = ORIENTED_EDGE ( 'NONE', *, *, #50, .T. ) ;
#164 = PRODUCT_DEFINITION_FORMATION_WITH_SPECIFIED_SOURCE ( 'ANY', '', #67, .NOT_KNOWN. ) ;
#165 = ORIENTED_EDGE ( 'NONE', *, *, #245, .T. ) ;
#166 = CARTESIAN_POINT ( 'NONE',  ( 0.03933063000000004000, 0.0000000000000000000, 0.2362200000000000133 ) ) ;
#167 = ORIENTED_EDGE ( 'NONE', *, *, #251, .T. ) ;
#168 = EDGE_CURVE ( 'NONE', #201, #1, #132, .T. ) ;
#169 = APPLICATION_PROTOCOL_DEFINITION ( 'draft international standard', 'automotive_design', 1998, #102 ) ;
#170 = ORIENTED_EDGE ( 'NONE', *, *, #284, .F. ) ;
#171 =( CONVERSION_BASED_UNIT ( 'INCH', #261 ) LENGTH_UNIT ( ) NAMED_UNIT ( #150 ) );
#172 = DIRECTION ( 'NONE',  ( -0.0000000000000000000, -0.0000000000000000000, -1.000000000000000000 ) ) ;
#173 = CARTESIAN_POINT ( 'NONE',  ( 4.262780716838940317E-17, 0.0000000000000000000, 0.3480824609844123674 ) ) ;
#174 = ADVANCED_FACE ( 'NONE', ( #272 ), #58, .T. ) ;
#175 = CYLINDRICAL_SURFACE ( 'NONE', #72, 0.05905500000000001720 ) ;
#176 = CARTESIAN_POINT ( 'NONE',  ( 0.0000000000000000000, 0.0000000000000000000, 2.244094000000000033 ) ) ;
#177 = MANIFOLD_SOLID_BREP ( 'Cut-Revolve1', #178 ) ;
#178 = CLOSED_SHELL ( 'NONE', ( #190, #76, #83, #100, #112, #240, #144, #174, #131, #75 ) ) ;
#179 = DIRECTION ( 'NONE',  ( -1.000000000000000000, 0.0000000000000000000, 1.224646799147352961E-16 ) ) ;
#180 = FILL_AREA_STYLE_COLOUR ( '', #104 ) ;
#181 = EDGE_CURVE ( 'NONE', #217, #92, #156, .T. ) ;
#182 = DIRECTION ( 'NONE',  ( -1.224646799147353207E-16, -0.0000000000000000000, -1.000000000000000000 ) ) ;
#183 = PLANE ( 'NONE',  #266 ) ;
#184 = ORIENTED_EDGE ( 'NONE', *, *, #247, .F. ) ;
#185 = VECTOR ( 'NONE', #119, 39.37007874015748143 ) ;
#186 = CARTESIAN_POINT ( 'NONE',  ( 0.0000000000000000000, 0.0000000000000000000, 2.229093999999999465 ) ) ;
#187 = VERTEX_POINT ( 'NONE', #109 ) ;
#188 = PRODUCT_DEFINITION_SHAPE ( 'NONE', 'NONE',  #29 ) ;
#189 = SURFACE_STYLE_FILL_AREA ( #203 ) ;
#190 = ADVANCED_FACE ( 'NONE', ( #229 ), #55, .T. ) ;
#191 = EDGE_LOOP ( 'NONE', ( #40, #211, #114, #16 ) ) ;
#192 = DIRECTION ( 'NONE',  ( -1.224646799147353207E-16, -0.0000000000000000000, -1.000000000000000000 ) ) ;
#193 = SURFACE_STYLE_USAGE ( .BOTH. , #44 ) ;
#194 =( NAMED_UNIT ( * ) SI_UNIT ( $, .STERADIAN. ) SOLID_ANGLE_UNIT ( ) );
#195 = ORIENTED_EDGE ( 'NONE', *, *, #87, .F. ) ;
#196 = FACE_OUTER_BOUND ( 'NONE', #273, .T. ) ;
#197 = AXIS2_PLACEMENT_3D ( 'NONE', #186, #66, #213 ) ;
#198 = DIMENSIONAL_EXPONENTS ( 1.000000000000000000, 0.0000000000000000000, 0.0000000000000000000, 0.0000000000000000000, 0.0000000000000000000, 0.0000000000000000000, 0.0000000000000000000 ) ;
#199 = DIRECTION ( 'NONE',  ( 0.0000000000000000000, 0.0000000000000000000, 1.000000000000000000 ) ) ;
#200 = EDGE_CURVE ( 'NONE', #37, #1, #246, .T. ) ;
#201 = VERTEX_POINT ( 'NONE', #56 ) ;
#202 = DIRECTION ( 'NONE',  ( 0.7071067811865449082, 8.659560562354900811E-17, -0.7071067811865501263 ) ) ;
#203 = FILL_AREA_STYLE ('',( #180 ) ) ;
#204 = EDGE_CURVE ( 'NONE', #122, #201, #54, .T. ) ;
#205 = DIRECTION ( 'NONE',  ( -1.000000000000000000, 0.0000000000000000000, 1.224646799147353207E-16 ) ) ;
#206 = DIRECTION ( 'NONE',  ( -0.7071067811865449082, 0.0000000000000000000, -0.7071067811865501263 ) ) ;
#207 = CARTESIAN_POINT ( 'NONE',  ( 0.0000000000000000000, 0.0000000000000000000, 2.244094000000000033 ) ) ;
#208 = ORIENTED_EDGE ( 'NONE', *, *, #204, .F. ) ;
#209 = AXIS2_PLACEMENT_3D ( 'NONE', #98, #70, #258 ) ;
#210 = CARTESIAN_POINT ( 'NONE',  ( 2.892860668945878169E-17, 0.0000000000000000000, 0.2362200000000000133 ) ) ;
#211 = ORIENTED_EDGE ( 'NONE', *, *, #239, .T. ) ;
#212 = ORIENTED_EDGE ( 'NONE', *, *, #247, .T. ) ;
#213 = DIRECTION ( 'NONE',  ( 1.000000000000000000, 0.0000000000000000000, 0.0000000000000000000 ) ) ;
#214 = EDGE_CURVE ( 'NONE', #201, #122, #39, .T. ) ;
#215 = DIRECTION ( 'NONE',  ( 1.000000000000000000, 0.0000000000000000000, 0.0000000000000000000 ) ) ;
#216 = PRESENTATION_LAYER_ASSIGNMENT (  '', '', ( #26 ) ) ;
#217 = VERTEX_POINT ( 'NONE', #159 ) ;
#218 = CARTESIAN_POINT ( 'NONE',  ( -0.03933063000000000531, 0.0000000000000000000, 4.816613013794886973E-18 ) ) ;
#219 = CARTESIAN_POINT ( 'NONE',  ( 0.03933063000000000531, 4.816613013794886973E-18, -4.816613013794886973E-18 ) ) ;
#220 = EDGE_CURVE ( 'NONE', #92, #1, #294, .T. ) ;
#221 = FACE_OUTER_BOUND ( 'NONE', #264, .T. ) ;
#222 = DIRECTION ( 'NONE',  ( -1.224646799147353207E-16, -0.0000000000000000000, -1.000000000000000000 ) ) ;
#223 = CIRCLE ( 'NONE', #277, 0.03933062999999999837 ) ;
#224 = DIRECTION ( 'NONE',  ( 1.000000000000000000, 0.0000000000000000000, 0.0000000000000000000 ) ) ;
#225 = AXIS2_PLACEMENT_3D ( 'NONE', #176, #108, #152 ) ;
#226 =( NAMED_UNIT ( * ) PLANE_ANGLE_UNIT ( ) SI_UNIT ( $, .RADIAN. ) );
#227 =( CONVERSION_BASED_UNIT ( 'INCH', #36 ) LENGTH_UNIT ( ) NAMED_UNIT ( #198 ) );
#228 = ORIENTED_EDGE ( 'NONE', *, *, #200, .F. ) ;
#229 = FACE_OUTER_BOUND ( 'NONE', #65, .T. ) ;
#230 = ORIENTED_EDGE ( 'NONE', *, *, #149, .F. ) ;
#231 = CONICAL_SURFACE ( 'NONE', #128, 0.03933063000000001225, 0.1745329251994338915 ) ;
#232 = AXIS2_PLACEMENT_3D ( 'NONE', #106, #51, #32 ) ;
#233 =( CONVERSION_BASED_UNIT ( 'INCH', #74 ) LENGTH_UNIT ( ) NAMED_UNIT ( #148 ) );
#234 = EDGE_CURVE ( 'NONE', #187, #37, #113, .T. ) ;
#235 = ORIENTED_EDGE ( 'NONE', *, *, #181, .T. ) ;
#236 = EDGE_LOOP ( 'NONE', ( #21, #140, #184, #31 ) ) ;
#237 = CIRCLE ( 'NONE', #129, 0.04405499999999960142 ) ;
#238 = DIRECTION ( 'NONE',  ( 1.000000000000000000, 0.0000000000000000000, 0.0000000000000000000 ) ) ;
#239 = EDGE_CURVE ( 'NONE', #217, #37, #77, .T. ) ;
#240 = ADVANCED_FACE ( 'NONE', ( #250 ), #183, .T. ) ;
#241 = DIRECTION ( 'NONE',  ( -1.000000000000000000, 0.0000000000000000000, 0.0000000000000000000 ) ) ;
#242 = DIRECTION ( 'NONE',  ( 1.000000000000000000, 0.0000000000000000000, -0.0000000000000000000 ) ) ;
#243 = CARTESIAN_POINT ( 'NONE',  ( 0.0000000000000000000, 0.0000000000000000000, 2.244094000000000033 ) ) ;
#244 = CARTESIAN_POINT ( 'NONE',  ( 0.03933063000000004000, 0.0000000000000000000, 0.2362200000000000133 ) ) ;
#245 = EDGE_CURVE ( 'NONE', #42, #187, #237, .T. ) ;
#246 = LINE ( 'NONE', #11, #286 ) ;
#247 = EDGE_CURVE ( 'NONE', #37, #217, #17, .T. ) ;
#248 = DIRECTION ( 'NONE',  ( 1.224646799147353207E-16, 0.0000000000000000000, 1.000000000000000000 ) ) ;
#249 = EDGE_LOOP ( 'NONE', ( #117, #23, #167, #20 ) ) ;
#250 = FACE_OUTER_BOUND ( 'NONE', #142, .T. ) ;
#251 = EDGE_CURVE ( 'NONE', #1, #92, #6, .T. ) ;
#252 = FILL_AREA_STYLE_COLOUR ( '', #35 ) ;
#253 = VERTEX_POINT ( 'NONE', #64 ) ;
#254 = FILL_AREA_STYLE ('',( #252 ) ) ;
#255 = VERTEX_POINT ( 'NONE', #123 ) ;
#256 = PRODUCT_CONTEXT ( 'NONE', #102, 'mechanical' ) ;
#257 = DIRECTION ( 'NONE',  ( 0.0000000000000000000, 0.0000000000000000000, 1.000000000000000000 ) ) ;
#258 = DIRECTION ( 'NONE',  ( 1.000000000000000000, 0.0000000000000000000, 0.0000000000000000000 ) ) ;
#259 =( GEOMETRIC_REPRESENTATION_CONTEXT ( 3 ) GLOBAL_UNCERTAINTY_ASSIGNED_CONTEXT ( ( #24 ) ) GLOBAL_UNIT_ASSIGNED_CONTEXT ( ( #233, #93, #19 ) ) REPRESENTATION_CONTEXT ( 'NONE', 'WORKASPACE' ) );
#260 = DIRECTION ( 'NONE',  ( -1.000000000000000000, 0.0000000000000000000, 1.224646799147352961E-16 ) ) ;
#261 = LENGTH_MEASURE_WITH_UNIT ( LENGTH_MEASURE( 0.02539999999999999897 ), #101 );
#262 = PRESENTATION_LAYER_ASSIGNMENT (  '', '', ( #289 ) ) ;
#263 = PLANE ( 'NONE',  #47 ) ;
#264 = EDGE_LOOP ( 'NONE', ( #170, #27, #90, #230 ) ) ;
#265 = CYLINDRICAL_SURFACE ( 'NONE', #158, 0.05905500000000001720 ) ;
#266 = AXIS2_PLACEMENT_3D ( 'NONE', #38, #270, #57 ) ;
#267 = AXIS2_PLACEMENT_3D ( 'NONE', #210, #85, #295 ) ;
#268 = PRESENTATION_STYLE_ASSIGNMENT (( #14 ) ) ;
#269 = DIRECTION ( 'NONE',  ( -1.224646799147353207E-16, -0.0000000000000000000, -1.000000000000000000 ) ) ;
#270 = DIRECTION ( 'NONE',  ( 0.0000000000000000000, 0.0000000000000000000, 1.000000000000000000 ) ) ;
#271 =( GEOMETRIC_REPRESENTATION_CONTEXT ( 3 ) GLOBAL_UNCERTAINTY_ASSIGNED_CONTEXT ( ( #162 ) ) GLOBAL_UNIT_ASSIGNED_CONTEXT ( ( #171, #96, #194 ) ) REPRESENTATION_CONTEXT ( 'NONE', 'WORKASPACE' ) );
#272 = FACE_OUTER_BOUND ( 'NONE', #293, .T. ) ;
#273 = EDGE_LOOP ( 'NONE', ( #212, #235, #137, #228 ) ) ;
#274 = DIRECTION ( 'NONE',  ( -1.000000000000000000, 0.0000000000000000000, 0.0000000000000000000 ) ) ;
#275 = ORIENTED_EDGE ( 'NONE', *, *, #298, .T. ) ;
#276 = ORIENTED_EDGE ( 'NONE', *, *, #105, .F. ) ;
#277 = AXIS2_PLACEMENT_3D ( 'NONE', #288, #80, #179 ) ;
#278 = APPLICATION_CONTEXT ( 'automotive_design' ) ;
#279 = CARTESIAN_POINT ( 'NONE',  ( -0.05905499999999996863, 0.0000000000000000000, 0.3480824609844123674 ) ) ;
#280 = PRODUCT_RELATED_PRODUCT_CATEGORY ( 'part', '', ( #67 ) ) ;
#281 = DIRECTION ( 'NONE',  ( 1.224646799147353207E-16, 0.0000000000000000000, 1.000000000000000000 ) ) ;
#282 = CONICAL_SURFACE ( 'NONE', #225, 0.04405499999999960142, 0.7853981633974446153 ) ;
#283 = AXIS2_PLACEMENT_3D ( 'NONE', #84, #182, #157 ) ;
#284 = EDGE_CURVE ( 'NONE', #122, #253, #41, .T. ) ;
#285 = FACE_OUTER_BOUND ( 'NONE', #191, .T. ) ;
#286 = VECTOR ( 'NONE', #33, 39.37007874015748143 ) ;
#287 = LINE ( 'NONE', #79, #94 ) ;
#288 = CARTESIAN_POINT ( 'NONE',  ( 5.898649710075393742E-34, 0.0000000000000000000, 4.816613013794885432E-18 ) ) ;
#289 = STYLED_ITEM ( 'NONE', ( #268 ), #177 ) ;
#290 = CARTESIAN_POINT ( 'NONE',  ( 2.892860668945878169E-17, 0.0000000000000000000, 0.2362200000000000133 ) ) ;
#291 = CARTESIAN_POINT ( 'NONE',  ( 0.0000000000000000000, 0.0000000000000000000, 2.229093999999999465 ) ) ;
#292 = DIRECTION ( 'NONE',  ( 0.0000000000000000000, 0.0000000000000000000, 1.000000000000000000 ) ) ;
#293 = EDGE_LOOP ( 'NONE', ( #296, #208, #275, #60 ) ) ;
#294 = CIRCLE ( 'NONE', #283, 0.05905500000000001720 ) ;
#295 = DIRECTION ( 'NONE',  ( -1.000000000000000000, 0.0000000000000000000, 0.0000000000000000000 ) ) ;
#296 = ORIENTED_EDGE ( 'NONE', *, *, #168, .F. ) ;
#297 =( LENGTH_UNIT ( ) NAMED_UNIT ( * ) SI_UNIT ( $, .METRE. ) );
#298 = EDGE_CURVE ( 'NONE', #122, #92, #22, .T. ) ;
#299 = UNCERTAINTY_MEASURE_WITH_UNIT (LENGTH_MEASURE( 1.000000000000000082E-05 ), #227, 'distance_accuracy_value', 'NONE');
ENDSEC;
END-ISO-10303-21;
