ISO-10303-21;
HEADER;
FILE_DESCRIPTION (( 'STEP AP214' ),
    '1' );
FILE_NAME ('06060.STEP',
    '2023-07-05T16:00:30',
    ( '' ),
    ( '' ),
    'SwSTEP 2.0',
    'SolidWorks 2023',
    '' );
FILE_SCHEMA (( 'AUTOMOTIVE_DESIGN' ));
ENDSEC;

DATA;
#1 = CARTESIAN_POINT ( 'NONE',  ( -6.123233995736764803E-17, 2.500000000000000000, 0.000000000000000000 ) ) ;
#2 =( CONVERSION_BASED_UNIT ( 'INCH', #14 ) LENGTH_UNIT ( ) NAMED_UNIT ( #157 ) );
#3 = VERTEX_POINT ( 'NONE', #199 ) ;
#4 = CARTESIAN_POINT ( 'NONE',  ( 2.817218243466271259E-16, 0.1874999999999993061, 0.000000000000000000 ) ) ;
#5 = AXIS2_PLACEMENT_3D ( 'NONE', #15, #196, #9 ) ;
#6 = UNCERTAINTY_MEASURE_WITH_UNIT (LENGTH_MEASURE( 1.000000000000000082E-05 ), #17, 'distance_accuracy_value', 'NONE');
#7 = ADVANCED_BREP_SHAPE_REPRESENTATION ( '06060', ( #45, #204, #5 ), #143 ) ;
#8 = ORIENTED_EDGE ( 'NONE', *, *, #94, .T. ) ;
#9 = DIRECTION ( 'NONE',  ( 1.000000000000000000, 0.000000000000000000, 0.000000000000000000 ) ) ;
#10 = ORIENTED_EDGE ( 'NONE', *, *, #207, .F. ) ;
#11 =( GEOMETRIC_REPRESENTATION_CONTEXT ( 3 ) GLOBAL_UNCERTAINTY_ASSIGNED_CONTEXT ( ( #6 ) ) GLOBAL_UNIT_ASSIGNED_CONTEXT ( ( #17, #259, #236 ) ) REPRESENTATION_CONTEXT ( 'NONE', 'WORKASPACE' ) );
#12 = DIRECTION ( 'NONE',  ( 0.000000000000000000, 0.7071067811865462405, 0.7071067811865487940 ) ) ;
#13 = CARTESIAN_POINT ( 'NONE',  ( -6.123233995736766036E-17, 2.500000000000000000, 0.000000000000000000 ) ) ;
#14 = LENGTH_MEASURE_WITH_UNIT ( LENGTH_MEASURE( 0.02539999999999999897 ), #33 );
#15 = CARTESIAN_POINT ( 'NONE',  ( 0.000000000000000000, 0.000000000000000000, 0.000000000000000000 ) ) ;
#16 = DIRECTION ( 'NONE',  ( -0.000000000000000000, -1.000000000000000000, -0.000000000000000000 ) ) ;
#17 =( CONVERSION_BASED_UNIT ( 'INCH', #212 ) LENGTH_UNIT ( ) NAMED_UNIT ( #179 ) );
#18 = MECHANICAL_DESIGN_GEOMETRIC_PRESENTATION_REPRESENTATION (  '', ( #102 ), #46 ) ;
#19 = DIRECTION ( 'NONE',  ( -1.000000000000000000, -1.821231995776178437E-16, 0.000000000000000000 ) ) ;
#20 = STYLED_ITEM ( 'NONE', ( #145 ), #183 ) ;
#21 = ADVANCED_FACE ( 'NONE', ( #112 ), #180, .T. ) ;
#22 = PRESENTATION_STYLE_ASSIGNMENT (( #238 ) ) ;
#23 = CARTESIAN_POINT ( 'NONE',  ( -0.1874999999999999445, 2.500000000000000000, 0.000000000000000000 ) ) ;
#24 = SURFACE_STYLE_FILL_AREA ( #172 ) ;
#25 = DIRECTION ( 'NONE',  ( 8.659560562354948882E-17, 0.7071067811865462405, -0.7071067811865487940 ) ) ;
#26 = AXIS2_PLACEMENT_3D ( 'NONE', #123, #222, #99 ) ;
#27 = APPLICATION_PROTOCOL_DEFINITION ( 'draft international standard', 'automotive_design', 1998, #57 ) ;
#28 = LINE ( 'NONE', #87, #163 ) ;
#29 = ORIENTED_EDGE ( 'NONE', *, *, #243, .T. ) ;
#30 = CIRCLE ( 'NONE', #130, 0.1874999999999999722 ) ;
#31 = AXIS2_PLACEMENT_3D ( 'NONE', #166, #209, #186 ) ;
#32 = FACE_OUTER_BOUND ( 'NONE', #51, .T. ) ;
#33 =( LENGTH_UNIT ( ) NAMED_UNIT ( * ) SI_UNIT ( $, .METRE. ) );
#34 =( CONVERSION_BASED_UNIT ( 'INCH', #135 ) LENGTH_UNIT ( ) NAMED_UNIT ( #73 ) );
#35 = ORIENTED_EDGE ( 'NONE', *, *, #250, .F. ) ;
#36 =( LENGTH_UNIT ( ) NAMED_UNIT ( * ) SI_UNIT ( $, .METRE. ) );
#37 = VECTOR ( 'NONE', #25, 39.37007874015748143 ) ;
#38 = DIRECTION ( 'NONE',  ( -1.000000000000000000, 0.000000000000000000, 0.000000000000000000 ) ) ;
#39 = PRESENTATION_STYLE_ASSIGNMENT (( #216 ) ) ;
#40 = LENGTH_MEASURE_WITH_UNIT ( LENGTH_MEASURE( 0.02539999999999999897 ), #36 );
#41 = CARTESIAN_POINT ( 'NONE',  ( 2.817218243466271259E-16, 0.1874999999999993061, 0.000000000000000000 ) ) ;
#42 =( NAMED_UNIT ( * ) SI_UNIT ( $, .STERADIAN. ) SOLID_ANGLE_UNIT ( ) );
#43 = MECHANICAL_DESIGN_GEOMETRIC_PRESENTATION_REPRESENTATION (  '', ( #170 ), #242 ) ;
#44 = SURFACE_STYLE_USAGE ( .BOTH. , #213 ) ;
#45 = MANIFOLD_SOLID_BREP ( 'Revolve - Cutting Edge', #189 ) ;
#46 =( GEOMETRIC_REPRESENTATION_CONTEXT ( 3 ) GLOBAL_UNCERTAINTY_ASSIGNED_CONTEXT ( ( #68 ) ) GLOBAL_UNIT_ASSIGNED_CONTEXT ( ( #119, #61, #164 ) ) REPRESENTATION_CONTEXT ( 'NONE', 'WORKASPACE' ) );
#47 = SURFACE_SIDE_STYLE ('',( #24 ) ) ;
#48 = ADVANCED_FACE ( 'NONE', ( #120 ), #67, .T. ) ;
#49 = CARTESIAN_POINT ( 'NONE',  ( 0.000000000000000000, 39.37007874015748143, 0.000000000000000000 ) ) ;
#50 = VECTOR ( 'NONE', #81, 39.37007874015748143 ) ;
#51 = EDGE_LOOP ( 'NONE', ( #162, #116, #93 ) ) ;
#52 = LENGTH_MEASURE_WITH_UNIT ( LENGTH_MEASURE( 0.02539999999999999897 ), #256 );
#53 = ORIENTED_EDGE ( 'NONE', *, *, #173, .F. ) ;
#54 = DIMENSIONAL_EXPONENTS ( 1.000000000000000000, 0.000000000000000000, 0.000000000000000000, 0.000000000000000000, 0.000000000000000000, 0.000000000000000000, 0.000000000000000000 ) ;
#55 = DIRECTION ( 'NONE',  ( -1.000000000000000000, 0.000000000000000000, 0.000000000000000000 ) ) ;
#56 = ORIENTED_EDGE ( 'NONE', *, *, #174, .T. ) ;
#57 = APPLICATION_CONTEXT ( 'automotive_design' ) ;
#58 =( NAMED_UNIT ( * ) PLANE_ANGLE_UNIT ( ) SI_UNIT ( $, .RADIAN. ) );
#59 = CARTESIAN_POINT ( 'NONE',  ( 0.000000000000000000, 0.000000000000000000, 0.000000000000000000 ) ) ;
#60 = MECHANICAL_DESIGN_GEOMETRIC_PRESENTATION_REPRESENTATION (  '', ( #20 ), #70 ) ;
#61 =( NAMED_UNIT ( * ) PLANE_ANGLE_UNIT ( ) SI_UNIT ( $, .RADIAN. ) );
#62 = FILL_AREA_STYLE ('',( #201 ) ) ;
#63 = PRESENTATION_LAYER_ASSIGNMENT (  '', '', ( #170 ) ) ;
#64 = CIRCLE ( 'NONE', #141, 0.1875000000000000555 ) ;
#65 = PRESENTATION_STYLE_ASSIGNMENT (( #265 ) ) ;
#66 = PLANE ( 'NONE',  #83 ) ;
#67 = CONICAL_SURFACE ( 'NONE', #251, 39.37007874015762354, 0.7853981633974501664 ) ;
#68 = UNCERTAINTY_MEASURE_WITH_UNIT (LENGTH_MEASURE( 1.000000000000000082E-05 ), #119, 'distance_accuracy_value', 'NONE');
#69 = PLANE ( 'NONE',  #234 ) ;
#70 =( GEOMETRIC_REPRESENTATION_CONTEXT ( 3 ) GLOBAL_UNCERTAINTY_ASSIGNED_CONTEXT ( ( #264 ) ) GLOBAL_UNIT_ASSIGNED_CONTEXT ( ( #2, #152, #42 ) ) REPRESENTATION_CONTEXT ( 'NONE', 'WORKASPACE' ) );
#71 = EDGE_LOOP ( 'NONE', ( #226, #221 ) ) ;
#72 = DIRECTION ( 'NONE',  ( 1.483045034828085136E-16, -1.000000000000000000, 0.000000000000000000 ) ) ;
#73 = DIMENSIONAL_EXPONENTS ( 1.000000000000000000, 0.000000000000000000, 0.000000000000000000, 0.000000000000000000, 0.000000000000000000, 0.000000000000000000, 0.000000000000000000 ) ;
#74 = DIRECTION ( 'NONE',  ( -1.483045034828085136E-16, 1.000000000000000000, -0.000000000000000000 ) ) ;
#75 = DIRECTION ( 'NONE',  ( -1.483045034828085136E-16, 1.000000000000000000, 0.000000000000000000 ) ) ;
#76 = EDGE_LOOP ( 'NONE', ( #134, #10 ) ) ;
#77 = EDGE_LOOP ( 'NONE', ( #182, #56, #35, #147 ) ) ;
#78 = DIRECTION ( 'NONE',  ( -1.000000000000000000, -1.821231995776178437E-16, 0.000000000000000000 ) ) ;
#79 =( NAMED_UNIT ( * ) PLANE_ANGLE_UNIT ( ) SI_UNIT ( $, .RADIAN. ) );
#80 = COLOUR_RGB ( '',1.000000000000000000, 0.000000000000000000, 0.000000000000000000 ) ;
#81 = DIRECTION ( 'NONE',  ( -1.483045034828085136E-16, 1.000000000000000000, -0.000000000000000000 ) ) ;
#82 =( LENGTH_UNIT ( ) NAMED_UNIT ( * ) SI_UNIT ( $, .METRE. ) );
#83 = AXIS2_PLACEMENT_3D ( 'NONE', #142, #72, #219 ) ;
#84 = LINE ( 'NONE', #23, #50 ) ;
#85 = COLOUR_RGB ( '',1.000000000000000000, 0.000000000000000000, 0.000000000000000000 ) ;
#86 = AXIS2_PLACEMENT_3D ( 'NONE', #159, #74, #114 ) ;
#87 = CARTESIAN_POINT ( 'NONE',  ( 0.1874999999999998057, 2.500000000000000000, 2.296212748401285877E-17 ) ) ;
#88 = ORIENTED_EDGE ( 'NONE', *, *, #250, .T. ) ;
#89 = FACE_OUTER_BOUND ( 'NONE', #76, .T. ) ;
#90 = COLOUR_RGB ( '',0.7921568627450980005, 0.8196078431372548767, 0.9333333333333333481 ) ;
#91 = VERTEX_POINT ( 'NONE', #59 ) ;
#92 = SURFACE_SIDE_STYLE ('',( #181 ) ) ;
#93 = ORIENTED_EDGE ( 'NONE', *, *, #107, .T. ) ;
#94 = EDGE_CURVE ( 'NONE', #225, #178, #109, .T. ) ;
#95 = SHAPE_DEFINITION_REPRESENTATION ( #124, #7 ) ;
#96 = ORIENTED_EDGE ( 'NONE', *, *, #174, .F. ) ;
#97 = ADVANCED_FACE ( 'NONE', ( #153 ), #167, .T. ) ;
#98 = DIRECTION ( 'NONE',  ( -1.483045034828085136E-16, 1.000000000000000000, -0.000000000000000000 ) ) ;
#99 = DIRECTION ( 'NONE',  ( 0.000000000000000000, -0.000000000000000000, 1.000000000000000000 ) ) ;
#100 = EDGE_CURVE ( 'NONE', #3, #132, #208, .T. ) ;
#101 = DIRECTION ( 'NONE',  ( 0.000000000000000000, 0.000000000000000000, -1.000000000000000000 ) ) ;
#102 = STYLED_ITEM ( 'NONE', ( #232 ), #45 ) ;
#103 = SURFACE_STYLE_FILL_AREA ( #62 ) ;
#104 = CARTESIAN_POINT ( 'NONE',  ( 0.000000000000000000, 0.1874999999999993061, 0.1874999999999999722 ) ) ;
#105 = STYLED_ITEM ( 'NONE', ( #39 ), #204 ) ;
#106 = CARTESIAN_POINT ( 'NONE',  ( -0.1875000000000001110, 2.500000000000000000, 0.000000000000000000 ) ) ;
#107 = EDGE_CURVE ( 'NONE', #178, #225, #30, .T. ) ;
#108 = LENGTH_MEASURE_WITH_UNIT ( LENGTH_MEASURE( 0.02539999999999999897 ), #82 );
#109 = CIRCLE ( 'NONE', #31, 0.1874999999999999722 ) ;
#110 = EDGE_LOOP ( 'NONE', ( #96, #247, #158, #252 ) ) ;
#111 = APPLICATION_CONTEXT ( 'automotive_design' ) ;
#112 = FACE_OUTER_BOUND ( 'NONE', #77, .T. ) ;
#113 = FILL_AREA_STYLE_COLOUR ( '', #202 ) ;
#114 = DIRECTION ( 'NONE',  ( -1.000000000000000000, 0.000000000000000000, 0.000000000000000000 ) ) ;
#115 = CARTESIAN_POINT ( 'NONE',  ( 0.000000000000000000, 0.000000000000000000, 0.000000000000000000 ) ) ;
#116 = ORIENTED_EDGE ( 'NONE', *, *, #173, .T. ) ;
#117 = CIRCLE ( 'NONE', #210, 0.1874999999999996947 ) ;
#118 = FILL_AREA_STYLE ('',( #187 ) ) ;
#119 =( CONVERSION_BASED_UNIT ( 'INCH', #40 ) LENGTH_UNIT ( ) NAMED_UNIT ( #129 ) );
#120 = FACE_OUTER_BOUND ( 'NONE', #128, .T. ) ;
#121 = CARTESIAN_POINT ( 'NONE',  ( 0.000000000000000000, 0.1874999999999993061, 0.000000000000000000 ) ) ;
#122 = ADVANCED_FACE ( 'NONE', ( #258 ), #235, .T. ) ;
#123 = CARTESIAN_POINT ( 'NONE',  ( 0.000000000000000000, 0.1874999999999993061, 0.000000000000000000 ) ) ;
#124 = PRODUCT_DEFINITION_SHAPE ( 'NONE', 'NONE',  #191 ) ;
#125 = DIMENSIONAL_EXPONENTS ( 1.000000000000000000, 0.000000000000000000, 0.000000000000000000, 0.000000000000000000, 0.000000000000000000, 0.000000000000000000, 0.000000000000000000 ) ;
#126 = PRESENTATION_LAYER_ASSIGNMENT (  '', '', ( #105 ) ) ;
#127 = FILL_AREA_STYLE ('',( #113 ) ) ;
#128 = EDGE_LOOP ( 'NONE', ( #53, #29, #8 ) ) ;
#129 = DIMENSIONAL_EXPONENTS ( 1.000000000000000000, 0.000000000000000000, 0.000000000000000000, 0.000000000000000000, 0.000000000000000000, 0.000000000000000000, 0.000000000000000000 ) ;
#130 = AXIS2_PLACEMENT_3D ( 'NONE', #121, #16, #101 ) ;
#131 = VERTEX_POINT ( 'NONE', #193 ) ;
#132 = VERTEX_POINT ( 'NONE', #155 ) ;
#133 = MECHANICAL_DESIGN_GEOMETRIC_PRESENTATION_REPRESENTATION (  '', ( #105 ), #11 ) ;
#134 = ORIENTED_EDGE ( 'NONE', *, *, #100, .F. ) ;
#135 = LENGTH_MEASURE_WITH_UNIT ( LENGTH_MEASURE( 0.02539999999999999897 ), #253 );
#136 = STYLED_ITEM ( 'NONE', ( #22 ), #48 ) ;
#137 = ADVANCED_FACE ( 'NONE', ( #89 ), #69, .F. ) ;
#138 = DIRECTION ( 'NONE',  ( 0.000000000000000000, 1.000000000000000000, 0.000000000000000000 ) ) ;
#139 = FILL_AREA_STYLE_COLOUR ( '', #90 ) ;
#140 = DIRECTION ( 'NONE',  ( -1.483045034828085136E-16, 1.000000000000000000, -0.000000000000000000 ) ) ;
#141 = AXIS2_PLACEMENT_3D ( 'NONE', #175, #223, #55 ) ;
#142 = CARTESIAN_POINT ( 'NONE',  ( 0.1874999999999999722, 2.500000000000000000, 0.000000000000000000 ) ) ;
#143 =( GEOMETRIC_REPRESENTATION_CONTEXT ( 3 ) GLOBAL_UNCERTAINTY_ASSIGNED_CONTEXT ( ( #171 ) ) GLOBAL_UNIT_ASSIGNED_CONTEXT ( ( #34, #58, #205 ) ) REPRESENTATION_CONTEXT ( 'NONE', 'WORKASPACE' ) );
#144 =( CONVERSION_BASED_UNIT ( 'INCH', #52 ) LENGTH_UNIT ( ) NAMED_UNIT ( #54 ) );
#145 = PRESENTATION_STYLE_ASSIGNMENT (( #160 ) ) ;
#146 = MECHANICAL_DESIGN_GEOMETRIC_PRESENTATION_REPRESENTATION (  '', ( #136 ), #257 ) ;
#147 = ORIENTED_EDGE ( 'NONE', *, *, #228, .F. ) ;
#148 = PRODUCT_RELATED_PRODUCT_CATEGORY ( 'part', '', ( #194 ) ) ;
#149 = LINE ( 'NONE', #115, #218 ) ;
#150 = DIRECTION ( 'NONE',  ( 0.000000000000000000, 1.000000000000000000, 0.000000000000000000 ) ) ;
#151 = EDGE_CURVE ( 'NONE', #131, #184, #64, .T. ) ;
#152 =( NAMED_UNIT ( * ) PLANE_ANGLE_UNIT ( ) SI_UNIT ( $, .RADIAN. ) );
#153 = FACE_OUTER_BOUND ( 'NONE', #110, .T. ) ;
#154 = PRODUCT_DEFINITION_CONTEXT ( 'detailed design', #111, 'design' ) ;
#155 = CARTESIAN_POINT ( 'NONE',  ( 0.1874999999999999722, 0.1874999999999993339, 2.296212748401286801E-17 ) ) ;
#156 = DIRECTION ( 'NONE',  ( -1.000000000000000000, -1.483045034828085136E-16, 0.000000000000000000 ) ) ;
#157 = DIMENSIONAL_EXPONENTS ( 1.000000000000000000, 0.000000000000000000, 0.000000000000000000, 0.000000000000000000, 0.000000000000000000, 0.000000000000000000, 0.000000000000000000 ) ;
#158 = ORIENTED_EDGE ( 'NONE', *, *, #228, .T. ) ;
#159 = CARTESIAN_POINT ( 'NONE',  ( -6.123233995736766036E-17, 2.500000000000000000, 0.000000000000000000 ) ) ;
#160 = SURFACE_STYLE_USAGE ( .BOTH. , #92 ) ;
#161 = PRESENTATION_LAYER_ASSIGNMENT (  '', '', ( #136 ) ) ;
#162 = ORIENTED_EDGE ( 'NONE', *, *, #243, .F. ) ;
#163 = VECTOR ( 'NONE', #244, 39.37007874015748143 ) ;
#164 =( NAMED_UNIT ( * ) SI_UNIT ( $, .STERADIAN. ) SOLID_ANGLE_UNIT ( ) );
#165 = FACE_OUTER_BOUND ( 'NONE', #206, .T. ) ;
#166 = CARTESIAN_POINT ( 'NONE',  ( 0.000000000000000000, 0.1874999999999993061, 0.000000000000000000 ) ) ;
#167 = CYLINDRICAL_SURFACE ( 'NONE', #245, 0.1874999999999998890 ) ;
#168 = SURFACE_SIDE_STYLE ('',( #262 ) ) ;
#169 =( NAMED_UNIT ( * ) SI_UNIT ( $, .STERADIAN. ) SOLID_ANGLE_UNIT ( ) );
#170 = STYLED_ITEM ( 'NONE', ( #65 ), #122 ) ;
#171 = UNCERTAINTY_MEASURE_WITH_UNIT (LENGTH_MEASURE( 1.000000000000000082E-05 ), #34, 'distance_accuracy_value', 'NONE');
#172 = FILL_AREA_STYLE ('',( #240 ) ) ;
#173 = EDGE_CURVE ( 'NONE', #91, #178, #249, .T. ) ;
#174 = EDGE_CURVE ( 'NONE', #132, #131, #28, .T. ) ;
#175 = CARTESIAN_POINT ( 'NONE',  ( -6.123233995736764803E-17, 2.500000000000000000, 0.000000000000000000 ) ) ;
#176 = AXIS2_PLACEMENT_3D ( 'NONE', #237, #140, #78 ) ;
#177 = ADVANCED_FACE ( 'NONE', ( #165 ), #66, .F. ) ;
#178 = VERTEX_POINT ( 'NONE', #246 ) ;
#179 = DIMENSIONAL_EXPONENTS ( 1.000000000000000000, 0.000000000000000000, 0.000000000000000000, 0.000000000000000000, 0.000000000000000000, 0.000000000000000000, 0.000000000000000000 ) ;
#180 = CYLINDRICAL_SURFACE ( 'NONE', #86, 0.1874999999999998890 ) ;
#181 = SURFACE_STYLE_FILL_AREA ( #127 ) ;
#182 = ORIENTED_EDGE ( 'NONE', *, *, #100, .T. ) ;
#183 = ADVANCED_FACE ( 'NONE', ( #32 ), #239, .T. ) ;
#184 = VERTEX_POINT ( 'NONE', #106 ) ;
#185 = CIRCLE ( 'NONE', #263, 0.1875000000000000555 ) ;
#186 = DIRECTION ( 'NONE',  ( 0.000000000000000000, 0.000000000000000000, -1.000000000000000000 ) ) ;
#187 = FILL_AREA_STYLE_COLOUR ( '', #231 ) ;
#188 = FILL_AREA_STYLE ('',( #139 ) ) ;
#189 = CLOSED_SHELL ( 'NONE', ( #183, #122, #48 ) ) ;
#190 = DIRECTION ( 'NONE',  ( -1.483045034828085136E-16, 1.000000000000000000, -0.000000000000000000 ) ) ;
#191 = PRODUCT_DEFINITION ( 'UNKNOWN', '', #248, #154 ) ;
#192 = SURFACE_SIDE_STYLE ('',( #103 ) ) ;
#193 = CARTESIAN_POINT ( 'NONE',  ( 0.1874999999999999722, 2.500000000000000000, 2.296212748401286801E-17 ) ) ;
#194 = PRODUCT ( '06060', '06060', '', ( #203 ) ) ;
#195 = UNCERTAINTY_MEASURE_WITH_UNIT (LENGTH_MEASURE( 1.000000000000000082E-05 ), #261, 'distance_accuracy_value', 'NONE');
#196 = DIRECTION ( 'NONE',  ( 0.000000000000000000, 0.000000000000000000, 1.000000000000000000 ) ) ;
#197 = ORIENTED_EDGE ( 'NONE', *, *, #151, .T. ) ;
#198 =( NAMED_UNIT ( * ) SI_UNIT ( $, .STERADIAN. ) SOLID_ANGLE_UNIT ( ) );
#199 = CARTESIAN_POINT ( 'NONE',  ( -0.1874999999999994449, 0.1874999999999992506, 0.000000000000000000 ) ) ;
#200 = CARTESIAN_POINT ( 'NONE',  ( 0.000000000000000000, 0.000000000000000000, 0.000000000000000000 ) ) ;
#201 = FILL_AREA_STYLE_COLOUR ( '', #80 ) ;
#202 = COLOUR_RGB ( '',1.000000000000000000, 0.000000000000000000, 0.000000000000000000 ) ;
#203 = PRODUCT_CONTEXT ( 'NONE', #57, 'mechanical' ) ;
#204 = MANIFOLD_SOLID_BREP ( 'Revolve - Tool Body (Pointed)', #241 ) ;
#205 =( NAMED_UNIT ( * ) SI_UNIT ( $, .STERADIAN. ) SOLID_ANGLE_UNIT ( ) );
#206 = EDGE_LOOP ( 'NONE', ( #88, #197 ) ) ;
#207 = EDGE_CURVE ( 'NONE', #132, #3, #117, .T. ) ;
#208 = CIRCLE ( 'NONE', #176, 0.1874999999999996947 ) ;
#209 = DIRECTION ( 'NONE',  ( -0.000000000000000000, -1.000000000000000000, -0.000000000000000000 ) ) ;
#210 = AXIS2_PLACEMENT_3D ( 'NONE', #41, #190, #19 ) ;
#211 =( NAMED_UNIT ( * ) PLANE_ANGLE_UNIT ( ) SI_UNIT ( $, .RADIAN. ) );
#212 = LENGTH_MEASURE_WITH_UNIT ( LENGTH_MEASURE( 0.02539999999999999897 ), #233 );
#213 = SURFACE_SIDE_STYLE ('',( #215 ) ) ;
#214 = DIRECTION ( 'NONE',  ( 0.000000000000000000, 0.000000000000000000, 1.000000000000000000 ) ) ;
#215 = SURFACE_STYLE_FILL_AREA ( #118 ) ;
#216 = SURFACE_STYLE_USAGE ( .BOTH. , #168 ) ;
#217 = DIRECTION ( 'NONE',  ( 0.000000000000000000, 0.000000000000000000, 1.000000000000000000 ) ) ;
#218 = VECTOR ( 'NONE', #12, 39.37007874015748143 ) ;
#219 = DIRECTION ( 'NONE',  ( 1.000000000000000000, 1.483045034828085136E-16, 0.000000000000000000 ) ) ;
#220 = AXIS2_PLACEMENT_3D ( 'NONE', #49, #150, #214 ) ;
#221 = ORIENTED_EDGE ( 'NONE', *, *, #107, .F. ) ;
#222 = DIRECTION ( 'NONE',  ( 0.000000000000000000, 1.000000000000000000, 0.000000000000000000 ) ) ;
#223 = DIRECTION ( 'NONE',  ( -1.483045034828085136E-16, 1.000000000000000000, -0.000000000000000000 ) ) ;
#224 = PRESENTATION_LAYER_ASSIGNMENT (  '', '', ( #102 ) ) ;
#225 = VERTEX_POINT ( 'NONE', #104 ) ;
#226 = ORIENTED_EDGE ( 'NONE', *, *, #94, .F. ) ;
#227 = UNCERTAINTY_MEASURE_WITH_UNIT (LENGTH_MEASURE( 1.000000000000000082E-05 ), #144, 'distance_accuracy_value', 'NONE');
#228 = EDGE_CURVE ( 'NONE', #3, #184, #84, .T. ) ;
#229 = DIRECTION ( 'NONE',  ( -1.483045034828085136E-16, 1.000000000000000000, -0.000000000000000000 ) ) ;
#230 = CARTESIAN_POINT ( 'NONE',  ( 0.000000000000000000, 39.37007874015748143, 0.000000000000000000 ) ) ;
#231 = COLOUR_RGB ( '',0.7921568627450980005, 0.8196078431372548767, 0.9333333333333333481 ) ;
#232 = PRESENTATION_STYLE_ASSIGNMENT (( #44 ) ) ;
#233 =( LENGTH_UNIT ( ) NAMED_UNIT ( * ) SI_UNIT ( $, .METRE. ) );
#234 = AXIS2_PLACEMENT_3D ( 'NONE', #4, #75, #156 ) ;
#235 = PLANE ( 'NONE',  #26 ) ;
#236 =( NAMED_UNIT ( * ) SI_UNIT ( $, .STERADIAN. ) SOLID_ANGLE_UNIT ( ) );
#237 = CARTESIAN_POINT ( 'NONE',  ( 2.817218243466271259E-16, 0.1874999999999993061, 0.000000000000000000 ) ) ;
#238 = SURFACE_STYLE_USAGE ( .BOTH. , #192 ) ;
#239 = CONICAL_SURFACE ( 'NONE', #220, 39.37007874015762354, 0.7853981633974501664 ) ;
#240 = FILL_AREA_STYLE_COLOUR ( '', #85 ) ;
#241 = CLOSED_SHELL ( 'NONE', ( #21, #137, #97, #177 ) ) ;
#242 =( GEOMETRIC_REPRESENTATION_CONTEXT ( 3 ) GLOBAL_UNCERTAINTY_ASSIGNED_CONTEXT ( ( #227 ) ) GLOBAL_UNIT_ASSIGNED_CONTEXT ( ( #144, #79, #198 ) ) REPRESENTATION_CONTEXT ( 'NONE', 'WORKASPACE' ) );
#243 = EDGE_CURVE ( 'NONE', #91, #225, #149, .T. ) ;
#244 = DIRECTION ( 'NONE',  ( -1.483045034828085136E-16, 1.000000000000000000, -0.000000000000000000 ) ) ;
#245 = AXIS2_PLACEMENT_3D ( 'NONE', #13, #98, #255 ) ;
#246 = CARTESIAN_POINT ( 'NONE',  ( 2.296212748401287109E-17, 0.1874999999999993061, -0.1874999999999999722 ) ) ;
#247 = ORIENTED_EDGE ( 'NONE', *, *, #207, .T. ) ;
#248 = PRODUCT_DEFINITION_FORMATION_WITH_SPECIFIED_SOURCE ( 'ANY', '', #194, .NOT_KNOWN. ) ;
#249 = LINE ( 'NONE', #200, #37 ) ;
#250 = EDGE_CURVE ( 'NONE', #184, #131, #185, .T. ) ;
#251 = AXIS2_PLACEMENT_3D ( 'NONE', #230, #138, #217 ) ;
#252 = ORIENTED_EDGE ( 'NONE', *, *, #151, .F. ) ;
#253 =( LENGTH_UNIT ( ) NAMED_UNIT ( * ) SI_UNIT ( $, .METRE. ) );
#254 = APPLICATION_PROTOCOL_DEFINITION ( 'draft international standard', 'automotive_design', 1998, #111 ) ;
#255 = DIRECTION ( 'NONE',  ( -1.000000000000000000, 0.000000000000000000, 0.000000000000000000 ) ) ;
#256 =( LENGTH_UNIT ( ) NAMED_UNIT ( * ) SI_UNIT ( $, .METRE. ) );
#257 =( GEOMETRIC_REPRESENTATION_CONTEXT ( 3 ) GLOBAL_UNCERTAINTY_ASSIGNED_CONTEXT ( ( #195 ) ) GLOBAL_UNIT_ASSIGNED_CONTEXT ( ( #261, #211, #169 ) ) REPRESENTATION_CONTEXT ( 'NONE', 'WORKASPACE' ) );
#258 = FACE_OUTER_BOUND ( 'NONE', #71, .T. ) ;
#259 =( NAMED_UNIT ( * ) PLANE_ANGLE_UNIT ( ) SI_UNIT ( $, .RADIAN. ) );
#260 = PRESENTATION_LAYER_ASSIGNMENT (  '', '', ( #20 ) ) ;
#261 =( CONVERSION_BASED_UNIT ( 'INCH', #108 ) LENGTH_UNIT ( ) NAMED_UNIT ( #125 ) );
#262 = SURFACE_STYLE_FILL_AREA ( #188 ) ;
#263 = AXIS2_PLACEMENT_3D ( 'NONE', #1, #229, #38 ) ;
#264 = UNCERTAINTY_MEASURE_WITH_UNIT (LENGTH_MEASURE( 1.000000000000000082E-05 ), #2, 'distance_accuracy_value', 'NONE');
#265 = SURFACE_STYLE_USAGE ( .BOTH. , #47 ) ;
ENDSEC;
END-ISO-10303-21;
