ISO-10303-21;
HEADER;
FILE_DESCRIPTION (( 'STEP AP214' ),
    '1' );
FILE_NAME ('84046.STEP',
    '2023-06-23T10:56:42',
    ( '' ),
    ( '' ),
    'SwSTEP 2.0',
    'SolidWorks 2023',
    '' );
FILE_SCHEMA (( 'AUTOMOTIVE_DESIGN' ));
ENDSEC;

DATA;
#1 =( NAMED_UNIT ( * ) PLANE_ANGLE_UNIT ( ) SI_UNIT ( $, .RADIAN. ) );
#2 = DIRECTION ( 'NONE',  ( 0.000000000000000000, 0.000000000000000000, -1.000000000000000000 ) ) ;
#3 = PRESENTATION_LAYER_ASSIGNMENT (  '', '', ( #143 ) ) ;
#4 =( NAMED_UNIT ( * ) SI_UNIT ( $, .STERADIAN. ) SOLID_ANGLE_UNIT ( ) );
#5 = UNCERTAINTY_MEASURE_WITH_UNIT (LENGTH_MEASURE( 1.000000000000000082E-05 ), #237, 'distance_accuracy_value', 'NONE');
#6 = SURFACE_SIDE_STYLE ('',( #248 ) ) ;
#7 = ORIENTED_EDGE ( 'NONE', *, *, #10, .T. ) ;
#8 = VERTEX_POINT ( 'NONE', #92 ) ;
#9 = LENGTH_MEASURE_WITH_UNIT ( LENGTH_MEASURE( 0.02539999999999999897 ), #252 );
#10 = EDGE_CURVE ( 'NONE', #250, #118, #66, .T. ) ;
#11 = FACE_OUTER_BOUND ( 'NONE', #336, .T. ) ;
#12 = SURFACE_STYLE_USAGE ( .BOTH. , #6 ) ;
#13 = CARTESIAN_POINT ( 'NONE',  ( 1.446064679331988500E-35, 0.2500000000000000000, 0.000000000000000000 ) ) ;
#14 = MECHANICAL_DESIGN_GEOMETRIC_PRESENTATION_REPRESENTATION (  '', ( #143 ), #343 ) ;
#15 = EDGE_LOOP ( 'NONE', ( #150, #175, #195, #324 ) ) ;
#16 =( LENGTH_UNIT ( ) NAMED_UNIT ( * ) SI_UNIT ( $, .METRE. ) );
#17 = COLOUR_RGB ( '',0.7921568627450980005, 0.8196078431372548767, 0.9333333333333333481 ) ;
#18 = DIRECTION ( 'NONE',  ( -1.000000000000000000, 0.000000000000000000, 0.000000000000000000 ) ) ;
#19 = CARTESIAN_POINT ( 'NONE',  ( -6.123233995736766036E-17, 2.500000000000000000, 0.000000000000000000 ) ) ;
#20 = CIRCLE ( 'NONE', #28, 0.1250000000000000555 ) ;
#21 = DIRECTION ( 'NONE',  ( 0.000000000000000000, 1.000000000000000000, 0.000000000000000000 ) ) ;
#22 = EDGE_LOOP ( 'NONE', ( #257, #218, #153, #227 ) ) ;
#23 = DIMENSIONAL_EXPONENTS ( 1.000000000000000000, 0.000000000000000000, 0.000000000000000000, 0.000000000000000000, 0.000000000000000000, 0.000000000000000000, 0.000000000000000000 ) ;
#24 = CARTESIAN_POINT ( 'NONE',  ( 0.000000000000000000, 0.000000000000000000, 0.000000000000000000 ) ) ;
#25 = PRODUCT_DEFINITION_CONTEXT ( 'detailed design', #261, 'design' ) ;
#26 =( NAMED_UNIT ( * ) SI_UNIT ( $, .STERADIAN. ) SOLID_ANGLE_UNIT ( ) );
#27 = SURFACE_STYLE_USAGE ( .BOTH. , #79 ) ;
#28 = AXIS2_PLACEMENT_3D ( 'NONE', #328, #208, #18 ) ;
#29 = DIRECTION ( 'NONE',  ( 0.000000000000000000, 0.000000000000000000, -1.000000000000000000 ) ) ;
#30 = EDGE_LOOP ( 'NONE', ( #194, #290 ) ) ;
#31 =( GEOMETRIC_REPRESENTATION_CONTEXT ( 3 ) GLOBAL_UNCERTAINTY_ASSIGNED_CONTEXT ( ( #253 ) ) GLOBAL_UNIT_ASSIGNED_CONTEXT ( ( #135, #329, #292 ) ) REPRESENTATION_CONTEXT ( 'NONE', 'WORKASPACE' ) );
#32 = EDGE_CURVE ( 'NONE', #118, #68, #70, .T. ) ;
#33 = PRESENTATION_STYLE_ASSIGNMENT (( #12 ) ) ;
#34 = VERTEX_POINT ( 'NONE', #341 ) ;
#35 =( CONVERSION_BASED_UNIT ( 'INCH', #9 ) LENGTH_UNIT ( ) NAMED_UNIT ( #23 ) );
#36 = FACE_OUTER_BOUND ( 'NONE', #151, .T. ) ;
#37 = DIRECTION ( 'NONE',  ( -2.721437331438562546E-17, 1.000000000000000000, -0.000000000000000000 ) ) ;
#38 = EDGE_LOOP ( 'NONE', ( #123, #146, #282, #81 ) ) ;
#39 = PRESENTATION_LAYER_ASSIGNMENT (  '', '', ( #196 ) ) ;
#40 = AXIS2_PLACEMENT_3D ( 'NONE', #189, #50, #275 ) ;
#41 = CARTESIAN_POINT ( 'NONE',  ( 0.000000000000000000, 0.000000000000000000, -0.03905000000000000138 ) ) ;
#42 = CARTESIAN_POINT ( 'NONE',  ( -0.1250000000000000278, 0.5707697669105443739, 0.000000000000000000 ) ) ;
#43 = ADVANCED_FACE ( 'NONE', ( #11 ), #126, .F. ) ;
#44 = CARTESIAN_POINT ( 'NONE',  ( 0.000000000000000000, 0.2500000000000000555, 0.000000000000000000 ) ) ;
#45 = DIRECTION ( 'NONE',  ( -0.000000000000000000, -1.000000000000000000, -0.000000000000000000 ) ) ;
#46 = CARTESIAN_POINT ( 'NONE',  ( 0.03905000000000000138, 0.2500000000000000555, 1.004516537000616463E-17 ) ) ;
#47 = PRESENTATION_LAYER_ASSIGNMENT (  '', '', ( #330 ) ) ;
#48 = AXIS2_PLACEMENT_3D ( 'NONE', #229, #106, #263 ) ;
#49 = ADVANCED_FACE ( 'NONE', ( #36 ), #342, .T. ) ;
#50 = DIRECTION ( 'NONE',  ( 0.000000000000000000, 0.000000000000000000, 1.000000000000000000 ) ) ;
#51 =( CONVERSION_BASED_UNIT ( 'INCH', #141 ) LENGTH_UNIT ( ) NAMED_UNIT ( #333 ) );
#52 = EDGE_CURVE ( 'NONE', #357, #89, #20, .T. ) ;
#53 = COLOUR_RGB ( '',0.7921568627450980005, 0.8196078431372548767, 0.9333333333333333481 ) ;
#54 = AXIS2_PLACEMENT_3D ( 'NONE', #300, #45, #154 ) ;
#55 =( NAMED_UNIT ( * ) SI_UNIT ( $, .STERADIAN. ) SOLID_ANGLE_UNIT ( ) );
#56 = SURFACE_STYLE_USAGE ( .BOTH. , #188 ) ;
#57 = LENGTH_MEASURE_WITH_UNIT ( LENGTH_MEASURE( 0.02539999999999999897 ), #274 );
#58 = COLOUR_RGB ( '',1.000000000000000000, 0.000000000000000000, 0.000000000000000000 ) ;
#59 = CARTESIAN_POINT ( 'NONE',  ( 0.1249999999999999584, 2.500000000000000000, 1.530808498934191817E-17 ) ) ;
#60 = FILL_AREA_STYLE_COLOUR ( '', #71 ) ;
#61 = SURFACE_STYLE_FILL_AREA ( #90 ) ;
#62 = ORIENTED_EDGE ( 'NONE', *, *, #52, .F. ) ;
#63 = DIMENSIONAL_EXPONENTS ( 1.000000000000000000, 0.000000000000000000, 0.000000000000000000, 0.000000000000000000, 0.000000000000000000, 0.000000000000000000, 0.000000000000000000 ) ;
#64 = EDGE_CURVE ( 'NONE', #8, #338, #101, .T. ) ;
#65 =( GEOMETRIC_REPRESENTATION_CONTEXT ( 3 ) GLOBAL_UNCERTAINTY_ASSIGNED_CONTEXT ( ( #340 ) ) GLOBAL_UNIT_ASSIGNED_CONTEXT ( ( #35, #128, #177 ) ) REPRESENTATION_CONTEXT ( 'NONE', 'WORKASPACE' ) );
#66 = LINE ( 'NONE', #288, #280 ) ;
#67 = DIRECTION ( 'NONE',  ( -2.721437331438562546E-17, 1.000000000000000000, 0.000000000000000000 ) ) ;
#68 = VERTEX_POINT ( 'NONE', #136 ) ;
#69 = CARTESIAN_POINT ( 'NONE',  ( 4.782245750670414162E-18, 0.000000000000000000, 0.03905000000000000138 ) ) ;
#70 = CIRCLE ( 'NONE', #269, 0.1250000000000000278 ) ;
#71 = COLOUR_RGB ( '',1.000000000000000000, 0.000000000000000000, 0.000000000000000000 ) ;
#72 = CONICAL_SURFACE ( 'NONE', #245, 0.03905000000000000138, 0.2617993877991500740 ) ;
#73 = FACE_OUTER_BOUND ( 'NONE', #320, .T. ) ;
#74 = CARTESIAN_POINT ( 'NONE',  ( 0.1250000000000000000, 2.500000000000000000, 0.000000000000000000 ) ) ;
#75 = COLOUR_RGB ( '',1.000000000000000000, 0.000000000000000000, 0.000000000000000000 ) ;
#76 = CONICAL_SURFACE ( 'NONE', #354, 0.03905000000000000138, 0.2617993877991500740 ) ;
#77 = LINE ( 'NONE', #185, #295 ) ;
#78 = CARTESIAN_POINT ( 'NONE',  ( 0.000000000000000000, 0.2500000000000000555, 0.000000000000000000 ) ) ;
#79 = SURFACE_SIDE_STYLE ('',( #355 ) ) ;
#80 = UNCERTAINTY_MEASURE_WITH_UNIT (LENGTH_MEASURE( 1.000000000000000082E-05 ), #306, 'distance_accuracy_value', 'NONE');
#81 = ORIENTED_EDGE ( 'NONE', *, *, #272, .F. ) ;
#82 = FILL_AREA_STYLE ('',( #214 ) ) ;
#83 = AXIS2_PLACEMENT_3D ( 'NONE', #88, #122, #29 ) ;
#84 = CARTESIAN_POINT ( 'NONE',  ( 0.000000000000000000, 0.2500000000000000555, 0.000000000000000000 ) ) ;
#85 = ORIENTED_EDGE ( 'NONE', *, *, #176, .T. ) ;
#86 = EDGE_CURVE ( 'NONE', #93, #68, #346, .T. ) ;
#87 = VECTOR ( 'NONE', #296, 39.37007874015748143 ) ;
#88 = CARTESIAN_POINT ( 'NONE',  ( 0.000000000000000000, 0.000000000000000000, 0.000000000000000000 ) ) ;
#89 = VERTEX_POINT ( 'NONE', #352 ) ;
#90 = FILL_AREA_STYLE ('',( #220 ) ) ;
#91 = ORIENTED_EDGE ( 'NONE', *, *, #223, .T. ) ;
#92 = CARTESIAN_POINT ( 'NONE',  ( 4.782245750670414162E-18, 0.2500000000000000000, 0.03905000000000000138 ) ) ;
#93 = VERTEX_POINT ( 'NONE', #46 ) ;
#94 =( GEOMETRIC_REPRESENTATION_CONTEXT ( 3 ) GLOBAL_UNCERTAINTY_ASSIGNED_CONTEXT ( ( #80 ) ) GLOBAL_UNIT_ASSIGNED_CONTEXT ( ( #306, #1, #26 ) ) REPRESENTATION_CONTEXT ( 'NONE', 'WORKASPACE' ) );
#95 =( LENGTH_UNIT ( ) NAMED_UNIT ( * ) SI_UNIT ( $, .METRE. ) );
#96 = EDGE_CURVE ( 'NONE', #8, #171, #100, .T. ) ;
#97 =( LENGTH_UNIT ( ) NAMED_UNIT ( * ) SI_UNIT ( $, .METRE. ) );
#98 = DIRECTION ( 'NONE',  ( 0.2588190451025213501, 0.9659258262890682012, 3.169619151431772953E-17 ) ) ;
#99 = CYLINDRICAL_SURFACE ( 'NONE', #48, 0.1250000000000000278 ) ;
#100 = LINE ( 'NONE', #69, #87 ) ;
#101 = CIRCLE ( 'NONE', #289, 0.03905000000000000138 ) ;
#102 = FILL_AREA_STYLE_COLOUR ( '', #310 ) ;
#103 = CYLINDRICAL_SURFACE ( 'NONE', #134, 0.1250000000000000278 ) ;
#104 = ADVANCED_FACE ( 'NONE', ( #260 ), #103, .T. ) ;
#105 = FACE_OUTER_BOUND ( 'NONE', #15, .T. ) ;
#106 = DIRECTION ( 'NONE',  ( -2.721437331438562546E-17, 1.000000000000000000, -0.000000000000000000 ) ) ;
#107 = FACE_OUTER_BOUND ( 'NONE', #30, .T. ) ;
#108 =( GEOMETRIC_REPRESENTATION_CONTEXT ( 3 ) GLOBAL_UNCERTAINTY_ASSIGNED_CONTEXT ( ( #238 ) ) GLOBAL_UNIT_ASSIGNED_CONTEXT ( ( #305, #230, #266 ) ) REPRESENTATION_CONTEXT ( 'NONE', 'WORKASPACE' ) );
#109 = DIRECTION ( 'NONE',  ( -1.000000000000000000, 0.000000000000000000, 0.000000000000000000 ) ) ;
#110 = SHAPE_DEFINITION_REPRESENTATION ( #298, #339 ) ;
#111 = ORIENTED_EDGE ( 'NONE', *, *, #152, .T. ) ;
#112 = PRODUCT_CONTEXT ( 'NONE', #255, 'mechanical' ) ;
#113 = FACE_OUTER_BOUND ( 'NONE', #38, .T. ) ;
#114 = AXIS2_PLACEMENT_3D ( 'NONE', #84, #334, #212 ) ;
#115 = AXIS2_PLACEMENT_3D ( 'NONE', #159, #37, #137 ) ;
#116 = SURFACE_STYLE_FILL_AREA ( #82 ) ;
#117 = UNCERTAINTY_MEASURE_WITH_UNIT (LENGTH_MEASURE( 1.000000000000000082E-05 ), #51, 'distance_accuracy_value', 'NONE');
#118 = VERTEX_POINT ( 'NONE', #42 ) ;
#119 =( NAMED_UNIT ( * ) SI_UNIT ( $, .STERADIAN. ) SOLID_ANGLE_UNIT ( ) );
#120 = ORIENTED_EDGE ( 'NONE', *, *, #32, .T. ) ;
#121 =( GEOMETRIC_REPRESENTATION_CONTEXT ( 3 ) GLOBAL_UNCERTAINTY_ASSIGNED_CONTEXT ( ( #5 ) ) GLOBAL_UNIT_ASSIGNED_CONTEXT ( ( #237, #168, #4 ) ) REPRESENTATION_CONTEXT ( 'NONE', 'WORKASPACE' ) );
#122 = DIRECTION ( 'NONE',  ( -0.000000000000000000, -1.000000000000000000, -0.000000000000000000 ) ) ;
#123 = ORIENTED_EDGE ( 'NONE', *, *, #131, .T. ) ;
#124 = UNCERTAINTY_MEASURE_WITH_UNIT (LENGTH_MEASURE( 1.000000000000000082E-05 ), #327, 'distance_accuracy_value', 'NONE');
#125 = ORIENTED_EDGE ( 'NONE', *, *, #131, .F. ) ;
#126 = PLANE ( 'NONE',  #127 ) ;
#127 = AXIS2_PLACEMENT_3D ( 'NONE', #13, #67, #318 ) ;
#128 =( NAMED_UNIT ( * ) PLANE_ANGLE_UNIT ( ) SI_UNIT ( $, .RADIAN. ) );
#129 = PRESENTATION_STYLE_ASSIGNMENT (( #291 ) ) ;
#130 = AXIS2_PLACEMENT_3D ( 'NONE', #187, #21, #144 ) ;
#131 = EDGE_CURVE ( 'NONE', #338, #8, #180, .T. ) ;
#132 = PRESENTATION_STYLE_ASSIGNMENT (( #349 ) ) ;
#133 = CARTESIAN_POINT ( 'NONE',  ( -8.729548184672013691E-18, 0.5707697669105443739, 0.000000000000000000 ) ) ;
#134 = AXIS2_PLACEMENT_3D ( 'NONE', #19, #205, #268 ) ;
#135 =( CONVERSION_BASED_UNIT ( 'INCH', #351 ) LENGTH_UNIT ( ) NAMED_UNIT ( #241 ) );
#136 = CARTESIAN_POINT ( 'NONE',  ( 0.1250000000000000000, 0.5707697669105443739, 1.530808498934191817E-17 ) ) ;
#137 = DIRECTION ( 'NONE',  ( -1.000000000000000000, 0.000000000000000000, 0.000000000000000000 ) ) ;
#138 = FILL_AREA_STYLE_COLOUR ( '', #75 ) ;
#139 = AXIS2_PLACEMENT_3D ( 'NONE', #44, #156, #262 ) ;
#140 = DIRECTION ( 'NONE',  ( -2.721437331438562546E-17, 1.000000000000000000, -0.000000000000000000 ) ) ;
#141 = LENGTH_MEASURE_WITH_UNIT ( LENGTH_MEASURE( 0.02539999999999999897 ), #164 );
#142 = EDGE_LOOP ( 'NONE', ( #293, #239, #199, #224 ) ) ;
#143 = STYLED_ITEM ( 'NONE', ( #332 ), #165 ) ;
#144 = DIRECTION ( 'NONE',  ( 0.000000000000000000, -0.000000000000000000, 1.000000000000000000 ) ) ;
#145 = DIRECTION ( 'NONE',  ( -2.721437331438562546E-17, 1.000000000000000000, -0.000000000000000000 ) ) ;
#146 = ORIENTED_EDGE ( 'NONE', *, *, #96, .T. ) ;
#147 = ADVANCED_FACE ( 'NONE', ( #107 ), #183, .F. ) ;
#148 = CIRCLE ( 'NONE', #322, 0.1250000000000000555 ) ;
#149 = CIRCLE ( 'NONE', #54, 0.03905000000000000138 ) ;
#150 = ORIENTED_EDGE ( 'NONE', *, *, #161, .T. ) ;
#151 = EDGE_LOOP ( 'NONE', ( #173, #85 ) ) ;
#152 = EDGE_CURVE ( 'NONE', #93, #250, #309, .T. ) ;
#153 = ORIENTED_EDGE ( 'NONE', *, *, #236, .T. ) ;
#154 = DIRECTION ( 'NONE',  ( 0.000000000000000000, 0.000000000000000000, -1.000000000000000000 ) ) ;
#155 = ORIENTED_EDGE ( 'NONE', *, *, #86, .F. ) ;
#156 = DIRECTION ( 'NONE',  ( -2.721437331438562546E-17, 1.000000000000000000, -0.000000000000000000 ) ) ;
#157 = CARTESIAN_POINT ( 'NONE',  ( -0.03905000000000000138, 0.2500000000000000555, 0.000000000000000000 ) ) ;
#158 = AXIS2_PLACEMENT_3D ( 'NONE', #24, #313, #215 ) ;
#159 = CARTESIAN_POINT ( 'NONE',  ( -8.729548184672013691E-18, 0.5707697669105443739, 0.000000000000000000 ) ) ;
#160 = CARTESIAN_POINT ( 'NONE',  ( 0.000000000000000000, 0.000000000000000000, 0.000000000000000000 ) ) ;
#161 = EDGE_CURVE ( 'NONE', #250, #93, #283, .T. ) ;
#162 = MECHANICAL_DESIGN_GEOMETRIC_PRESENTATION_REPRESENTATION (  '', ( #353 ), #31 ) ;
#163 = CARTESIAN_POINT ( 'NONE',  ( 0.000000000000000000, 0.2500000000000000000, -0.03905000000000000138 ) ) ;
#164 =( LENGTH_UNIT ( ) NAMED_UNIT ( * ) SI_UNIT ( $, .METRE. ) );
#165 = ADVANCED_FACE ( 'NONE', ( #113 ), #192, .T. ) ;
#166 = LENGTH_MEASURE_WITH_UNIT ( LENGTH_MEASURE( 0.02539999999999999897 ), #277 );
#167 = FACE_OUTER_BOUND ( 'NONE', #201, .T. ) ;
#168 =( NAMED_UNIT ( * ) PLANE_ANGLE_UNIT ( ) SI_UNIT ( $, .RADIAN. ) );
#169 = MECHANICAL_DESIGN_GEOMETRIC_PRESENTATION_REPRESENTATION (  '', ( #197 ), #284 ) ;
#170 = FILL_AREA_STYLE ('',( #200 ) ) ;
#171 = VERTEX_POINT ( 'NONE', #285 ) ;
#172 = SURFACE_SIDE_STYLE ('',( #61 ) ) ;
#173 = ORIENTED_EDGE ( 'NONE', *, *, #299, .T. ) ;
#174 = VECTOR ( 'NONE', #145, 39.37007874015748143 ) ;
#175 = ORIENTED_EDGE ( 'NONE', *, *, #86, .T. ) ;
#176 = EDGE_CURVE ( 'NONE', #171, #34, #225, .T. ) ;
#177 =( NAMED_UNIT ( * ) SI_UNIT ( $, .STERADIAN. ) SOLID_ANGLE_UNIT ( ) );
#178 = ORIENTED_EDGE ( 'NONE', *, *, #64, .F. ) ;
#179 = CLOSED_SHELL ( 'NONE', ( #264, #233, #43, #359, #104, #147 ) ) ;
#180 = CIRCLE ( 'NONE', #294, 0.03905000000000000138 ) ;
#181 = CARTESIAN_POINT ( 'NONE',  ( 0.000000000000000000, 0.2500000000000000000, 0.000000000000000000 ) ) ;
#182 = DIRECTION ( 'NONE',  ( -2.721437331438562546E-17, 1.000000000000000000, -0.000000000000000000 ) ) ;
#183 = PLANE ( 'NONE',  #244 ) ;
#184 = DIRECTION ( 'NONE',  ( 0.000000000000000000, -1.000000000000000000, -0.000000000000000000 ) ) ;
#185 = CARTESIAN_POINT ( 'NONE',  ( -0.1250000000000001110, 2.500000000000000000, 0.000000000000000000 ) ) ;
#186 = DIRECTION ( 'NONE',  ( 1.000000000000000000, 2.721437331438562546E-17, 0.000000000000000000 ) ) ;
#187 = CARTESIAN_POINT ( 'NONE',  ( 0.000000000000000000, 0.2500000000000000000, 0.000000000000000000 ) ) ;
#188 = SURFACE_SIDE_STYLE ('',( #116 ) ) ;
#189 = CARTESIAN_POINT ( 'NONE',  ( 0.000000000000000000, 0.000000000000000000, 0.000000000000000000 ) ) ;
#190 = PRESENTATION_LAYER_ASSIGNMENT (  '', '', ( #335 ) ) ;
#191 = VECTOR ( 'NONE', #210, 39.37007874015748143 ) ;
#192 = CYLINDRICAL_SURFACE ( 'NONE', #219, 0.03905000000000000138 ) ;
#193 = DIRECTION ( 'NONE',  ( -2.721437331438562546E-17, 1.000000000000000000, -0.000000000000000000 ) ) ;
#194 = ORIENTED_EDGE ( 'NONE', *, *, #52, .T. ) ;
#195 = ORIENTED_EDGE ( 'NONE', *, *, #32, .F. ) ;
#196 = STYLED_ITEM ( 'NONE', ( #129 ), #49 ) ;
#197 = STYLED_ITEM ( 'NONE', ( #132 ), #312 ) ;
#198 = DIRECTION ( 'NONE',  ( -2.721437331438562546E-17, 1.000000000000000000, -0.000000000000000000 ) ) ;
#199 = ORIENTED_EDGE ( 'NONE', *, *, #272, .T. ) ;
#200 = FILL_AREA_STYLE_COLOUR ( '', #53 ) ;
#201 = EDGE_LOOP ( 'NONE', ( #155, #111, #7, #314 ) ) ;
#202 = SURFACE_SIDE_STYLE ('',( #206 ) ) ;
#203 = LENGTH_MEASURE_WITH_UNIT ( LENGTH_MEASURE( 0.02539999999999999897 ), #16 );
#204 = EDGE_CURVE ( 'NONE', #89, #357, #148, .T. ) ;
#205 = DIRECTION ( 'NONE',  ( -2.721437331438562546E-17, 1.000000000000000000, -0.000000000000000000 ) ) ;
#206 = SURFACE_STYLE_FILL_AREA ( #326 ) ;
#207 = CARTESIAN_POINT ( 'NONE',  ( 0.03905000000000000138, 0.2500000000000000555, 4.782245750670414162E-18 ) ) ;
#208 = DIRECTION ( 'NONE',  ( -2.721437331438562546E-17, 1.000000000000000000, -0.000000000000000000 ) ) ;
#209 = PRODUCT_RELATED_PRODUCT_CATEGORY ( 'part', '', ( #347 ) ) ;
#210 = DIRECTION ( 'NONE',  ( -0.000000000000000000, -1.000000000000000000, -0.000000000000000000 ) ) ;
#211 = MECHANICAL_DESIGN_GEOMETRIC_PRESENTATION_REPRESENTATION (  '', ( #330 ), #65 ) ;
#212 = DIRECTION ( 'NONE',  ( -1.000000000000000000, 0.000000000000000000, 0.000000000000000000 ) ) ;
#213 = APPLICATION_PROTOCOL_DEFINITION ( 'draft international standard', 'automotive_design', 1998, #261 ) ;
#214 = FILL_AREA_STYLE_COLOUR ( '', #58 ) ;
#215 = DIRECTION ( 'NONE',  ( 0.000000000000000000, 0.000000000000000000, -1.000000000000000000 ) ) ;
#216 = FILL_AREA_STYLE ('',( #138 ) ) ;
#217 = ADVANCED_FACE ( 'NONE', ( #279 ), #242, .T. ) ;
#218 = ORIENTED_EDGE ( 'NONE', *, *, #247, .T. ) ;
#219 = AXIS2_PLACEMENT_3D ( 'NONE', #311, #307, #2 ) ;
#220 = FILL_AREA_STYLE_COLOUR ( '', #17 ) ;
#221 = DIRECTION ( 'NONE',  ( -1.000000000000000000, 0.000000000000000000, 0.000000000000000000 ) ) ;
#222 = MANIFOLD_SOLID_BREP ( 'Revolve - Tool Body (Reduced Cut Diameter)', #179 ) ;
#223 = EDGE_CURVE ( 'NONE', #68, #89, #317, .T. ) ;
#224 = ORIENTED_EDGE ( 'NONE', *, *, #176, .F. ) ;
#225 = CIRCLE ( 'NONE', #158, 0.03905000000000000138 ) ;
#226 = MANIFOLD_SOLID_BREP ( 'Revolve - Cutting Edge', #251 ) ;
#227 = ORIENTED_EDGE ( 'NONE', *, *, #204, .F. ) ;
#228 = DIRECTION ( 'NONE',  ( -2.721437331438562546E-17, 1.000000000000000000, -0.000000000000000000 ) ) ;
#229 = CARTESIAN_POINT ( 'NONE',  ( -6.123233995736766036E-17, 2.500000000000000000, 0.000000000000000000 ) ) ;
#230 =( NAMED_UNIT ( * ) PLANE_ANGLE_UNIT ( ) SI_UNIT ( $, .RADIAN. ) );
#231 =( NAMED_UNIT ( * ) PLANE_ANGLE_UNIT ( ) SI_UNIT ( $, .RADIAN. ) );
#232 = CARTESIAN_POINT ( 'NONE',  ( 0.000000000000000000, 0.2500000000000000000, 0.000000000000000000 ) ) ;
#233 = ADVANCED_FACE ( 'NONE', ( #105 ), #76, .T. ) ;
#234 = DIRECTION ( 'NONE',  ( -0.000000000000000000, -1.000000000000000000, -0.000000000000000000 ) ) ;
#235 = AXIS2_PLACEMENT_3D ( 'NONE', #160, #184, #301 ) ;
#236 = EDGE_CURVE ( 'NONE', #118, #357, #77, .T. ) ;
#237 =( CONVERSION_BASED_UNIT ( 'INCH', #57 ) LENGTH_UNIT ( ) NAMED_UNIT ( #358 ) );
#238 = UNCERTAINTY_MEASURE_WITH_UNIT (LENGTH_MEASURE( 1.000000000000000082E-05 ), #305, 'distance_accuracy_value', 'NONE');
#239 = ORIENTED_EDGE ( 'NONE', *, *, #64, .T. ) ;
#240 = PRESENTATION_STYLE_ASSIGNMENT (( #27 ) ) ;
#241 = DIMENSIONAL_EXPONENTS ( 1.000000000000000000, 0.000000000000000000, 0.000000000000000000, 0.000000000000000000, 0.000000000000000000, 0.000000000000000000, 0.000000000000000000 ) ;
#242 = CYLINDRICAL_SURFACE ( 'NONE', #83, 0.03905000000000000138 ) ;
#243 = ORIENTED_EDGE ( 'NONE', *, *, #236, .F. ) ;
#244 = AXIS2_PLACEMENT_3D ( 'NONE', #74, #297, #186 ) ;
#245 = AXIS2_PLACEMENT_3D ( 'NONE', #78, #140, #246 ) ;
#246 = DIRECTION ( 'NONE',  ( -1.000000000000000000, 0.000000000000000000, 0.000000000000000000 ) ) ;
#247 = EDGE_CURVE ( 'NONE', #68, #118, #316, .T. ) ;
#248 = SURFACE_STYLE_FILL_AREA ( #170 ) ;
#249 = CARTESIAN_POINT ( 'NONE',  ( 0.000000000000000000, 0.2500000000000000555, 0.000000000000000000 ) ) ;
#250 = VERTEX_POINT ( 'NONE', #157 ) ;
#251 = CLOSED_SHELL ( 'NONE', ( #165, #312, #217, #49 ) ) ;
#252 =( LENGTH_UNIT ( ) NAMED_UNIT ( * ) SI_UNIT ( $, .METRE. ) );
#253 = UNCERTAINTY_MEASURE_WITH_UNIT (LENGTH_MEASURE( 1.000000000000000082E-05 ), #135, 'distance_accuracy_value', 'NONE');
#254 = LENGTH_MEASURE_WITH_UNIT ( LENGTH_MEASURE( 0.02539999999999999897 ), #95 );
#255 = APPLICATION_CONTEXT ( 'automotive_design' ) ;
#256 = ORIENTED_EDGE ( 'NONE', *, *, #152, .F. ) ;
#257 = ORIENTED_EDGE ( 'NONE', *, *, #223, .F. ) ;
#258 = PLANE ( 'NONE',  #130 ) ;
#259 = DIRECTION ( 'NONE',  ( -0.2588190451025213501, 0.9659258262890682012, 0.000000000000000000 ) ) ;
#260 = FACE_OUTER_BOUND ( 'NONE', #22, .T. ) ;
#261 = APPLICATION_CONTEXT ( 'automotive_design' ) ;
#262 = DIRECTION ( 'NONE',  ( -1.000000000000000000, 0.000000000000000000, 0.000000000000000000 ) ) ;
#263 = DIRECTION ( 'NONE',  ( -1.000000000000000000, 0.000000000000000000, 0.000000000000000000 ) ) ;
#264 = ADVANCED_FACE ( 'NONE', ( #345 ), #99, .T. ) ;
#265 = PRESENTATION_LAYER_ASSIGNMENT (  '', '', ( #353 ) ) ;
#266 =( NAMED_UNIT ( * ) SI_UNIT ( $, .STERADIAN. ) SOLID_ANGLE_UNIT ( ) );
#267 = PRESENTATION_STYLE_ASSIGNMENT (( #287 ) ) ;
#268 = DIRECTION ( 'NONE',  ( -1.000000000000000000, 0.000000000000000000, 0.000000000000000000 ) ) ;
#269 = AXIS2_PLACEMENT_3D ( 'NONE', #133, #198, #221 ) ;
#270 = ORIENTED_EDGE ( 'NONE', *, *, #161, .F. ) ;
#271 = DIMENSIONAL_EXPONENTS ( 1.000000000000000000, 0.000000000000000000, 0.000000000000000000, 0.000000000000000000, 0.000000000000000000, 0.000000000000000000, 0.000000000000000000 ) ;
#272 = EDGE_CURVE ( 'NONE', #338, #34, #348, .T. ) ;
#273 = CARTESIAN_POINT ( 'NONE',  ( -0.1250000000000001388, 2.500000000000000000, 0.000000000000000000 ) ) ;
#274 =( LENGTH_UNIT ( ) NAMED_UNIT ( * ) SI_UNIT ( $, .METRE. ) );
#275 = DIRECTION ( 'NONE',  ( 1.000000000000000000, 0.000000000000000000, 0.000000000000000000 ) ) ;
#276 = CARTESIAN_POINT ( 'NONE',  ( -6.123233995736766036E-17, 2.500000000000000000, 0.000000000000000000 ) ) ;
#277 =( LENGTH_UNIT ( ) NAMED_UNIT ( * ) SI_UNIT ( $, .METRE. ) );
#278 = PRODUCT_DEFINITION ( 'UNKNOWN', '', #337, #25 ) ;
#279 = FACE_OUTER_BOUND ( 'NONE', #142, .T. ) ;
#280 = VECTOR ( 'NONE', #259, 39.37007874015747433 ) ;
#281 = MECHANICAL_DESIGN_GEOMETRIC_PRESENTATION_REPRESENTATION (  '', ( #335 ), #121 ) ;
#282 = ORIENTED_EDGE ( 'NONE', *, *, #299, .F. ) ;
#283 = CIRCLE ( 'NONE', #114, 0.03905000000000000138 ) ;
#284 =( GEOMETRIC_REPRESENTATION_CONTEXT ( 3 ) GLOBAL_UNCERTAINTY_ASSIGNED_CONTEXT ( ( #124 ) ) GLOBAL_UNIT_ASSIGNED_CONTEXT ( ( #327, #231, #55 ) ) REPRESENTATION_CONTEXT ( 'NONE', 'WORKASPACE' ) );
#285 = CARTESIAN_POINT ( 'NONE',  ( 4.782245750670414162E-18, 0.000000000000000000, 0.03905000000000000138 ) ) ;
#286 = SURFACE_STYLE_FILL_AREA ( #344 ) ;
#287 = SURFACE_STYLE_USAGE ( .BOTH. , #172 ) ;
#288 = CARTESIAN_POINT ( 'NONE',  ( -0.03905000000000000138, 0.2500000000000000555, 0.000000000000000000 ) ) ;
#289 = AXIS2_PLACEMENT_3D ( 'NONE', #181, #234, #325 ) ;
#290 = ORIENTED_EDGE ( 'NONE', *, *, #204, .T. ) ;
#291 = SURFACE_STYLE_USAGE ( .BOTH. , #323 ) ;
#292 =( NAMED_UNIT ( * ) SI_UNIT ( $, .STERADIAN. ) SOLID_ANGLE_UNIT ( ) );
#293 = ORIENTED_EDGE ( 'NONE', *, *, #96, .F. ) ;
#294 = AXIS2_PLACEMENT_3D ( 'NONE', #232, #350, #304 ) ;
#295 = VECTOR ( 'NONE', #228, 39.37007874015748143 ) ;
#296 = DIRECTION ( 'NONE',  ( -0.000000000000000000, -1.000000000000000000, -0.000000000000000000 ) ) ;
#297 = DIRECTION ( 'NONE',  ( 2.721437331438562546E-17, -1.000000000000000000, 0.000000000000000000 ) ) ;
#298 = PRODUCT_DEFINITION_SHAPE ( 'NONE', 'NONE',  #278 ) ;
#299 = EDGE_CURVE ( 'NONE', #34, #171, #149, .T. ) ;
#300 = CARTESIAN_POINT ( 'NONE',  ( 0.000000000000000000, 0.000000000000000000, 0.000000000000000000 ) ) ;
#301 = DIRECTION ( 'NONE',  ( 0.000000000000000000, 0.000000000000000000, -1.000000000000000000 ) ) ;
#302 = DIRECTION ( 'NONE',  ( -1.000000000000000000, 0.000000000000000000, 0.000000000000000000 ) ) ;
#303 = MECHANICAL_DESIGN_GEOMETRIC_PRESENTATION_REPRESENTATION (  '', ( #196 ), #108 ) ;
#304 = DIRECTION ( 'NONE',  ( 0.000000000000000000, 0.000000000000000000, -1.000000000000000000 ) ) ;
#305 =( CONVERSION_BASED_UNIT ( 'INCH', #254 ) LENGTH_UNIT ( ) NAMED_UNIT ( #271 ) );
#306 =( CONVERSION_BASED_UNIT ( 'INCH', #166 ) LENGTH_UNIT ( ) NAMED_UNIT ( #63 ) );
#307 = DIRECTION ( 'NONE',  ( -0.000000000000000000, -1.000000000000000000, -0.000000000000000000 ) ) ;
#308 =( NAMED_UNIT ( * ) PLANE_ANGLE_UNIT ( ) SI_UNIT ( $, .RADIAN. ) );
#309 = CIRCLE ( 'NONE', #139, 0.03905000000000000138 ) ;
#310 = COLOUR_RGB ( '',1.000000000000000000, 0.000000000000000000, 0.000000000000000000 ) ;
#311 = CARTESIAN_POINT ( 'NONE',  ( 0.000000000000000000, 0.000000000000000000, 0.000000000000000000 ) ) ;
#312 = ADVANCED_FACE ( 'NONE', ( #73 ), #258, .T. ) ;
#313 = DIRECTION ( 'NONE',  ( -0.000000000000000000, -1.000000000000000000, -0.000000000000000000 ) ) ;
#314 = ORIENTED_EDGE ( 'NONE', *, *, #247, .F. ) ;
#315 = VECTOR ( 'NONE', #98, 39.37007874015747433 ) ;
#316 = CIRCLE ( 'NONE', #115, 0.1250000000000000278 ) ;
#317 = LINE ( 'NONE', #59, #174 ) ;
#318 = DIRECTION ( 'NONE',  ( -1.000000000000000000, -2.721437331438562546E-17, 0.000000000000000000 ) ) ;
#319 = DIMENSIONAL_EXPONENTS ( 1.000000000000000000, 0.000000000000000000, 0.000000000000000000, 0.000000000000000000, 0.000000000000000000, 0.000000000000000000, 0.000000000000000000 ) ;
#320 = EDGE_LOOP ( 'NONE', ( #125, #178 ) ) ;
#321 = EDGE_LOOP ( 'NONE', ( #120, #91, #62, #243 ) ) ;
#322 = AXIS2_PLACEMENT_3D ( 'NONE', #276, #193, #109 ) ;
#323 = SURFACE_SIDE_STYLE ('',( #286 ) ) ;
#324 = ORIENTED_EDGE ( 'NONE', *, *, #10, .F. ) ;
#325 = DIRECTION ( 'NONE',  ( 0.000000000000000000, 0.000000000000000000, -1.000000000000000000 ) ) ;
#326 = FILL_AREA_STYLE ('',( #102 ) ) ;
#327 =( CONVERSION_BASED_UNIT ( 'INCH', #203 ) LENGTH_UNIT ( ) NAMED_UNIT ( #319 ) );
#328 = CARTESIAN_POINT ( 'NONE',  ( -6.123233995736766036E-17, 2.500000000000000000, 0.000000000000000000 ) ) ;
#329 =( NAMED_UNIT ( * ) PLANE_ANGLE_UNIT ( ) SI_UNIT ( $, .RADIAN. ) );
#330 = STYLED_ITEM ( 'NONE', ( #33 ), #222 ) ;
#331 = PRESENTATION_LAYER_ASSIGNMENT (  '', '', ( #197 ) ) ;
#332 = PRESENTATION_STYLE_ASSIGNMENT (( #56 ) ) ;
#333 = DIMENSIONAL_EXPONENTS ( 1.000000000000000000, 0.000000000000000000, 0.000000000000000000, 0.000000000000000000, 0.000000000000000000, 0.000000000000000000, 0.000000000000000000 ) ;
#334 = DIRECTION ( 'NONE',  ( -2.721437331438562546E-17, 1.000000000000000000, -0.000000000000000000 ) ) ;
#335 = STYLED_ITEM ( 'NONE', ( #240 ), #217 ) ;
#336 = EDGE_LOOP ( 'NONE', ( #270, #256 ) ) ;
#337 = PRODUCT_DEFINITION_FORMATION_WITH_SPECIFIED_SOURCE ( 'ANY', '', #347, .NOT_KNOWN. ) ;
#338 = VERTEX_POINT ( 'NONE', #163 ) ;
#339 = ADVANCED_BREP_SHAPE_REPRESENTATION ( '84046', ( #226, #222, #40 ), #94 ) ;
#340 = UNCERTAINTY_MEASURE_WITH_UNIT (LENGTH_MEASURE( 1.000000000000000082E-05 ), #35, 'distance_accuracy_value', 'NONE');
#341 = CARTESIAN_POINT ( 'NONE',  ( 0.000000000000000000, 0.000000000000000000, -0.03905000000000000138 ) ) ;
#342 = PLANE ( 'NONE',  #235 ) ;
#343 =( GEOMETRIC_REPRESENTATION_CONTEXT ( 3 ) GLOBAL_UNCERTAINTY_ASSIGNED_CONTEXT ( ( #117 ) ) GLOBAL_UNIT_ASSIGNED_CONTEXT ( ( #51, #308, #119 ) ) REPRESENTATION_CONTEXT ( 'NONE', 'WORKASPACE' ) );
#344 = FILL_AREA_STYLE ('',( #60 ) ) ;
#345 = FACE_OUTER_BOUND ( 'NONE', #321, .T. ) ;
#346 = LINE ( 'NONE', #207, #315 ) ;
#347 = PRODUCT ( '84046', '84046', '', ( #112 ) ) ;
#348 = LINE ( 'NONE', #41, #191 ) ;
#349 = SURFACE_STYLE_USAGE ( .BOTH. , #202 ) ;
#350 = DIRECTION ( 'NONE',  ( -0.000000000000000000, -1.000000000000000000, -0.000000000000000000 ) ) ;
#351 = LENGTH_MEASURE_WITH_UNIT ( LENGTH_MEASURE( 0.02539999999999999897 ), #97 );
#352 = CARTESIAN_POINT ( 'NONE',  ( 0.1250000000000000278, 2.500000000000000000, 1.530808498934192125E-17 ) ) ;
#353 = STYLED_ITEM ( 'NONE', ( #267 ), #226 ) ;
#354 = AXIS2_PLACEMENT_3D ( 'NONE', #249, #182, #302 ) ;
#355 = SURFACE_STYLE_FILL_AREA ( #216 ) ;
#356 = APPLICATION_PROTOCOL_DEFINITION ( 'draft international standard', 'automotive_design', 1998, #255 ) ;
#357 = VERTEX_POINT ( 'NONE', #273 ) ;
#358 = DIMENSIONAL_EXPONENTS ( 1.000000000000000000, 0.000000000000000000, 0.000000000000000000, 0.000000000000000000, 0.000000000000000000, 0.000000000000000000, 0.000000000000000000 ) ;
#359 = ADVANCED_FACE ( 'NONE', ( #167 ), #72, .T. ) ;
ENDSEC;
END-ISO-10303-21;
