ISO-10303-21;
HEADER;
FILE_DESCRIPTION (( 'STEP AP214' ),
    '1' );
FILE_NAME ('Micro_SBM-250-3X.STEP',
    '2021-09-02T17:01:44',
    ( '' ),
    ( '' ),
    'SwSTEP 2.0',
    'SolidWorks 2020',
    '' );
FILE_SCHEMA (( 'AUTOMOTIVE_DESIGN' ));
ENDSEC;

DATA;
#1 = LENGTH_MEASURE_WITH_UNIT ( LENGTH_MEASURE( 0.02539999999999999897 ), #328 );
#2 = CARTESIAN_POINT ( 'NONE',  ( 0.0000000000000000000, 0.0000000000000000000, 0.1250000000000000000 ) ) ;
#3 =( NAMED_UNIT ( * ) SI_UNIT ( $, .STERADIAN. ) SOLID_ANGLE_UNIT ( ) );
#4 = DIRECTION ( 'NONE',  ( 1.000000000000000000, 1.224646799147353207E-16, -0.0000000000000000000 ) ) ;
#5 = CARTESIAN_POINT ( 'NONE',  ( 0.0000000000000000000, 0.0000000000000000000, 0.1999999999999999833 ) ) ;
#6 = ADVANCED_FACE ( 'NONE', ( #16 ), #47, .T. ) ;
#7 = CARTESIAN_POINT ( 'NONE',  ( 0.0000000000000000000, 0.0000000000000000000, 2.985000000000001208 ) ) ;
#8 = VECTOR ( 'NONE', #319, 39.37007874015748143 ) ;
#9 = DIRECTION ( 'NONE',  ( 1.000000000000000000, 0.0000000000000000000, 0.0000000000000000000 ) ) ;
#10 = DIRECTION ( 'NONE',  ( 0.0000000000000000000, 0.0000000000000000000, -1.000000000000000000 ) ) ;
#11 = CARTESIAN_POINT ( 'NONE',  ( 0.0000000000000000000, 0.0000000000000000000, 3.000000000000000444 ) ) ;
#12 = CARTESIAN_POINT ( 'NONE',  ( 0.0000000000000000000, 0.0000000000000000000, 0.1250000000000000000 ) ) ;
#13 = DIRECTION ( 'NONE',  ( -1.000000000000000000, 0.0000000000000000000, 0.0000000000000000000 ) ) ;
#14 = FILL_AREA_STYLE_COLOUR ( '', #158 ) ;
#15 = EDGE_CURVE ( 'NONE', #264, #212, #321, .T. ) ;
#16 = FACE_OUTER_BOUND ( 'NONE', #237, .T. ) ;
#17 = DIRECTION ( 'NONE',  ( -1.000000000000000000, 0.0000000000000000000, 0.0000000000000000000 ) ) ;
#18 = AXIS2_PLACEMENT_3D ( 'NONE', #195, #161, #323 ) ;
#19 = FACE_OUTER_BOUND ( 'NONE', #185, .T. ) ;
#20 = STYLED_ITEM ( 'NONE', ( #27 ), #234 ) ;
#21 = ORIENTED_EDGE ( 'NONE', *, *, #333, .F. ) ;
#22 = CIRCLE ( 'NONE', #56, 0.09999999999999996392 ) ;
#23 = VERTEX_POINT ( 'NONE', #247 ) ;
#24 = ORIENTED_EDGE ( 'NONE', *, *, #30, .F. ) ;
#25 = EDGE_CURVE ( 'NONE', #78, #23, #171, .T. ) ;
#26 = ORIENTED_EDGE ( 'NONE', *, *, #336, .T. ) ;
#27 = PRESENTATION_STYLE_ASSIGNMENT (( #269 ) ) ;
#28 = ORIENTED_EDGE ( 'NONE', *, *, #25, .F. ) ;
#29 = CARTESIAN_POINT ( 'NONE',  ( 0.0000000000000000000, 0.0000000000000000000, 1.199999999999999956 ) ) ;
#30 = EDGE_CURVE ( 'NONE', #270, #108, #261, .T. ) ;
#31 = CARTESIAN_POINT ( 'NONE',  ( 0.09999999999999996392, 1.224646799147352807E-17, 0.0000000000000000000 ) ) ;
#32 = LENGTH_MEASURE_WITH_UNIT ( LENGTH_MEASURE( 0.02539999999999999897 ), #41 );
#33 = CARTESIAN_POINT ( 'NONE',  ( 0.0000000000000000000, 0.0000000000000000000, 2.985000000000001208 ) ) ;
#34 = LINE ( 'NONE', #89, #85 ) ;
#35 = CIRCLE ( 'NONE', #174, 0.09999999999999997780 ) ;
#36 = PRESENTATION_STYLE_ASSIGNMENT (( #173 ) ) ;
#37 = AXIS2_PLACEMENT_3D ( 'NONE', #107, #160, #170 ) ;
#38 = CARTESIAN_POINT ( 'NONE',  ( 0.0000000000000000000, 0.0000000000000000000, 0.1999999999999999833 ) ) ;
#39 = ADVANCED_FACE ( 'NONE', ( #119 ), #286, .T. ) ;
#40 = PRODUCT_DEFINITION_CONTEXT ( 'detailed design', #177, 'design' ) ;
#41 =( LENGTH_UNIT ( ) NAMED_UNIT ( * ) SI_UNIT ( $, .METRE. ) );
#42 = CARTESIAN_POINT ( 'NONE',  ( 0.0000000000000000000, 0.0000000000000000000, 3.000000000000000444 ) ) ;
#43 = CARTESIAN_POINT ( 'NONE',  ( 0.0000000000000000000, 0.0000000000000000000, 0.0000000000000000000 ) ) ;
#44 = DIRECTION ( 'NONE',  ( -1.000000000000000000, 0.0000000000000000000, 0.0000000000000000000 ) ) ;
#45 =( GEOMETRIC_REPRESENTATION_CONTEXT ( 3 ) GLOBAL_UNCERTAINTY_ASSIGNED_CONTEXT ( ( #228 ) ) GLOBAL_UNIT_ASSIGNED_CONTEXT ( ( #294, #73, #260 ) ) REPRESENTATION_CONTEXT ( 'NONE', 'WORKASPACE' ) );
#46 = PRODUCT_RELATED_PRODUCT_CATEGORY ( 'part', '', ( #123 ) ) ;
#47 = CONICAL_SURFACE ( 'NONE', #331, 0.1100000000000004446, 0.7853981633974613796 ) ;
#48 = ADVANCED_FACE ( 'NONE', ( #62 ), #117, .T. ) ;
#49 = ORIENTED_EDGE ( 'NONE', *, *, #333, .T. ) ;
#50 = ORIENTED_EDGE ( 'NONE', *, *, #291, .F. ) ;
#51 = AXIS2_PLACEMENT_3D ( 'NONE', #5, #138, #144 ) ;
#52 = ORIENTED_EDGE ( 'NONE', *, *, #180, .F. ) ;
#53 = ORIENTED_EDGE ( 'NONE', *, *, #232, .T. ) ;
#54 = ORIENTED_EDGE ( 'NONE', *, *, #15, .T. ) ;
#55 = DIRECTION ( 'NONE',  ( 0.0000000000000000000, 0.0000000000000000000, 1.000000000000000000 ) ) ;
#56 = AXIS2_PLACEMENT_3D ( 'NONE', #226, #334, #190 ) ;
#57 = AXIS2_PLACEMENT_3D ( 'NONE', #43, #306, #196 ) ;
#58 = EDGE_CURVE ( 'NONE', #108, #316, #94, .T. ) ;
#59 = CARTESIAN_POINT ( 'NONE',  ( 0.1250000000000000000, 0.0000000000000000000, 1.199999999999999956 ) ) ;
#60 = DIRECTION ( 'NONE',  ( -0.0000000000000000000, -0.0000000000000000000, -1.000000000000000000 ) ) ;
#61 = DIRECTION ( 'NONE',  ( -0.0000000000000000000, -0.0000000000000000000, -1.000000000000000000 ) ) ;
#62 = FACE_OUTER_BOUND ( 'NONE', #182, .T. ) ;
#63 = CARTESIAN_POINT ( 'NONE',  ( 0.1374999999999998168, 0.0000000000000000000, 1.549999999999994049 ) ) ;
#64 = CARTESIAN_POINT ( 'NONE',  ( -0.1100000000000004446, 0.0000000000000000000, 3.000000000000000444 ) ) ;
#65 =( GEOMETRIC_REPRESENTATION_CONTEXT ( 3 ) GLOBAL_UNCERTAINTY_ASSIGNED_CONTEXT ( ( #76 ) ) GLOBAL_UNIT_ASSIGNED_CONTEXT ( ( #248, #229, #166 ) ) REPRESENTATION_CONTEXT ( 'NONE', 'WORKASPACE' ) );
#66 = DIRECTION ( 'NONE',  ( -1.224646799147353207E-16, 1.000000000000000000, 0.0000000000000000000 ) ) ;
#67 = CARTESIAN_POINT ( 'NONE',  ( 0.1250000000000000000, 1.530808498934191201E-17, 2.985000000000001208 ) ) ;
#68 = CYLINDRICAL_SURFACE ( 'NONE', #57, 0.09999999999999996392 ) ;
#69 = DIRECTION ( 'NONE',  ( 0.0000000000000000000, 1.000000000000000000, 0.0000000000000000000 ) ) ;
#70 = DIRECTION ( 'NONE',  ( -1.000000000000000000, 0.0000000000000000000, 0.0000000000000000000 ) ) ;
#71 = EDGE_CURVE ( 'NONE', #104, #312, #34, .T. ) ;
#72 = AXIS2_PLACEMENT_3D ( 'NONE', #118, #300, #9 ) ;
#73 =( NAMED_UNIT ( * ) PLANE_ANGLE_UNIT ( ) SI_UNIT ( $, .RADIAN. ) );
#74 = EDGE_LOOP ( 'NONE', ( #21, #54, #208, #154 ) ) ;
#75 = VERTEX_POINT ( 'NONE', #305 ) ;
#76 = UNCERTAINTY_MEASURE_WITH_UNIT (LENGTH_MEASURE( 1.000000000000000082E-05 ), #248, 'distance_accuracy_value', 'NONE');
#77 = VERTEX_POINT ( 'NONE', #301 ) ;
#78 = VERTEX_POINT ( 'NONE', #187 ) ;
#79 = DIMENSIONAL_EXPONENTS ( 1.000000000000000000, 0.0000000000000000000, 0.0000000000000000000, 0.0000000000000000000, 0.0000000000000000000, 0.0000000000000000000, 0.0000000000000000000 ) ;
#80 = SURFACE_STYLE_FILL_AREA ( #129 ) ;
#81 = EDGE_LOOP ( 'NONE', ( #341, #339, #268, #342 ) ) ;
#82 = CARTESIAN_POINT ( 'NONE',  ( -0.1100000000000004446, 0.0000000000000000000, 3.000000000000000444 ) ) ;
#83 = EDGE_CURVE ( 'NONE', #75, #212, #199, .T. ) ;
#84 = ORIENTED_EDGE ( 'NONE', *, *, #336, .F. ) ;
#85 = VECTOR ( 'NONE', #192, 39.37007874015748143 ) ;
#86 = VECTOR ( 'NONE', #116, 39.37007874015748854 ) ;
#87 = SURFACE_SIDE_STYLE ('',( #148 ) ) ;
#88 = DIRECTION ( 'NONE',  ( 0.0000000000000000000, 0.0000000000000000000, -1.000000000000000000 ) ) ;
#89 = CARTESIAN_POINT ( 'NONE',  ( 0.1250000000000000000, 1.530808498934191201E-17, 3.000000000000000444 ) ) ;
#90 = LINE ( 'NONE', #143, #131 ) ;
#91 = DIRECTION ( 'NONE',  ( 1.000000000000000000, 0.0000000000000000000, 0.0000000000000000000 ) ) ;
#92 = DIRECTION ( 'NONE',  ( -1.000000000000000000, 0.0000000000000000000, 0.0000000000000000000 ) ) ;
#93 = FACE_OUTER_BOUND ( 'NONE', #103, .T. ) ;
#94 = LINE ( 'NONE', #82, #139 ) ;
#95 = CLOSED_SHELL ( 'NONE', ( #6, #122, #221, #198, #48, #176, #39, #252, #215, #259, #284 ) ) ;
#96 = SPHERICAL_SURFACE ( 'NONE', #285, 0.1249999999999999861 ) ;
#97 = DIRECTION ( 'NONE',  ( 0.0000000000000000000, 0.0000000000000000000, -1.000000000000000000 ) ) ;
#98 = DIRECTION ( 'NONE',  ( 0.03569153051241254898, 0.0000000000000000000, 0.9993628543475495674 ) ) ;
#99 = AXIS2_PLACEMENT_3D ( 'NONE', #223, #255, #17 ) ;
#100 = EDGE_CURVE ( 'NONE', #108, #270, #202, .T. ) ;
#101 = COLOUR_RGB ( '',0.7921568627450980005, 0.8196078431372548767, 0.9333333333333333481 ) ;
#102 = ORIENTED_EDGE ( 'NONE', *, *, #83, .T. ) ;
#103 = EDGE_LOOP ( 'NONE', ( #28, #235, #102, #136, #290 ) ) ;
#104 = VERTEX_POINT ( 'NONE', #67 ) ;
#105 = ORIENTED_EDGE ( 'NONE', *, *, #311, .F. ) ;
#106 = STYLED_ITEM ( 'NONE', ( #36 ), #240 ) ;
#107 = CARTESIAN_POINT ( 'NONE',  ( 0.0000000000000000000, 0.0000000000000000000, 0.1999999999999999833 ) ) ;
#108 = VERTEX_POINT ( 'NONE', #64 ) ;
#109 = DIMENSIONAL_EXPONENTS ( 1.000000000000000000, 0.0000000000000000000, 0.0000000000000000000, 0.0000000000000000000, 0.0000000000000000000, 0.0000000000000000000, 0.0000000000000000000 ) ;
#110 = DIRECTION ( 'NONE',  ( -0.7071067811865566766, 0.0000000000000000000, -0.7071067811865382469 ) ) ;
#111 = VECTOR ( 'NONE', #60, 39.37007874015748143 ) ;
#112 = EDGE_CURVE ( 'NONE', #312, #77, #120, .T. ) ;
#113 = LINE ( 'NONE', #63, #225 ) ;
#114 = DIRECTION ( 'NONE',  ( -0.0000000000000000000, -0.0000000000000000000, -1.000000000000000000 ) ) ;
#115 = CARTESIAN_POINT ( 'NONE',  ( -0.09999999999999997780, 0.0000000000000000000, 0.1999999999999999833 ) ) ;
#116 = DIRECTION ( 'NONE',  ( 0.7071067811865566766, 8.659560562355046257E-17, -0.7071067811865382469 ) ) ;
#117 = SPHERICAL_SURFACE ( 'NONE', #343, 0.1249999999999999861 ) ;
#118 = CARTESIAN_POINT ( 'NONE',  ( 0.0000000000000000000, 0.0000000000000000000, 1.199999999999999956 ) ) ;
#119 = FACE_OUTER_BOUND ( 'NONE', #207, .T. ) ;
#120 = CIRCLE ( 'NONE', #277, 0.1250000000000000000 ) ;
#121 = DIRECTION ( 'NONE',  ( -0.03569153051241254898, 4.370951859869611905E-18, 0.9993628543475495674 ) ) ;
#122 = ADVANCED_FACE ( 'NONE', ( #168 ), #302, .T. ) ;
#123 = PRODUCT ( 'Micro_SBM-250-3X', 'Micro_SBM-250-3X', '', ( #315 ) ) ;
#124 = ORIENTED_EDGE ( 'NONE', *, *, #209, .T. ) ;
#125 = CIRCLE ( 'NONE', #183, 0.09999999999999997780 ) ;
#126 = AXIS2_PLACEMENT_3D ( 'NONE', #33, #10, #91 ) ;
#127 = ORIENTED_EDGE ( 'NONE', *, *, #271, .F. ) ;
#128 = ORIENTED_EDGE ( 'NONE', *, *, #58, .F. ) ;
#129 = FILL_AREA_STYLE ('',( #267 ) ) ;
#130 = ORIENTED_EDGE ( 'NONE', *, *, #232, .F. ) ;
#131 = VECTOR ( 'NONE', #61, 39.37007874015748143 ) ;
#132 = ORIENTED_EDGE ( 'NONE', *, *, #230, .F. ) ;
#133 = PRESENTATION_LAYER_ASSIGNMENT (  '', '', ( #106 ) ) ;
#134 = FACE_OUTER_BOUND ( 'NONE', #214, .T. ) ;
#135 = DIRECTION ( 'NONE',  ( 1.000000000000000000, 0.0000000000000000000, 0.0000000000000000000 ) ) ;
#136 = ORIENTED_EDGE ( 'NONE', *, *, #15, .F. ) ;
#137 = CARTESIAN_POINT ( 'NONE',  ( 0.0000000000000000000, 0.0000000000000000000, 1.549999999999994049 ) ) ;
#138 = DIRECTION ( 'NONE',  ( -0.0000000000000000000, -0.0000000000000000000, -1.000000000000000000 ) ) ;
#139 = VECTOR ( 'NONE', #110, 39.37007874015748854 ) ;
#140 = CIRCLE ( 'NONE', #37, 0.09999999999999997780 ) ;
#141 = DIRECTION ( 'NONE',  ( 1.000000000000000000, 0.0000000000000000000, 0.0000000000000000000 ) ) ;
#142 = DIRECTION ( 'NONE',  ( 0.0000000000000000000, 0.0000000000000000000, 1.000000000000000000 ) ) ;
#143 = CARTESIAN_POINT ( 'NONE',  ( -0.1250000000000000000, 0.0000000000000000000, 3.000000000000000444 ) ) ;
#144 = DIRECTION ( 'NONE',  ( -1.000000000000000000, 0.0000000000000000000, 0.0000000000000000000 ) ) ;
#145 = LINE ( 'NONE', #308, #175 ) ;
#146 = EDGE_CURVE ( 'NONE', #238, #23, #125, .T. ) ;
#147 = AXIS2_PLACEMENT_3D ( 'NONE', #197, #88, #253 ) ;
#148 = SURFACE_STYLE_FILL_AREA ( #276 ) ;
#149 = PRODUCT_DEFINITION_FORMATION_WITH_SPECIFIED_SOURCE ( 'ANY', '', #123, .NOT_KNOWN. ) ;
#150 = APPLICATION_PROTOCOL_DEFINITION ( 'draft international standard', 'automotive_design', 1998, #177 ) ;
#151 = ORIENTED_EDGE ( 'NONE', *, *, #296, .F. ) ;
#152 = ORIENTED_EDGE ( 'NONE', *, *, #58, .T. ) ;
#153 = AXIS2_PLACEMENT_3D ( 'NONE', #216, #322, #44 ) ;
#154 = ORIENTED_EDGE ( 'NONE', *, *, #291, .T. ) ;
#155 = ORIENTED_EDGE ( 'NONE', *, *, #230, .T. ) ;
#156 = SURFACE_SIDE_STYLE ('',( #80 ) ) ;
#157 = ORIENTED_EDGE ( 'NONE', *, *, #100, .T. ) ;
#158 = COLOUR_RGB ( '',0.7921568627450980005, 0.8196078431372548767, 0.9333333333333333481 ) ;
#159 = ORIENTED_EDGE ( 'NONE', *, *, #112, .F. ) ;
#160 = DIRECTION ( 'NONE',  ( -0.0000000000000000000, -0.0000000000000000000, -1.000000000000000000 ) ) ;
#161 = DIRECTION ( 'NONE',  ( 0.0000000000000000000, 0.0000000000000000000, 1.000000000000000000 ) ) ;
#162 =( CONVERSION_BASED_UNIT ( 'INCH', #1 ) LENGTH_UNIT ( ) NAMED_UNIT ( #242 ) );
#163 = FACE_OUTER_BOUND ( 'NONE', #289, .T. ) ;
#164 = EDGE_CURVE ( 'NONE', #23, #264, #35, .T. ) ;
#165 = CARTESIAN_POINT ( 'NONE',  ( -0.09999999999999996392, 0.0000000000000000000, 0.0000000000000000000 ) ) ;
#166 =( NAMED_UNIT ( * ) SI_UNIT ( $, .STERADIAN. ) SOLID_ANGLE_UNIT ( ) );
#167 = CARTESIAN_POINT ( 'NONE',  ( 0.0000000000000000000, 7.654042494670956004E-18, 1.707404996040164512E-17 ) ) ;
#168 = FACE_OUTER_BOUND ( 'NONE', #81, .T. ) ;
#169 = CONICAL_SURFACE ( 'NONE', #309, 0.1374999999999998168, 0.03569911267932403265 ) ;
#170 = DIRECTION ( 'NONE',  ( -1.000000000000000000, 0.0000000000000000000, 0.0000000000000000000 ) ) ;
#171 = LINE ( 'NONE', #31, #111 ) ;
#172 = CARTESIAN_POINT ( 'NONE',  ( 0.0000000000000000000, 0.0000000000000000000, 3.000000000000000444 ) ) ;
#173 = SURFACE_STYLE_USAGE ( .BOTH. , #87 ) ;
#174 = AXIS2_PLACEMENT_3D ( 'NONE', #38, #254, #13 ) ;
#175 = VECTOR ( 'NONE', #121, 39.37007874015748143 ) ;
#176 = ADVANCED_FACE ( 'NONE', ( #222 ), #96, .T. ) ;
#177 = APPLICATION_CONTEXT ( 'automotive_design' ) ;
#178 = PRESENTATION_LAYER_ASSIGNMENT (  '', '', ( #20 ) ) ;
#179 = ORIENTED_EDGE ( 'NONE', *, *, #203, .F. ) ;
#180 = EDGE_CURVE ( 'NONE', #78, #75, #22, .T. ) ;
#181 = ORIENTED_EDGE ( 'NONE', *, *, #146, .F. ) ;
#182 = EDGE_LOOP ( 'NONE', ( #256, #210, #49, #50 ) ) ;
#183 = AXIS2_PLACEMENT_3D ( 'NONE', #279, #245, #92 ) ;
#184 = CONICAL_SURFACE ( 'NONE', #147, 0.1100000000000004446, 0.7853981633974613796 ) ;
#185 = EDGE_LOOP ( 'NONE', ( #130, #188, #159, #132 ) ) ;
#186 = CARTESIAN_POINT ( 'NONE',  ( 0.0000000000000000000, 0.0000000000000000000, 0.0000000000000000000 ) ) ;
#187 = CARTESIAN_POINT ( 'NONE',  ( 0.09999999999999996392, 0.0000000000000000000, 0.5000000000000000000 ) ) ;
#188 = ORIENTED_EDGE ( 'NONE', *, *, #263, .T. ) ;
#189 = PRODUCT_DEFINITION ( 'UNKNOWN', '', #149, #40 ) ;
#190 = DIRECTION ( 'NONE',  ( -1.000000000000000000, 0.0000000000000000000, 0.0000000000000000000 ) ) ;
#191 = LINE ( 'NONE', #325, #86 ) ;
#192 = DIRECTION ( 'NONE',  ( -0.0000000000000000000, -0.0000000000000000000, -1.000000000000000000 ) ) ;
#193 = DIRECTION ( 'NONE',  ( -0.0000000000000000000, -0.0000000000000000000, -1.000000000000000000 ) ) ;
#194 = DIRECTION ( 'NONE',  ( 0.0000000000000000000, 0.0000000000000000000, 1.000000000000000000 ) ) ;
#195 = CARTESIAN_POINT ( 'NONE',  ( 0.0000000000000000000, 0.0000000000000000000, 3.000000000000000444 ) ) ;
#196 = DIRECTION ( 'NONE',  ( -1.000000000000000000, 0.0000000000000000000, 0.0000000000000000000 ) ) ;
#197 = CARTESIAN_POINT ( 'NONE',  ( 0.0000000000000000000, 0.0000000000000000000, 3.000000000000000444 ) ) ;
#198 = ADVANCED_FACE ( 'NONE', ( #19 ), #169, .T. ) ;
#199 = LINE ( 'NONE', #165, #8 ) ;
#200 = CARTESIAN_POINT ( 'NONE',  ( 0.0000000000000000000, 0.0000000000000000000, 0.1250000000000000000 ) ) ;
#201 = DIRECTION ( 'NONE',  ( 0.0000000000000000000, 0.0000000000000000000, 1.000000000000000000 ) ) ;
#202 = CIRCLE ( 'NONE', #249, 0.1100000000000004446 ) ;
#203 = EDGE_CURVE ( 'NONE', #77, #312, #217, .T. ) ;
#204 = DIRECTION ( 'NONE',  ( 0.0000000000000000000, 0.0000000000000000000, 1.000000000000000000 ) ) ;
#205 = AXIS2_PLACEMENT_3D ( 'NONE', #274, #142, #275 ) ;
#206 = CARTESIAN_POINT ( 'NONE',  ( 1.224646799147353115E-17, -0.09999999999999999167, 0.1999999999999999833 ) ) ;
#207 = EDGE_LOOP ( 'NONE', ( #340, #52, #155, #179 ) ) ;
#208 = ORIENTED_EDGE ( 'NONE', *, *, #311, .T. ) ;
#209 = EDGE_CURVE ( 'NONE', #316, #77, #90, .T. ) ;
#210 = ORIENTED_EDGE ( 'NONE', *, *, #164, .T. ) ;
#211 = APPLICATION_PROTOCOL_DEFINITION ( 'draft international standard', 'automotive_design', 1998, #335 ) ;
#212 = VERTEX_POINT ( 'NONE', #115 ) ;
#213 = ORIENTED_EDGE ( 'NONE', *, *, #71, .F. ) ;
#214 = EDGE_LOOP ( 'NONE', ( #84, #313, #152, #127 ) ) ;
#215 = ADVANCED_FACE ( 'NONE', ( #330 ), #283, .T. ) ;
#216 = CARTESIAN_POINT ( 'NONE',  ( 0.0000000000000000000, 0.0000000000000000000, 3.000000000000000444 ) ) ;
#217 = CIRCLE ( 'NONE', #72, 0.1250000000000000000 ) ;
#218 = CARTESIAN_POINT ( 'NONE',  ( 0.0000000000000000000, 0.0000000000000000000, 0.1250000000000000000 ) ) ;
#219 = DIRECTION ( 'NONE',  ( -1.000000000000000000, 0.0000000000000000000, 0.0000000000000000000 ) ) ;
#220 = DIRECTION ( 'NONE',  ( 0.0000000000000000000, 0.0000000000000000000, 1.000000000000000000 ) ) ;
#221 = ADVANCED_FACE ( 'NONE', ( #163 ), #257, .T. ) ;
#222 = FACE_OUTER_BOUND ( 'NONE', #74, .T. ) ;
#223 = CARTESIAN_POINT ( 'NONE',  ( 0.0000000000000000000, 0.0000000000000000000, 0.0000000000000000000 ) ) ;
#224 = DIRECTION ( 'NONE',  ( -1.000000000000000000, 0.0000000000000000000, 0.0000000000000000000 ) ) ;
#225 = VECTOR ( 'NONE', #98, 39.37007874015748143 ) ;
#226 = CARTESIAN_POINT ( 'NONE',  ( 0.0000000000000000000, 0.0000000000000000000, 0.5000000000000000000 ) ) ;
#227 = AXIS2_PLACEMENT_3D ( 'NONE', #280, #193, #70 ) ;
#228 = UNCERTAINTY_MEASURE_WITH_UNIT (LENGTH_MEASURE( 1.000000000000000082E-05 ), #294, 'distance_accuracy_value', 'NONE');
#229 =( NAMED_UNIT ( * ) PLANE_ANGLE_UNIT ( ) SI_UNIT ( $, .RADIAN. ) );
#230 = EDGE_CURVE ( 'NONE', #78, #312, #113, .T. ) ;
#231 = AXIS2_PLACEMENT_3D ( 'NONE', #186, #204, #297 ) ;
#232 = EDGE_CURVE ( 'NONE', #75, #78, #287, .T. ) ;
#233 = SHAPE_DEFINITION_REPRESENTATION ( #320, #234 ) ;
#234 = ADVANCED_BREP_SHAPE_REPRESENTATION ( 'Micro_SBM-250-3X', ( #240, #231 ), #314 ) ;
#235 = ORIENTED_EDGE ( 'NONE', *, *, #180, .T. ) ;
#236 = AXIS2_PLACEMENT_3D ( 'NONE', #172, #201, #282 ) ;
#237 = EDGE_LOOP ( 'NONE', ( #24, #26, #151, #128 ) ) ;
#238 = VERTEX_POINT ( 'NONE', #327 ) ;
#239 = CARTESIAN_POINT ( 'NONE',  ( 0.1100000000000004446, 1.438959988998142687E-17, 3.000000000000000444 ) ) ;
#240 = MANIFOLD_SOLID_BREP ( 'Cut-Revolve3', #95 ) ;
#241 = EDGE_LOOP ( 'NONE', ( #213, #310, #124, #265 ) ) ;
#242 = DIMENSIONAL_EXPONENTS ( 1.000000000000000000, 0.0000000000000000000, 0.0000000000000000000, 0.0000000000000000000, 0.0000000000000000000, 0.0000000000000000000, 0.0000000000000000000 ) ;
#243 = ORIENTED_EDGE ( 'NONE', *, *, #25, .T. ) ;
#244 =( NAMED_UNIT ( * ) PLANE_ANGLE_UNIT ( ) SI_UNIT ( $, .RADIAN. ) );
#245 = DIRECTION ( 'NONE',  ( -0.0000000000000000000, -0.0000000000000000000, -1.000000000000000000 ) ) ;
#246 = CARTESIAN_POINT ( 'NONE',  ( -0.1250000000000000000, 0.0000000000000000000, 2.985000000000001208 ) ) ;
#247 = CARTESIAN_POINT ( 'NONE',  ( 0.09999999999999997780, 1.224646799147352961E-17, 0.1999999999999999833 ) ) ;
#248 =( CONVERSION_BASED_UNIT ( 'INCH', #32 ) LENGTH_UNIT ( ) NAMED_UNIT ( #109 ) );
#249 = AXIS2_PLACEMENT_3D ( 'NONE', #42, #55, #273 ) ;
#250 = DIRECTION ( 'NONE',  ( 0.0000000000000000000, 0.0000000000000000000, 1.000000000000000000 ) ) ;
#251 =( LENGTH_UNIT ( ) NAMED_UNIT ( * ) SI_UNIT ( $, .METRE. ) );
#252 = ADVANCED_FACE ( 'NONE', ( #93 ), #68, .T. ) ;
#253 = DIRECTION ( 'NONE',  ( -1.000000000000000000, 0.0000000000000000000, 0.0000000000000000000 ) ) ;
#254 = DIRECTION ( 'NONE',  ( -0.0000000000000000000, -0.0000000000000000000, -1.000000000000000000 ) ) ;
#255 = DIRECTION ( 'NONE',  ( -0.0000000000000000000, -0.0000000000000000000, -1.000000000000000000 ) ) ;
#256 = ORIENTED_EDGE ( 'NONE', *, *, #146, .T. ) ;
#257 = CYLINDRICAL_SURFACE ( 'NONE', #99, 0.09999999999999996392 ) ;
#258 = DIRECTION ( 'NONE',  ( 1.000000000000000000, 0.0000000000000000000, 0.0000000000000000000 ) ) ;
#259 = ADVANCED_FACE ( 'NONE', ( #324 ), #303, .T. ) ;
#260 =( NAMED_UNIT ( * ) SI_UNIT ( $, .STERADIAN. ) SOLID_ANGLE_UNIT ( ) );
#261 = CIRCLE ( 'NONE', #18, 0.1100000000000004446 ) ;
#262 = CIRCLE ( 'NONE', #278, 0.1250000000000000000 ) ;
#263 = EDGE_CURVE ( 'NONE', #75, #77, #145, .T. ) ;
#264 = VERTEX_POINT ( 'NONE', #206 ) ;
#265 = ORIENTED_EDGE ( 'NONE', *, *, #203, .T. ) ;
#266 = MECHANICAL_DESIGN_GEOMETRIC_PRESENTATION_REPRESENTATION (  '', ( #20 ), #45 ) ;
#267 = FILL_AREA_STYLE_COLOUR ( '', #101 ) ;
#268 = ORIENTED_EDGE ( 'NONE', *, *, #112, .T. ) ;
#269 = SURFACE_STYLE_USAGE ( .BOTH. , #156 ) ;
#270 = VERTEX_POINT ( 'NONE', #239 ) ;
#271 = EDGE_CURVE ( 'NONE', #104, #316, #262, .T. ) ;
#272 = AXIS2_PLACEMENT_3D ( 'NONE', #2, #224, #194 ) ;
#273 = DIRECTION ( 'NONE',  ( 1.000000000000000000, 0.0000000000000000000, 0.0000000000000000000 ) ) ;
#274 = CARTESIAN_POINT ( 'NONE',  ( 0.0000000000000000000, 0.0000000000000000000, 1.549999999999994049 ) ) ;
#275 = DIRECTION ( 'NONE',  ( 1.000000000000000000, 0.0000000000000000000, 0.0000000000000000000 ) ) ;
#276 = FILL_AREA_STYLE ('',( #14 ) ) ;
#277 = AXIS2_PLACEMENT_3D ( 'NONE', #29, #250, #135 ) ;
#278 = AXIS2_PLACEMENT_3D ( 'NONE', #7, #97, #141 ) ;
#279 = CARTESIAN_POINT ( 'NONE',  ( 0.0000000000000000000, 0.0000000000000000000, 0.1999999999999999833 ) ) ;
#280 = CARTESIAN_POINT ( 'NONE',  ( 0.0000000000000000000, 0.0000000000000000000, 0.5000000000000000000 ) ) ;
#281 = CARTESIAN_POINT ( 'NONE',  ( 0.0000000000000000000, 0.0000000000000000000, 3.000000000000000444 ) ) ;
#282 = DIRECTION ( 'NONE',  ( 1.000000000000000000, 0.0000000000000000000, -0.0000000000000000000 ) ) ;
#283 = CYLINDRICAL_SURFACE ( 'NONE', #153, 0.1250000000000000000 ) ;
#284 = ADVANCED_FACE ( 'NONE', ( #134 ), #184, .T. ) ;
#285 = AXIS2_PLACEMENT_3D ( 'NONE', #200, #307, #69 ) ;
#286 = CONICAL_SURFACE ( 'NONE', #205, 0.1374999999999998168, 0.03569911267932403265 ) ;
#287 = CIRCLE ( 'NONE', #227, 0.09999999999999996392 ) ;
#288 = UNCERTAINTY_MEASURE_WITH_UNIT (LENGTH_MEASURE( 1.000000000000000082E-05 ), #162, 'distance_accuracy_value', 'NONE');
#289 = EDGE_LOOP ( 'NONE', ( #53, #243, #181, #105, #292 ) ) ;
#290 = ORIENTED_EDGE ( 'NONE', *, *, #164, .F. ) ;
#291 = EDGE_CURVE ( 'NONE', #238, #345, #344, .T. ) ;
#292 = ORIENTED_EDGE ( 'NONE', *, *, #83, .F. ) ;
#293 = ORIENTED_EDGE ( 'NONE', *, *, #30, .T. ) ;
#294 =( CONVERSION_BASED_UNIT ( 'INCH', #318 ) LENGTH_UNIT ( ) NAMED_UNIT ( #79 ) );
#295 = EDGE_LOOP ( 'NONE', ( #157, #293 ) ) ;
#296 = EDGE_CURVE ( 'NONE', #316, #104, #298, .T. ) ;
#297 = DIRECTION ( 'NONE',  ( 1.000000000000000000, 0.0000000000000000000, 0.0000000000000000000 ) ) ;
#298 = CIRCLE ( 'NONE', #126, 0.1250000000000000000 ) ;
#299 = DIRECTION ( 'NONE',  ( -1.000000000000000000, 0.0000000000000000000, 0.0000000000000000000 ) ) ;
#300 = DIRECTION ( 'NONE',  ( 0.0000000000000000000, 0.0000000000000000000, 1.000000000000000000 ) ) ;
#301 = CARTESIAN_POINT ( 'NONE',  ( -0.1250000000000000000, 1.530808498934191509E-17, 1.199999999999999956 ) ) ;
#302 = CYLINDRICAL_SURFACE ( 'NONE', #337, 0.1250000000000000000 ) ;
#303 = PLANE ( 'NONE',  #236 ) ;
#304 = AXIS2_PLACEMENT_3D ( 'NONE', #12, #4, #66 ) ;
#305 = CARTESIAN_POINT ( 'NONE',  ( -0.09999999999999996392, 1.377727649040772081E-17, 0.5000000000000000000 ) ) ;
#306 = DIRECTION ( 'NONE',  ( -0.0000000000000000000, -0.0000000000000000000, -1.000000000000000000 ) ) ;
#307 = DIRECTION ( 'NONE',  ( 1.000000000000000000, 0.0000000000000000000, 0.0000000000000000000 ) ) ;
#308 = CARTESIAN_POINT ( 'NONE',  ( -0.1374999999999998168, 1.683889348827608472E-17, 1.549999999999994049 ) ) ;
#309 = AXIS2_PLACEMENT_3D ( 'NONE', #137, #220, #258 ) ;
#310 = ORIENTED_EDGE ( 'NONE', *, *, #271, .T. ) ;
#311 = EDGE_CURVE ( 'NONE', #212, #238, #140, .T. ) ;
#312 = VERTEX_POINT ( 'NONE', #59 ) ;
#313 = ORIENTED_EDGE ( 'NONE', *, *, #100, .F. ) ;
#314 =( GEOMETRIC_REPRESENTATION_CONTEXT ( 3 ) GLOBAL_UNCERTAINTY_ASSIGNED_CONTEXT ( ( #288 ) ) GLOBAL_UNIT_ASSIGNED_CONTEXT ( ( #162, #244, #3 ) ) REPRESENTATION_CONTEXT ( 'NONE', 'WORKASPACE' ) );
#315 = PRODUCT_CONTEXT ( 'NONE', #335, 'mechanical' ) ;
#316 = VERTEX_POINT ( 'NONE', #246 ) ;
#317 = DIRECTION ( 'NONE',  ( 1.000000000000000000, 0.0000000000000000000, 0.0000000000000000000 ) ) ;
#318 = LENGTH_MEASURE_WITH_UNIT ( LENGTH_MEASURE( 0.02539999999999999897 ), #251 );
#319 = DIRECTION ( 'NONE',  ( -0.0000000000000000000, -0.0000000000000000000, -1.000000000000000000 ) ) ;
#320 = PRODUCT_DEFINITION_SHAPE ( 'NONE', 'NONE',  #189 ) ;
#321 = CIRCLE ( 'NONE', #51, 0.09999999999999997780 ) ;
#322 = DIRECTION ( 'NONE',  ( -0.0000000000000000000, -0.0000000000000000000, -1.000000000000000000 ) ) ;
#323 = DIRECTION ( 'NONE',  ( 1.000000000000000000, 0.0000000000000000000, 0.0000000000000000000 ) ) ;
#324 = FACE_OUTER_BOUND ( 'NONE', #295, .T. ) ;
#325 = CARTESIAN_POINT ( 'NONE',  ( 0.1100000000000004446, 1.347111479062094019E-17, 3.000000000000000444 ) ) ;
#326 = DIRECTION ( 'NONE',  ( 0.0000000000000000000, 1.000000000000000000, 0.0000000000000000000 ) ) ;
#327 = CARTESIAN_POINT ( 'NONE',  ( 0.0000000000000000000, 0.09999999999999999167, 0.1999999999999999833 ) ) ;
#328 =( LENGTH_UNIT ( ) NAMED_UNIT ( * ) SI_UNIT ( $, .METRE. ) );
#329 = DIRECTION ( 'NONE',  ( 0.0000000000000000000, 0.0000000000000000000, -1.000000000000000000 ) ) ;
#330 = FACE_OUTER_BOUND ( 'NONE', #241, .T. ) ;
#331 = AXIS2_PLACEMENT_3D ( 'NONE', #281, #329, #299 ) ;
#332 = CIRCLE ( 'NONE', #304, 0.1249999999999999861 ) ;
#333 = EDGE_CURVE ( 'NONE', #264, #345, #332, .T. ) ;
#334 = DIRECTION ( 'NONE',  ( -0.0000000000000000000, -0.0000000000000000000, -1.000000000000000000 ) ) ;
#335 = APPLICATION_CONTEXT ( 'automotive_design' ) ;
#336 = EDGE_CURVE ( 'NONE', #270, #104, #191, .T. ) ;
#337 = AXIS2_PLACEMENT_3D ( 'NONE', #11, #114, #219 ) ;
#338 = MECHANICAL_DESIGN_GEOMETRIC_PRESENTATION_REPRESENTATION (  '', ( #106 ), #65 ) ;
#339 = ORIENTED_EDGE ( 'NONE', *, *, #71, .T. ) ;
#340 = ORIENTED_EDGE ( 'NONE', *, *, #263, .F. ) ;
#341 = ORIENTED_EDGE ( 'NONE', *, *, #296, .T. ) ;
#342 = ORIENTED_EDGE ( 'NONE', *, *, #209, .F. ) ;
#343 = AXIS2_PLACEMENT_3D ( 'NONE', #218, #317, #326 ) ;
#344 = CIRCLE ( 'NONE', #272, 0.1250000000000000000 ) ;
#345 = VERTEX_POINT ( 'NONE', #167 ) ;
ENDSEC;
END-ISO-10303-21;
