ISO-10303-21;
HEADER;
FILE_DESCRIPTION (( 'STEP AP214' ),
    '1' );
FILE_NAME ('59662.STEP',
    '2023-07-24T15:52:08',
    ( '' ),
    ( '' ),
    'SwSTEP 2.0',
    'SolidWorks 2023',
    '' );
FILE_SCHEMA (( 'AUTOMOTIVE_DESIGN' ));
ENDSEC;

DATA;
#1 = DIRECTION ( 'NONE',  ( 0.000000000000000000, 0.000000000000000000, -1.000000000000000000 ) ) ;
#2 = CARTESIAN_POINT ( 'NONE',  ( 0.000000000000000000, 32.00000000000000000, -8.000000000000000000 ) ) ;
#3 = FACE_OUTER_BOUND ( 'NONE', #83, .T. ) ;
#4 = DIRECTION ( 'NONE',  ( -3.007904418958410489E-17, 1.000000000000000000, -0.000000000000000000 ) ) ;
#5 = DIRECTION ( 'NONE',  ( 0.000000000000000000, 0.000000000000000000, -1.000000000000000000 ) ) ;
#6 = AXIS2_PLACEMENT_3D ( 'NONE', #111, #155, #46 ) ;
#7 = PRODUCT_DEFINITION_CONTEXT ( 'detailed design', #35, 'design' ) ;
#8 = ORIENTED_EDGE ( 'NONE', *, *, #190, .T. ) ;
#9 =( LENGTH_UNIT ( ) NAMED_UNIT ( * ) SI_UNIT ( .MILLI., .METRE. ) );
#10 =( GEOMETRIC_REPRESENTATION_CONTEXT ( 3 ) GLOBAL_UNCERTAINTY_ASSIGNED_CONTEXT ( ( #212 ) ) GLOBAL_UNIT_ASSIGNED_CONTEXT ( ( #47, #141, #108 ) ) REPRESENTATION_CONTEXT ( 'NONE', 'WORKASPACE' ) );
#11 = COLOUR_RGB ( '',1.000000000000000000, 0.000000000000000000, 0.000000000000000000 ) ;
#12 = DIRECTION ( 'NONE',  ( -1.000000000000000000, 0.000000000000000000, 0.000000000000000000 ) ) ;
#13 = DIRECTION ( 'NONE',  ( -0.000000000000000000, -1.000000000000000000, -0.000000000000000000 ) ) ;
#14 = ORIENTED_EDGE ( 'NONE', *, *, #88, .T. ) ;
#15 = PRESENTATION_STYLE_ASSIGNMENT (( #216 ) ) ;
#16 = VECTOR ( 'NONE', #49, 1000.000000000000000 ) ;
#17 = CYLINDRICAL_SURFACE ( 'NONE', #139, 8.000000000000000000 ) ;
#18 = ORIENTED_EDGE ( 'NONE', *, *, #246, .T. ) ;
#19 =( LENGTH_UNIT ( ) NAMED_UNIT ( * ) SI_UNIT ( .MILLI., .METRE. ) );
#20 = ORIENTED_EDGE ( 'NONE', *, *, #193, .F. ) ;
#21 = SURFACE_STYLE_USAGE ( .BOTH. , #182 ) ;
#22 = SURFACE_STYLE_FILL_AREA ( #228 ) ;
#23 = COLOUR_RGB ( '',0.7921568627450980005, 0.8196078431372548767, 0.9333333333333333481 ) ;
#24 =( NAMED_UNIT ( * ) PLANE_ANGLE_UNIT ( ) SI_UNIT ( $, .RADIAN. ) );
#25 = DIRECTION ( 'NONE',  ( -3.007904418958410489E-17, 1.000000000000000000, -0.000000000000000000 ) ) ;
#26 = DIRECTION ( 'NONE',  ( 1.000000000000000000, 0.000000000000000000, 0.000000000000000000 ) ) ;
#27 = DIRECTION ( 'NONE',  ( 1.000000000000000000, 3.007904418958410489E-17, 0.000000000000000000 ) ) ;
#28 = DIRECTION ( 'NONE',  ( -1.000000000000000000, 0.000000000000000000, 0.000000000000000000 ) ) ;
#29 = PRODUCT_RELATED_PRODUCT_CATEGORY ( 'part', '', ( #255 ) ) ;
#30 = CARTESIAN_POINT ( 'NONE',  ( 0.000000000000000000, 0.000000000000000000, 0.000000000000000000 ) ) ;
#31 =( GEOMETRIC_REPRESENTATION_CONTEXT ( 3 ) GLOBAL_UNCERTAINTY_ASSIGNED_CONTEXT ( ( #209 ) ) GLOBAL_UNIT_ASSIGNED_CONTEXT ( ( #248, #241, #178 ) ) REPRESENTATION_CONTEXT ( 'NONE', 'WORKASPACE' ) );
#32 = MECHANICAL_DESIGN_GEOMETRIC_PRESENTATION_REPRESENTATION (  '', ( #195 ), #74 ) ;
#33 = ORIENTED_EDGE ( 'NONE', *, *, #174, .F. ) ;
#34 = ORIENTED_EDGE ( 'NONE', *, *, #170, .F. ) ;
#35 = APPLICATION_CONTEXT ( 'automotive_design' ) ;
#36 = COLOUR_RGB ( '',1.000000000000000000, 0.000000000000000000, 0.000000000000000000 ) ;
#37 = ADVANCED_FACE ( 'NONE', ( #210 ), #250, .F. ) ;
#38 = SURFACE_STYLE_FILL_AREA ( #105 ) ;
#39 = EDGE_CURVE ( 'NONE', #58, #65, #57, .T. ) ;
#40 =( GEOMETRIC_REPRESENTATION_CONTEXT ( 3 ) GLOBAL_UNCERTAINTY_ASSIGNED_CONTEXT ( ( #236 ) ) GLOBAL_UNIT_ASSIGNED_CONTEXT ( ( #19, #272, #203 ) ) REPRESENTATION_CONTEXT ( 'NONE', 'WORKASPACE' ) );
#41 = ORIENTED_EDGE ( 'NONE', *, *, #275, .T. ) ;
#42 = MECHANICAL_DESIGN_GEOMETRIC_PRESENTATION_REPRESENTATION (  '', ( #144 ), #98 ) ;
#43 = ORIENTED_EDGE ( 'NONE', *, *, #129, .T. ) ;
#44 = ORIENTED_EDGE ( 'NONE', *, *, #145, .F. ) ;
#45 = MECHANICAL_DESIGN_GEOMETRIC_PRESENTATION_REPRESENTATION (  '', ( #200 ), #31 ) ;
#46 = DIRECTION ( 'NONE',  ( 0.000000000000000000, 0.000000000000000000, -1.000000000000000000 ) ) ;
#47 =( LENGTH_UNIT ( ) NAMED_UNIT ( * ) SI_UNIT ( .MILLI., .METRE. ) );
#48 = CARTESIAN_POINT ( 'NONE',  ( -8.000000000000001776, 89.00000000000000000, 0.000000000000000000 ) ) ;
#49 = DIRECTION ( 'NONE',  ( -3.007904418958410489E-17, 1.000000000000000000, -0.000000000000000000 ) ) ;
#50 = DIRECTION ( 'NONE',  ( -0.000000000000000000, -1.000000000000000000, -0.000000000000000000 ) ) ;
#51 = CIRCLE ( 'NONE', #6, 8.000000000000000000 ) ;
#52 = APPLICATION_PROTOCOL_DEFINITION ( 'draft international standard', 'automotive_design', 1998, #276 ) ;
#53 = CARTESIAN_POINT ( 'NONE',  ( 9.797174393178825657E-16, 32.00000000000000000, 8.000000000000000000 ) ) ;
#54 = PRESENTATION_STYLE_ASSIGNMENT (( #56 ) ) ;
#55 = DIRECTION ( 'NONE',  ( 0.000000000000000000, -1.000000000000000000, -0.000000000000000000 ) ) ;
#56 = SURFACE_STYLE_USAGE ( .BOTH. , #158 ) ;
#57 = CIRCLE ( 'NONE', #104, 8.000000000000000000 ) ;
#58 = VERTEX_POINT ( 'NONE', #110 ) ;
#59 = EDGE_CURVE ( 'NONE', #65, #58, #161, .T. ) ;
#60 = ORIENTED_EDGE ( 'NONE', *, *, #39, .T. ) ;
#61 = AXIS2_PLACEMENT_3D ( 'NONE', #142, #232, #1 ) ;
#62 = COLOUR_RGB ( '',1.000000000000000000, 0.000000000000000000, 0.000000000000000000 ) ;
#63 = DIRECTION ( 'NONE',  ( -3.007904418958410489E-17, 1.000000000000000000, -0.000000000000000000 ) ) ;
#64 = FACE_OUTER_BOUND ( 'NONE', #244, .T. ) ;
#65 = VERTEX_POINT ( 'NONE', #95 ) ;
#66 =( NAMED_UNIT ( * ) SI_UNIT ( $, .STERADIAN. ) SOLID_ANGLE_UNIT ( ) );
#67 = AXIS2_PLACEMENT_3D ( 'NONE', #30, #159, #251 ) ;
#68 = AXIS2_PLACEMENT_3D ( 'NONE', #204, #229, #26 ) ;
#69 = ORIENTED_EDGE ( 'NONE', *, *, #88, .F. ) ;
#70 = DIRECTION ( 'NONE',  ( -3.007904418958410489E-17, 1.000000000000000000, -0.000000000000000000 ) ) ;
#71 = CYLINDRICAL_SURFACE ( 'NONE', #61, 8.000000000000000000 ) ;
#72 = SURFACE_SIDE_STYLE ('',( #134 ) ) ;
#73 = COLOUR_RGB ( '',1.000000000000000000, 0.000000000000000000, 0.000000000000000000 ) ;
#74 =( GEOMETRIC_REPRESENTATION_CONTEXT ( 3 ) GLOBAL_UNCERTAINTY_ASSIGNED_CONTEXT ( ( #162 ) ) GLOBAL_UNIT_ASSIGNED_CONTEXT ( ( #9, #278, #219 ) ) REPRESENTATION_CONTEXT ( 'NONE', 'WORKASPACE' ) );
#75 = DIRECTION ( 'NONE',  ( -1.000000000000000000, -3.007904418958410489E-17, 0.000000000000000000 ) ) ;
#76 = DIRECTION ( 'NONE',  ( -1.000000000000000000, 0.000000000000000000, 0.000000000000000000 ) ) ;
#77 = FACE_OUTER_BOUND ( 'NONE', #125, .T. ) ;
#78 = ADVANCED_FACE ( 'NONE', ( #77 ), #180, .T. ) ;
#79 = AXIS2_PLACEMENT_3D ( 'NONE', #116, #55, #5 ) ;
#80 = UNCERTAINTY_MEASURE_WITH_UNIT (LENGTH_MEASURE( 1.000000000000000082E-05 ), #218, 'distance_accuracy_value', 'NONE');
#81 = ORIENTED_EDGE ( 'NONE', *, *, #193, .T. ) ;
#82 = FILL_AREA_STYLE_COLOUR ( '', #23 ) ;
#83 = EDGE_LOOP ( 'NONE', ( #34, #8, #43, #234 ) ) ;
#84 = VERTEX_POINT ( 'NONE', #137 ) ;
#85 = STYLED_ITEM ( 'NONE', ( #223 ), #151 ) ;
#86 = ORIENTED_EDGE ( 'NONE', *, *, #260, .F. ) ;
#87 = PLANE ( 'NONE',  #79 ) ;
#88 = EDGE_CURVE ( 'NONE', #58, #84, #115, .T. ) ;
#89 = DIRECTION ( 'NONE',  ( -0.000000000000000000, -1.000000000000000000, -0.000000000000000000 ) ) ;
#90 = FILL_AREA_STYLE_COLOUR ( '', #36 ) ;
#91 = CARTESIAN_POINT ( 'NONE',  ( 8.000000000000000000, 89.00000000000000000, 0.000000000000000000 ) ) ;
#92 = CARTESIAN_POINT ( 'NONE',  ( 9.797174393178825657E-16, 0.000000000000000000, 8.000000000000000000 ) ) ;
#93 = DIRECTION ( 'NONE',  ( 3.007904418958410489E-17, -1.000000000000000000, 0.000000000000000000 ) ) ;
#94 = FACE_OUTER_BOUND ( 'NONE', #176, .T. ) ;
#95 = CARTESIAN_POINT ( 'NONE',  ( -8.000000000000000000, 32.00000000000000000, 0.000000000000000000 ) ) ;
#96 = FACE_OUTER_BOUND ( 'NONE', #164, .T. ) ;
#97 = ADVANCED_BREP_SHAPE_REPRESENTATION ( '59662', ( #151, #252, #68 ), #235 ) ;
#98 =( GEOMETRIC_REPRESENTATION_CONTEXT ( 3 ) GLOBAL_UNCERTAINTY_ASSIGNED_CONTEXT ( ( #183 ) ) GLOBAL_UNIT_ASSIGNED_CONTEXT ( ( #264, #24, #66 ) ) REPRESENTATION_CONTEXT ( 'NONE', 'WORKASPACE' ) );
#99 =( GEOMETRIC_REPRESENTATION_CONTEXT ( 3 ) GLOBAL_UNCERTAINTY_ASSIGNED_CONTEXT ( ( #80 ) ) GLOBAL_UNIT_ASSIGNED_CONTEXT ( ( #218, #191, #258 ) ) REPRESENTATION_CONTEXT ( 'NONE', 'WORKASPACE' ) );
#100 = STYLED_ITEM ( 'NONE', ( #240 ), #252 ) ;
#101 = CARTESIAN_POINT ( 'NONE',  ( 0.000000000000000000, 32.00000000000000000, 0.000000000000000000 ) ) ;
#102 = DIRECTION ( 'NONE',  ( 0.000000000000000000, 1.000000000000000000, 0.000000000000000000 ) ) ;
#103 = ADVANCED_FACE ( 'NONE', ( #207 ), #267, .F. ) ;
#104 = AXIS2_PLACEMENT_3D ( 'NONE', #187, #4, #28 ) ;
#105 = FILL_AREA_STYLE ('',( #277 ) ) ;
#106 = PRESENTATION_STYLE_ASSIGNMENT (( #286 ) ) ;
#107 = ORIENTED_EDGE ( 'NONE', *, *, #59, .F. ) ;
#108 =( NAMED_UNIT ( * ) SI_UNIT ( $, .STERADIAN. ) SOLID_ANGLE_UNIT ( ) );
#109 = AXIS2_PLACEMENT_3D ( 'NONE', #91, #93, #27 ) ;
#110 = CARTESIAN_POINT ( 'NONE',  ( 8.000000000000000000, 32.00000000000000000, 9.797174393178825657E-16 ) ) ;
#111 = CARTESIAN_POINT ( 'NONE',  ( 0.000000000000000000, 0.000000000000000000, 0.000000000000000000 ) ) ;
#112 = SHAPE_DEFINITION_REPRESENTATION ( #198, #97 ) ;
#113 = CARTESIAN_POINT ( 'NONE',  ( 7.999999999999998224, 89.00000000000000000, 9.797174393178825657E-16 ) ) ;
#114 = LINE ( 'NONE', #243, #130 ) ;
#115 = LINE ( 'NONE', #113, #16 ) ;
#116 = CARTESIAN_POINT ( 'NONE',  ( 0.000000000000000000, 0.000000000000000000, 0.000000000000000000 ) ) ;
#117 = CARTESIAN_POINT ( 'NONE',  ( 0.000000000000000000, 0.000000000000000000, -8.000000000000000000 ) ) ;
#118 = PRODUCT_DEFINITION ( 'UNKNOWN', '', #189, #7 ) ;
#119 = ORIENTED_EDGE ( 'NONE', *, *, #170, .T. ) ;
#120 = ADVANCED_FACE ( 'NONE', ( #3 ), #71, .T. ) ;
#121 = ORIENTED_EDGE ( 'NONE', *, *, #174, .T. ) ;
#122 = CIRCLE ( 'NONE', #185, 8.000000000000001776 ) ;
#123 = SURFACE_STYLE_FILL_AREA ( #262 ) ;
#124 = COLOUR_RGB ( '',0.7921568627450980005, 0.8196078431372548767, 0.9333333333333333481 ) ;
#125 = EDGE_LOOP ( 'NONE', ( #69, #60, #81, #86 ) ) ;
#126 = PLANE ( 'NONE',  #173 ) ;
#127 = VERTEX_POINT ( 'NONE', #117 ) ;
#128 = DIRECTION ( 'NONE',  ( 0.000000000000000000, -0.000000000000000000, 1.000000000000000000 ) ) ;
#129 = EDGE_CURVE ( 'NONE', #160, #127, #202, .T. ) ;
#130 = VECTOR ( 'NONE', #50, 1000.000000000000000 ) ;
#131 = AXIS2_PLACEMENT_3D ( 'NONE', #101, #13, #169 ) ;
#132 = APPLICATION_PROTOCOL_DEFINITION ( 'draft international standard', 'automotive_design', 1998, #35 ) ;
#133 = EDGE_LOOP ( 'NONE', ( #107, #213 ) ) ;
#134 = SURFACE_STYLE_FILL_AREA ( #199 ) ;
#135 = FILL_AREA_STYLE ('',( #205 ) ) ;
#136 = FILL_AREA_STYLE_COLOUR ( '', #124 ) ;
#137 = CARTESIAN_POINT ( 'NONE',  ( 8.000000000000000000, 89.00000000000000000, 9.797174393178825657E-16 ) ) ;
#138 = CIRCLE ( 'NONE', #221, 8.000000000000001776 ) ;
#139 = AXIS2_PLACEMENT_3D ( 'NONE', #224, #288, #177 ) ;
#140 = PRODUCT_CONTEXT ( 'NONE', #276, 'mechanical' ) ;
#141 =( NAMED_UNIT ( * ) PLANE_ANGLE_UNIT ( ) SI_UNIT ( $, .RADIAN. ) );
#142 = CARTESIAN_POINT ( 'NONE',  ( 0.000000000000000000, 0.000000000000000000, 0.000000000000000000 ) ) ;
#143 = AXIS2_PLACEMENT_3D ( 'NONE', #184, #70, #153 ) ;
#144 = STYLED_ITEM ( 'NONE', ( #268 ), #283 ) ;
#145 = EDGE_CURVE ( 'NONE', #146, #84, #138, .T. ) ;
#146 = VERTEX_POINT ( 'NONE', #247 ) ;
#147 = VERTEX_POINT ( 'NONE', #53 ) ;
#148 = CIRCLE ( 'NONE', #67, 8.000000000000000000 ) ;
#149 = ORIENTED_EDGE ( 'NONE', *, *, #190, .F. ) ;
#150 = SURFACE_SIDE_STYLE ('',( #259 ) ) ;
#151 = MANIFOLD_SOLID_BREP ( 'Revolve - Cutting Edge', #179 ) ;
#152 = DIRECTION ( 'NONE',  ( -3.007904418958410489E-17, 1.000000000000000000, -0.000000000000000000 ) ) ;
#153 = DIRECTION ( 'NONE',  ( -1.000000000000000000, 0.000000000000000000, 0.000000000000000000 ) ) ;
#154 = CARTESIAN_POINT ( 'NONE',  ( -1.714505518806293849E-15, 89.00000000000000000, 0.000000000000000000 ) ) ;
#155 = DIRECTION ( 'NONE',  ( -0.000000000000000000, -1.000000000000000000, -0.000000000000000000 ) ) ;
#156 = SURFACE_STYLE_USAGE ( .BOTH. , #225 ) ;
#157 = DIRECTION ( 'NONE',  ( -1.000000000000000000, 0.000000000000000000, 0.000000000000000000 ) ) ;
#158 = SURFACE_SIDE_STYLE ('',( #242 ) ) ;
#159 = DIRECTION ( 'NONE',  ( -0.000000000000000000, -1.000000000000000000, -0.000000000000000000 ) ) ;
#160 = VERTEX_POINT ( 'NONE', #2 ) ;
#161 = CIRCLE ( 'NONE', #172, 8.000000000000000000 ) ;
#162 = UNCERTAINTY_MEASURE_WITH_UNIT (LENGTH_MEASURE( 1.000000000000000082E-05 ), #9, 'distance_accuracy_value', 'NONE');
#163 = ORIENTED_EDGE ( 'NONE', *, *, #129, .F. ) ;
#164 = EDGE_LOOP ( 'NONE', ( #256, #14, #44, #20 ) ) ;
#165 = VECTOR ( 'NONE', #152, 1000.000000000000000 ) ;
#166 = SURFACE_SIDE_STYLE ('',( #123 ) ) ;
#167 = EDGE_LOOP ( 'NONE', ( #41, #119, #33, #163 ) ) ;
#168 = ORIENTED_EDGE ( 'NONE', *, *, #260, .T. ) ;
#169 = DIRECTION ( 'NONE',  ( 0.000000000000000000, 0.000000000000000000, -1.000000000000000000 ) ) ;
#170 = EDGE_CURVE ( 'NONE', #147, #196, #114, .T. ) ;
#171 = SURFACE_STYLE_USAGE ( .BOTH. , #166 ) ;
#172 = AXIS2_PLACEMENT_3D ( 'NONE', #181, #271, #253 ) ;
#173 = AXIS2_PLACEMENT_3D ( 'NONE', #263, #102, #128 ) ;
#174 = EDGE_CURVE ( 'NONE', #127, #196, #51, .T. ) ;
#175 = FILL_AREA_STYLE ('',( #279 ) ) ;
#176 = EDGE_LOOP ( 'NONE', ( #121, #18 ) ) ;
#177 = DIRECTION ( 'NONE',  ( 0.000000000000000000, 0.000000000000000000, -1.000000000000000000 ) ) ;
#178 =( NAMED_UNIT ( * ) SI_UNIT ( $, .STERADIAN. ) SOLID_ANGLE_UNIT ( ) );
#179 = CLOSED_SHELL ( 'NONE', ( #283, #280, #120, #215 ) ) ;
#180 = CYLINDRICAL_SURFACE ( 'NONE', #143, 8.000000000000000000 ) ;
#181 = CARTESIAN_POINT ( 'NONE',  ( 0.000000000000000000, 32.00000000000000000, 0.000000000000000000 ) ) ;
#182 = SURFACE_SIDE_STYLE ('',( #22 ) ) ;
#183 = UNCERTAINTY_MEASURE_WITH_UNIT (LENGTH_MEASURE( 1.000000000000000082E-05 ), #264, 'distance_accuracy_value', 'NONE');
#184 = CARTESIAN_POINT ( 'NONE',  ( -1.714505518806293849E-15, 89.00000000000000000, 0.000000000000000000 ) ) ;
#185 = AXIS2_PLACEMENT_3D ( 'NONE', #237, #63, #12 ) ;
#186 = DIRECTION ( 'NONE',  ( -3.007904418958410489E-17, 1.000000000000000000, -0.000000000000000000 ) ) ;
#187 = CARTESIAN_POINT ( 'NONE',  ( 0.000000000000000000, 32.00000000000000000, 0.000000000000000000 ) ) ;
#188 = MECHANICAL_DESIGN_GEOMETRIC_PRESENTATION_REPRESENTATION (  '', ( #100 ), #99 ) ;
#189 = PRODUCT_DEFINITION_FORMATION_WITH_SPECIFIED_SOURCE ( 'ANY', '', #255, .NOT_KNOWN. ) ;
#190 = EDGE_CURVE ( 'NONE', #147, #160, #265, .T. ) ;
#191 =( NAMED_UNIT ( * ) PLANE_ANGLE_UNIT ( ) SI_UNIT ( $, .RADIAN. ) );
#192 = UNCERTAINTY_MEASURE_WITH_UNIT (LENGTH_MEASURE( 1.000000000000000082E-05 ), #284, 'distance_accuracy_value', 'NONE');
#193 = EDGE_CURVE ( 'NONE', #65, #146, #245, .T. ) ;
#194 = PRESENTATION_LAYER_ASSIGNMENT (  '', '', ( #200 ) ) ;
#195 = STYLED_ITEM ( 'NONE', ( #15 ), #280 ) ;
#196 = VERTEX_POINT ( 'NONE', #92 ) ;
#197 = ORIENTED_EDGE ( 'NONE', *, *, #275, .F. ) ;
#198 = PRODUCT_DEFINITION_SHAPE ( 'NONE', 'NONE',  #118 ) ;
#199 = FILL_AREA_STYLE ('',( #90 ) ) ;
#200 = STYLED_ITEM ( 'NONE', ( #106 ), #215 ) ;
#201 = PRESENTATION_LAYER_ASSIGNMENT (  '', '', ( #195 ) ) ;
#202 = LINE ( 'NONE', #285, #211 ) ;
#203 =( NAMED_UNIT ( * ) SI_UNIT ( $, .STERADIAN. ) SOLID_ANGLE_UNIT ( ) );
#204 = CARTESIAN_POINT ( 'NONE',  ( 0.000000000000000000, 0.000000000000000000, 0.000000000000000000 ) ) ;
#205 = FILL_AREA_STYLE_COLOUR ( '', #73 ) ;
#206 =( NAMED_UNIT ( * ) PLANE_ANGLE_UNIT ( ) SI_UNIT ( $, .RADIAN. ) );
#207 = FACE_OUTER_BOUND ( 'NONE', #133, .T. ) ;
#208 = CARTESIAN_POINT ( 'NONE',  ( 0.000000000000000000, 32.00000000000000000, 0.000000000000000000 ) ) ;
#209 = UNCERTAINTY_MEASURE_WITH_UNIT (LENGTH_MEASURE( 1.000000000000000082E-05 ), #248, 'distance_accuracy_value', 'NONE');
#210 = FACE_OUTER_BOUND ( 'NONE', #282, .T. ) ;
#211 = VECTOR ( 'NONE', #269, 1000.000000000000000 ) ;
#212 = UNCERTAINTY_MEASURE_WITH_UNIT (LENGTH_MEASURE( 1.000000000000000082E-05 ), #47, 'distance_accuracy_value', 'NONE');
#213 = ORIENTED_EDGE ( 'NONE', *, *, #39, .F. ) ;
#214 = AXIS2_PLACEMENT_3D ( 'NONE', #208, #89, #270 ) ;
#215 = ADVANCED_FACE ( 'NONE', ( #94 ), #87, .T. ) ;
#216 = SURFACE_STYLE_USAGE ( .BOTH. , #150 ) ;
#217 = MECHANICAL_DESIGN_GEOMETRIC_PRESENTATION_REPRESENTATION (  '', ( #85 ), #40 ) ;
#218 =( LENGTH_UNIT ( ) NAMED_UNIT ( * ) SI_UNIT ( .MILLI., .METRE. ) );
#219 =( NAMED_UNIT ( * ) SI_UNIT ( $, .STERADIAN. ) SOLID_ANGLE_UNIT ( ) );
#220 = FACE_OUTER_BOUND ( 'NONE', #167, .T. ) ;
#221 = AXIS2_PLACEMENT_3D ( 'NONE', #154, #25, #157 ) ;
#222 = ADVANCED_FACE ( 'NONE', ( #96 ), #274, .T. ) ;
#223 = PRESENTATION_STYLE_ASSIGNMENT (( #21 ) ) ;
#224 = CARTESIAN_POINT ( 'NONE',  ( 0.000000000000000000, 0.000000000000000000, 0.000000000000000000 ) ) ;
#225 = SURFACE_SIDE_STYLE ('',( #38 ) ) ;
#226 = CLOSED_SHELL ( 'NONE', ( #222, #103, #78, #37 ) ) ;
#227 = CARTESIAN_POINT ( 'NONE',  ( 3.618995597435813748E-33, 32.00000000000000000, 0.000000000000000000 ) ) ;
#228 = FILL_AREA_STYLE ('',( #136 ) ) ;
#229 = DIRECTION ( 'NONE',  ( 0.000000000000000000, 0.000000000000000000, 1.000000000000000000 ) ) ;
#230 = ORIENTED_EDGE ( 'NONE', *, *, #145, .T. ) ;
#231 = CARTESIAN_POINT ( 'NONE',  ( -1.714505518806293849E-15, 89.00000000000000000, 0.000000000000000000 ) ) ;
#232 = DIRECTION ( 'NONE',  ( -0.000000000000000000, -1.000000000000000000, -0.000000000000000000 ) ) ;
#233 = PRESENTATION_LAYER_ASSIGNMENT (  '', '', ( #100 ) ) ;
#234 = ORIENTED_EDGE ( 'NONE', *, *, #246, .F. ) ;
#235 =( GEOMETRIC_REPRESENTATION_CONTEXT ( 3 ) GLOBAL_UNCERTAINTY_ASSIGNED_CONTEXT ( ( #192 ) ) GLOBAL_UNIT_ASSIGNED_CONTEXT ( ( #284, #206, #249 ) ) REPRESENTATION_CONTEXT ( 'NONE', 'WORKASPACE' ) );
#236 = UNCERTAINTY_MEASURE_WITH_UNIT (LENGTH_MEASURE( 1.000000000000000082E-05 ), #19, 'distance_accuracy_value', 'NONE');
#237 = CARTESIAN_POINT ( 'NONE',  ( -1.714505518806293849E-15, 89.00000000000000000, 0.000000000000000000 ) ) ;
#238 = AXIS2_PLACEMENT_3D ( 'NONE', #231, #186, #76 ) ;
#239 = PRESENTATION_LAYER_ASSIGNMENT (  '', '', ( #144 ) ) ;
#240 = PRESENTATION_STYLE_ASSIGNMENT (( #171 ) ) ;
#241 =( NAMED_UNIT ( * ) PLANE_ANGLE_UNIT ( ) SI_UNIT ( $, .RADIAN. ) );
#242 = SURFACE_STYLE_FILL_AREA ( #135 ) ;
#243 = CARTESIAN_POINT ( 'NONE',  ( 9.797174393178825657E-16, 0.000000000000000000, 8.000000000000000000 ) ) ;
#244 = EDGE_LOOP ( 'NONE', ( #197, #149 ) ) ;
#245 = LINE ( 'NONE', #48, #165 ) ;
#246 = EDGE_CURVE ( 'NONE', #196, #127, #148, .T. ) ;
#247 = CARTESIAN_POINT ( 'NONE',  ( -8.000000000000003553, 89.00000000000000000, 0.000000000000000000 ) ) ;
#248 =( LENGTH_UNIT ( ) NAMED_UNIT ( * ) SI_UNIT ( .MILLI., .METRE. ) );
#249 =( NAMED_UNIT ( * ) SI_UNIT ( $, .STERADIAN. ) SOLID_ANGLE_UNIT ( ) );
#250 = PLANE ( 'NONE',  #109 ) ;
#251 = DIRECTION ( 'NONE',  ( 0.000000000000000000, 0.000000000000000000, -1.000000000000000000 ) ) ;
#252 = MANIFOLD_SOLID_BREP ( 'Revolve - Tool Body (Straight Shanked)', #226 ) ;
#253 = DIRECTION ( 'NONE',  ( -1.000000000000000000, 0.000000000000000000, 0.000000000000000000 ) ) ;
#254 = MECHANICAL_DESIGN_GEOMETRIC_PRESENTATION_REPRESENTATION (  '', ( #281 ), #10 ) ;
#255 = PRODUCT ( '59662', '59662', '', ( #140 ) ) ;
#256 = ORIENTED_EDGE ( 'NONE', *, *, #59, .T. ) ;
#257 = PRESENTATION_LAYER_ASSIGNMENT (  '', '', ( #281 ) ) ;
#258 =( NAMED_UNIT ( * ) SI_UNIT ( $, .STERADIAN. ) SOLID_ANGLE_UNIT ( ) );
#259 = SURFACE_STYLE_FILL_AREA ( #175 ) ;
#260 = EDGE_CURVE ( 'NONE', #84, #146, #122, .T. ) ;
#261 = PRESENTATION_LAYER_ASSIGNMENT (  '', '', ( #85 ) ) ;
#262 = FILL_AREA_STYLE ('',( #82 ) ) ;
#263 = CARTESIAN_POINT ( 'NONE',  ( 0.000000000000000000, 32.00000000000000000, 0.000000000000000000 ) ) ;
#264 =( LENGTH_UNIT ( ) NAMED_UNIT ( * ) SI_UNIT ( .MILLI., .METRE. ) );
#265 = CIRCLE ( 'NONE', #214, 8.000000000000000000 ) ;
#266 = CIRCLE ( 'NONE', #131, 8.000000000000000000 ) ;
#267 = PLANE ( 'NONE',  #287 ) ;
#268 = PRESENTATION_STYLE_ASSIGNMENT (( #156 ) ) ;
#269 = DIRECTION ( 'NONE',  ( -0.000000000000000000, -1.000000000000000000, -0.000000000000000000 ) ) ;
#270 = DIRECTION ( 'NONE',  ( 0.000000000000000000, 0.000000000000000000, -1.000000000000000000 ) ) ;
#271 = DIRECTION ( 'NONE',  ( -3.007904418958410489E-17, 1.000000000000000000, -0.000000000000000000 ) ) ;
#272 =( NAMED_UNIT ( * ) PLANE_ANGLE_UNIT ( ) SI_UNIT ( $, .RADIAN. ) );
#273 = DIRECTION ( 'NONE',  ( -3.007904418958410489E-17, 1.000000000000000000, 0.000000000000000000 ) ) ;
#274 = CYLINDRICAL_SURFACE ( 'NONE', #238, 8.000000000000000000 ) ;
#275 = EDGE_CURVE ( 'NONE', #160, #147, #266, .T. ) ;
#276 = APPLICATION_CONTEXT ( 'automotive_design' ) ;
#277 = FILL_AREA_STYLE_COLOUR ( '', #62 ) ;
#278 =( NAMED_UNIT ( * ) PLANE_ANGLE_UNIT ( ) SI_UNIT ( $, .RADIAN. ) );
#279 = FILL_AREA_STYLE_COLOUR ( '', #11 ) ;
#280 = ADVANCED_FACE ( 'NONE', ( #64 ), #126, .T. ) ;
#281 = STYLED_ITEM ( 'NONE', ( #54 ), #120 ) ;
#282 = EDGE_LOOP ( 'NONE', ( #230, #168 ) ) ;
#283 = ADVANCED_FACE ( 'NONE', ( #220 ), #17, .T. ) ;
#284 =( LENGTH_UNIT ( ) NAMED_UNIT ( * ) SI_UNIT ( .MILLI., .METRE. ) );
#285 = CARTESIAN_POINT ( 'NONE',  ( 0.000000000000000000, 0.000000000000000000, -8.000000000000000000 ) ) ;
#286 = SURFACE_STYLE_USAGE ( .BOTH. , #72 ) ;
#287 = AXIS2_PLACEMENT_3D ( 'NONE', #227, #273, #75 ) ;
#288 = DIRECTION ( 'NONE',  ( -0.000000000000000000, -1.000000000000000000, -0.000000000000000000 ) ) ;
ENDSEC;
END-ISO-10303-21;
