ISO-10303-21;
HEADER;
FILE_DESCRIPTION (( 'STEP AP214' ),
    '1' );
FILE_NAME ('00677.STEP',
    '2023-06-22T14:14:10',
    ( '' ),
    ( '' ),
    'SwSTEP 2.0',
    'SolidWorks 2023',
    '' );
FILE_SCHEMA (( 'AUTOMOTIVE_DESIGN' ));
ENDSEC;

DATA;
#1 = SURFACE_STYLE_FILL_AREA ( #150 ) ;
#2 = CARTESIAN_POINT ( 'NONE',  ( 0.3749999999999999445, 5.000000000000000000, 4.592425496802576068E-17 ) ) ;
#3 = CYLINDRICAL_SURFACE ( 'NONE', #284, 0.3750000000000001110 ) ;
#4 = DIMENSIONAL_EXPONENTS ( 1.000000000000000000, 0.000000000000000000, 0.000000000000000000, 0.000000000000000000, 0.000000000000000000, 0.000000000000000000, 0.000000000000000000 ) ;
#5 = LENGTH_MEASURE_WITH_UNIT ( LENGTH_MEASURE( 0.02539999999999999897 ), #109 );
#6 = CARTESIAN_POINT ( 'NONE',  ( 0.000000000000000000, 0.000000000000000000, 0.000000000000000000 ) ) ;
#7 = DIRECTION ( 'NONE',  ( 0.000000000000000000, -1.000000000000000000, -0.000000000000000000 ) ) ;
#8 = CARTESIAN_POINT ( 'NONE',  ( -1.224646799147353207E-16, 5.000000000000000000, 0.000000000000000000 ) ) ;
#9 = LINE ( 'NONE', #2, #118 ) ;
#10 = DIRECTION ( 'NONE',  ( -4.453261087808557677E-17, 1.000000000000000000, 0.000000000000000000 ) ) ;
#11 = MECHANICAL_DESIGN_GEOMETRIC_PRESENTATION_REPRESENTATION (  '', ( #126 ), #52 ) ;
#12 = FILL_AREA_STYLE ('',( #191 ) ) ;
#13 = AXIS2_PLACEMENT_3D ( 'NONE', #132, #306, #308 ) ;
#14 =( NAMED_UNIT ( * ) PLANE_ANGLE_UNIT ( ) SI_UNIT ( $, .RADIAN. ) );
#15 = EDGE_CURVE ( 'NONE', #223, #64, #76, .T. ) ;
#16 = ORIENTED_EDGE ( 'NONE', *, *, #93, .F. ) ;
#17 = UNCERTAINTY_MEASURE_WITH_UNIT (LENGTH_MEASURE( 1.000000000000000082E-05 ), #73, 'distance_accuracy_value', 'NONE');
#18 = SURFACE_STYLE_FILL_AREA ( #12 ) ;
#19 = AXIS2_PLACEMENT_3D ( 'NONE', #129, #231, #149 ) ;
#20 = EDGE_LOOP ( 'NONE', ( #65, #63 ) ) ;
#21 = LINE ( 'NONE', #145, #292 ) ;
#22 = ADVANCED_FACE ( 'NONE', ( #42 ), #228, .T. ) ;
#23 = ORIENTED_EDGE ( 'NONE', *, *, #55, .F. ) ;
#24 = LENGTH_MEASURE_WITH_UNIT ( LENGTH_MEASURE( 0.02539999999999999897 ), #41 );
#25 = DIRECTION ( 'NONE',  ( -4.453261087808557677E-17, 1.000000000000000000, -0.000000000000000000 ) ) ;
#26 =( NAMED_UNIT ( * ) SI_UNIT ( $, .STERADIAN. ) SOLID_ANGLE_UNIT ( ) );
#27 = CIRCLE ( 'NONE', #19, 0.3750000000000000555 ) ;
#28 = SURFACE_STYLE_FILL_AREA ( #265 ) ;
#29 = LENGTH_MEASURE_WITH_UNIT ( LENGTH_MEASURE( 0.02539999999999999897 ), #240 );
#30 = PRESENTATION_STYLE_ASSIGNMENT (( #270 ) ) ;
#31 = MANIFOLD_SOLID_BREP ( 'Revolve - Tool Body (Straight Shanked)', #147 ) ;
#32 = CARTESIAN_POINT ( 'NONE',  ( -0.3750000000000000555, 2.250000000000000444, 0.000000000000000000 ) ) ;
#33 = LENGTH_MEASURE_WITH_UNIT ( LENGTH_MEASURE( 0.02539999999999999897 ), #215 );
#34 = ADVANCED_FACE ( 'NONE', ( #170 ), #305, .F. ) ;
#35 = CIRCLE ( 'NONE', #130, 0.3750000000000001665 ) ;
#36 = DIRECTION ( 'NONE',  ( -1.000000000000000000, 0.000000000000000000, 0.000000000000000000 ) ) ;
#37 = DIRECTION ( 'NONE',  ( 0.000000000000000000, 0.000000000000000000, -1.000000000000000000 ) ) ;
#38 = ORIENTED_EDGE ( 'NONE', *, *, #224, .F. ) ;
#39 = PRESENTATION_STYLE_ASSIGNMENT (( #121 ) ) ;
#40 = ORIENTED_EDGE ( 'NONE', *, *, #224, .T. ) ;
#41 =( LENGTH_UNIT ( ) NAMED_UNIT ( * ) SI_UNIT ( $, .METRE. ) );
#42 = FACE_OUTER_BOUND ( 'NONE', #125, .T. ) ;
#43 = PRODUCT_RELATED_PRODUCT_CATEGORY ( 'part', '', ( #88 ) ) ;
#44 = STYLED_ITEM ( 'NONE', ( #229 ), #31 ) ;
#45 = MECHANICAL_DESIGN_GEOMETRIC_PRESENTATION_REPRESENTATION (  '', ( #303 ), #203 ) ;
#46 = UNCERTAINTY_MEASURE_WITH_UNIT (LENGTH_MEASURE( 1.000000000000000082E-05 ), #239, 'distance_accuracy_value', 'NONE');
#47 =( NAMED_UNIT ( * ) SI_UNIT ( $, .STERADIAN. ) SOLID_ANGLE_UNIT ( ) );
#48 = APPLICATION_PROTOCOL_DEFINITION ( 'draft international standard', 'automotive_design', 1998, #249 ) ;
#49 = FILL_AREA_STYLE_COLOUR ( '', #181 ) ;
#50 = FACE_OUTER_BOUND ( 'NONE', #280, .T. ) ;
#51 = EDGE_CURVE ( 'NONE', #164, #144, #187, .T. ) ;
#52 =( GEOMETRIC_REPRESENTATION_CONTEXT ( 3 ) GLOBAL_UNCERTAINTY_ASSIGNED_CONTEXT ( ( #66 ) ) GLOBAL_UNIT_ASSIGNED_CONTEXT ( ( #197, #195, #297 ) ) REPRESENTATION_CONTEXT ( 'NONE', 'WORKASPACE' ) );
#53 = ORIENTED_EDGE ( 'NONE', *, *, #182, .F. ) ;
#54 = LINE ( 'NONE', #269, #247 ) ;
#55 = EDGE_CURVE ( 'NONE', #144, #164, #35, .T. ) ;
#56 = FILL_AREA_STYLE ('',( #107 ) ) ;
#57 = LENGTH_MEASURE_WITH_UNIT ( LENGTH_MEASURE( 0.02539999999999999897 ), #261 );
#58 = DIRECTION ( 'NONE',  ( -0.000000000000000000, -1.000000000000000000, -0.000000000000000000 ) ) ;
#59 = VECTOR ( 'NONE', #94, 39.37007874015748143 ) ;
#60 = UNCERTAINTY_MEASURE_WITH_UNIT (LENGTH_MEASURE( 1.000000000000000082E-05 ), #183, 'distance_accuracy_value', 'NONE');
#61 = ORIENTED_EDGE ( 'NONE', *, *, #138, .F. ) ;
#62 = PRESENTATION_LAYER_ASSIGNMENT (  '', '', ( #126 ) ) ;
#63 = ORIENTED_EDGE ( 'NONE', *, *, #51, .T. ) ;
#64 = VERTEX_POINT ( 'NONE', #193 ) ;
#65 = ORIENTED_EDGE ( 'NONE', *, *, #55, .T. ) ;
#66 = UNCERTAINTY_MEASURE_WITH_UNIT (LENGTH_MEASURE( 1.000000000000000082E-05 ), #197, 'distance_accuracy_value', 'NONE');
#67 = PRESENTATION_LAYER_ASSIGNMENT (  '', '', ( #44 ) ) ;
#68 = DIRECTION ( 'NONE',  ( 0.000000000000000000, 0.000000000000000000, -1.000000000000000000 ) ) ;
#69 = EDGE_LOOP ( 'NONE', ( #272, #218 ) ) ;
#70 = AXIS2_PLACEMENT_3D ( 'NONE', #85, #146, #251 ) ;
#71 = MECHANICAL_DESIGN_GEOMETRIC_PRESENTATION_REPRESENTATION (  '', ( #177 ), #77 ) ;
#72 = SURFACE_STYLE_FILL_AREA ( #155 ) ;
#73 =( CONVERSION_BASED_UNIT ( 'INCH', #33 ) LENGTH_UNIT ( ) NAMED_UNIT ( #74 ) );
#74 = DIMENSIONAL_EXPONENTS ( 1.000000000000000000, 0.000000000000000000, 0.000000000000000000, 0.000000000000000000, 0.000000000000000000, 0.000000000000000000, 0.000000000000000000 ) ;
#75 = DIRECTION ( 'NONE',  ( -1.000000000000000000, 0.000000000000000000, 0.000000000000000000 ) ) ;
#76 = CIRCLE ( 'NONE', #70, 0.3750000000000000555 ) ;
#77 =( GEOMETRIC_REPRESENTATION_CONTEXT ( 3 ) GLOBAL_UNCERTAINTY_ASSIGNED_CONTEXT ( ( #17 ) ) GLOBAL_UNIT_ASSIGNED_CONTEXT ( ( #73, #259, #112 ) ) REPRESENTATION_CONTEXT ( 'NONE', 'WORKASPACE' ) );
#78 = EDGE_CURVE ( 'NONE', #223, #180, #163, .T. ) ;
#79 = ORIENTED_EDGE ( 'NONE', *, *, #179, .T. ) ;
#80 = CARTESIAN_POINT ( 'NONE',  ( 1.516480271171051896E-32, 2.250000000000000444, 0.000000000000000000 ) ) ;
#81 = SURFACE_STYLE_FILL_AREA ( #98 ) ;
#82 = CARTESIAN_POINT ( 'NONE',  ( 0.000000000000000000, 0.000000000000000000, 0.000000000000000000 ) ) ;
#83 = VERTEX_POINT ( 'NONE', #275 ) ;
#84 = CARTESIAN_POINT ( 'NONE',  ( -0.3750000000000002776, 5.000000000000000000, 0.000000000000000000 ) ) ;
#85 = CARTESIAN_POINT ( 'NONE',  ( 0.000000000000000000, 2.250000000000000000, 0.000000000000000000 ) ) ;
#86 = CIRCLE ( 'NONE', #204, 0.3750000000000000555 ) ;
#87 = ORIENTED_EDGE ( 'NONE', *, *, #182, .T. ) ;
#88 = PRODUCT ( '00677', '00677', '', ( #110 ) ) ;
#89 = DIMENSIONAL_EXPONENTS ( 1.000000000000000000, 0.000000000000000000, 0.000000000000000000, 0.000000000000000000, 0.000000000000000000, 0.000000000000000000, 0.000000000000000000 ) ;
#90 = ORIENTED_EDGE ( 'NONE', *, *, #151, .F. ) ;
#91 = PRESENTATION_LAYER_ASSIGNMENT (  '', '', ( #221 ) ) ;
#92 = PLANE ( 'NONE',  #153 ) ;
#93 = EDGE_CURVE ( 'NONE', #64, #99, #54, .T. ) ;
#94 = DIRECTION ( 'NONE',  ( -0.000000000000000000, -1.000000000000000000, -0.000000000000000000 ) ) ;
#95 = AXIS2_PLACEMENT_3D ( 'NONE', #119, #111, #120 ) ;
#96 = SURFACE_STYLE_USAGE ( .BOTH. , #293 ) ;
#97 = AXIS2_PLACEMENT_3D ( 'NONE', #82, #225, #68 ) ;
#98 = FILL_AREA_STYLE ('',( #248 ) ) ;
#99 = VERTEX_POINT ( 'NONE', #271 ) ;
#100 = ADVANCED_FACE ( 'NONE', ( #117 ), #217, .T. ) ;
#101 = ORIENTED_EDGE ( 'NONE', *, *, #151, .T. ) ;
#102 = DIRECTION ( 'NONE',  ( -1.000000000000000000, 0.000000000000000000, 0.000000000000000000 ) ) ;
#103 = PRESENTATION_LAYER_ASSIGNMENT (  '', '', ( #177 ) ) ;
#104 = SHAPE_DEFINITION_REPRESENTATION ( #156, #113 ) ;
#105 =( LENGTH_UNIT ( ) NAMED_UNIT ( * ) SI_UNIT ( $, .METRE. ) );
#106 = LENGTH_MEASURE_WITH_UNIT ( LENGTH_MEASURE( 0.02539999999999999897 ), #256 );
#107 = FILL_AREA_STYLE_COLOUR ( '', #199 ) ;
#108 = PRESENTATION_LAYER_ASSIGNMENT (  '', '', ( #303 ) ) ;
#109 =( LENGTH_UNIT ( ) NAMED_UNIT ( * ) SI_UNIT ( $, .METRE. ) );
#110 = PRODUCT_CONTEXT ( 'NONE', #307, 'mechanical' ) ;
#111 = DIRECTION ( 'NONE',  ( -4.453261087808557677E-17, 1.000000000000000000, -0.000000000000000000 ) ) ;
#112 =( NAMED_UNIT ( * ) SI_UNIT ( $, .STERADIAN. ) SOLID_ANGLE_UNIT ( ) );
#113 = ADVANCED_BREP_SHAPE_REPRESENTATION ( '00677', ( #115, #31, #13 ), #304 ) ;
#114 =( CONVERSION_BASED_UNIT ( 'INCH', #5 ) LENGTH_UNIT ( ) NAMED_UNIT ( #213 ) );
#115 = MANIFOLD_SOLID_BREP ( 'Revolve - Cutting Edge', #198 ) ;
#116 = PLANE ( 'NONE',  #266 ) ;
#117 = FACE_OUTER_BOUND ( 'NONE', #124, .T. ) ;
#118 = VECTOR ( 'NONE', #237, 39.37007874015748143 ) ;
#119 = CARTESIAN_POINT ( 'NONE',  ( -1.224646799147353207E-16, 5.000000000000000000, 0.000000000000000000 ) ) ;
#120 = DIRECTION ( 'NONE',  ( -1.000000000000000000, 0.000000000000000000, 0.000000000000000000 ) ) ;
#121 = SURFACE_STYLE_USAGE ( .BOTH. , #196 ) ;
#122 = MECHANICAL_DESIGN_GEOMETRIC_PRESENTATION_REPRESENTATION (  '', ( #221 ), #192 ) ;
#123 = DIRECTION ( 'NONE',  ( -4.453261087808557677E-17, 1.000000000000000000, -0.000000000000000000 ) ) ;
#124 = EDGE_LOOP ( 'NONE', ( #101, #40 ) ) ;
#125 = EDGE_LOOP ( 'NONE', ( #79, #87, #23, #61 ) ) ;
#126 = STYLED_ITEM ( 'NONE', ( #295 ), #100 ) ;
#127 = PRODUCT_DEFINITION_FORMATION_WITH_SPECIFIED_SOURCE ( 'ANY', '', #88, .NOT_KNOWN. ) ;
#128 =( CONVERSION_BASED_UNIT ( 'INCH', #186 ) LENGTH_UNIT ( ) NAMED_UNIT ( #89 ) );
#129 = CARTESIAN_POINT ( 'NONE',  ( 0.000000000000000000, 0.000000000000000000, 0.000000000000000000 ) ) ;
#130 = AXIS2_PLACEMENT_3D ( 'NONE', #8, #141, #274 ) ;
#131 = SURFACE_SIDE_STYLE ('',( #72 ) ) ;
#132 = CARTESIAN_POINT ( 'NONE',  ( 0.000000000000000000, 0.000000000000000000, 0.000000000000000000 ) ) ;
#133 = DIRECTION ( 'NONE',  ( 0.000000000000000000, 0.000000000000000000, -1.000000000000000000 ) ) ;
#134 = AXIS2_PLACEMENT_3D ( 'NONE', #80, #171, #300 ) ;
#135 = COLOUR_RGB ( '',0.7921568627450980005, 0.8196078431372548767, 0.9333333333333333481 ) ;
#136 = FACE_OUTER_BOUND ( 'NONE', #302, .T. ) ;
#137 = SURFACE_STYLE_USAGE ( .BOTH. , #160 ) ;
#138 = EDGE_CURVE ( 'NONE', #250, #144, #21, .T. ) ;
#139 = DIRECTION ( 'NONE',  ( -0.000000000000000000, -1.000000000000000000, -0.000000000000000000 ) ) ;
#140 = ORIENTED_EDGE ( 'NONE', *, *, #244, .T. ) ;
#141 = DIRECTION ( 'NONE',  ( -4.453261087808557677E-17, 1.000000000000000000, -0.000000000000000000 ) ) ;
#142 = DIRECTION ( 'NONE',  ( 0.000000000000000000, 0.000000000000000000, -1.000000000000000000 ) ) ;
#143 = PRESENTATION_LAYER_ASSIGNMENT (  '', '', ( #234 ) ) ;
#144 = VERTEX_POINT ( 'NONE', #84 ) ;
#145 = CARTESIAN_POINT ( 'NONE',  ( -0.3750000000000002220, 5.000000000000000000, 0.000000000000000000 ) ) ;
#146 = DIRECTION ( 'NONE',  ( -0.000000000000000000, -1.000000000000000000, -0.000000000000000000 ) ) ;
#147 = CLOSED_SHELL ( 'NONE', ( #22, #288, #211, #34 ) ) ;
#148 =( GEOMETRIC_REPRESENTATION_CONTEXT ( 3 ) GLOBAL_UNCERTAINTY_ASSIGNED_CONTEXT ( ( #60 ) ) GLOBAL_UNIT_ASSIGNED_CONTEXT ( ( #183, #252, #26 ) ) REPRESENTATION_CONTEXT ( 'NONE', 'WORKASPACE' ) );
#149 = DIRECTION ( 'NONE',  ( 0.000000000000000000, 0.000000000000000000, -1.000000000000000000 ) ) ;
#150 = FILL_AREA_STYLE ('',( #286 ) ) ;
#151 = EDGE_CURVE ( 'NONE', #180, #99, #161, .T. ) ;
#152 = CYLINDRICAL_SURFACE ( 'NONE', #301, 0.3750000000000000555 ) ;
#153 = AXIS2_PLACEMENT_3D ( 'NONE', #162, #262, #268 ) ;
#154 =( NAMED_UNIT ( * ) SI_UNIT ( $, .STERADIAN. ) SOLID_ANGLE_UNIT ( ) );
#155 = FILL_AREA_STYLE ('',( #49 ) ) ;
#156 = PRODUCT_DEFINITION_SHAPE ( 'NONE', 'NONE',  #285 ) ;
#157 = CARTESIAN_POINT ( 'NONE',  ( 3.718412684285598933E-34, 2.250000000000000000, 0.000000000000000000 ) ) ;
#158 = FACE_OUTER_BOUND ( 'NONE', #267, .T. ) ;
#159 = DIRECTION ( 'NONE',  ( -1.000000000000000000, -4.453261087808557677E-17, 0.000000000000000000 ) ) ;
#160 = SURFACE_SIDE_STYLE ('',( #28 ) ) ;
#161 = CIRCLE ( 'NONE', #255, 0.3750000000000000555 ) ;
#162 = CARTESIAN_POINT ( 'NONE',  ( 0.000000000000000000, 2.250000000000000000, 0.000000000000000000 ) ) ;
#163 = LINE ( 'NONE', #238, #59 ) ;
#164 = VERTEX_POINT ( 'NONE', #243 ) ;
#165 = DIRECTION ( 'NONE',  ( 4.453261087808557677E-17, -1.000000000000000000, 0.000000000000000000 ) ) ;
#166 = ORIENTED_EDGE ( 'NONE', *, *, #167, .T. ) ;
#167 = EDGE_CURVE ( 'NONE', #83, #250, #242, .T. ) ;
#168 = UNCERTAINTY_MEASURE_WITH_UNIT (LENGTH_MEASURE( 1.000000000000000082E-05 ), #128, 'distance_accuracy_value', 'NONE');
#169 = DIRECTION ( 'NONE',  ( -0.000000000000000000, -1.000000000000000000, -0.000000000000000000 ) ) ;
#170 = FACE_OUTER_BOUND ( 'NONE', #20, .T. ) ;
#171 = DIRECTION ( 'NONE',  ( -4.453261087808557677E-17, 1.000000000000000000, -0.000000000000000000 ) ) ;
#172 = AXIS2_PLACEMENT_3D ( 'NONE', #226, #25, #102 ) ;
#173 = AXIS2_PLACEMENT_3D ( 'NONE', #189, #7, #37 ) ;
#174 = DIRECTION ( 'NONE',  ( 1.000000000000000000, 4.453261087808557677E-17, 0.000000000000000000 ) ) ;
#175 = DIMENSIONAL_EXPONENTS ( 1.000000000000000000, 0.000000000000000000, 0.000000000000000000, 0.000000000000000000, 0.000000000000000000, 0.000000000000000000, 0.000000000000000000 ) ;
#176 = ORIENTED_EDGE ( 'NONE', *, *, #138, .T. ) ;
#177 = STYLED_ITEM ( 'NONE', ( #235 ), #115 ) ;
#178 =( NAMED_UNIT ( * ) PLANE_ANGLE_UNIT ( ) SI_UNIT ( $, .RADIAN. ) );
#179 = EDGE_CURVE ( 'NONE', #250, #83, #253, .T. ) ;
#180 = VERTEX_POINT ( 'NONE', #276 ) ;
#181 = COLOUR_RGB ( '',1.000000000000000000, 0.000000000000000000, 0.000000000000000000 ) ;
#182 = EDGE_CURVE ( 'NONE', #83, #164, #9, .T. ) ;
#183 =( CONVERSION_BASED_UNIT ( 'INCH', #24 ) LENGTH_UNIT ( ) NAMED_UNIT ( #245 ) );
#184 = CARTESIAN_POINT ( 'NONE',  ( 0.000000000000000000, 2.250000000000000000, -0.3750000000000000555 ) ) ;
#185 = SURFACE_STYLE_USAGE ( .BOTH. , #258 ) ;
#186 = LENGTH_MEASURE_WITH_UNIT ( LENGTH_MEASURE( 0.02539999999999999897 ), #105 );
#187 = CIRCLE ( 'NONE', #95, 0.3750000000000001665 ) ;
#188 = CARTESIAN_POINT ( 'NONE',  ( -1.224646799147353207E-16, 5.000000000000000000, 0.000000000000000000 ) ) ;
#189 = CARTESIAN_POINT ( 'NONE',  ( 0.000000000000000000, 0.000000000000000000, 0.000000000000000000 ) ) ;
#190 = CARTESIAN_POINT ( 'NONE',  ( 0.000000000000000000, 2.250000000000000000, 0.000000000000000000 ) ) ;
#191 = FILL_AREA_STYLE_COLOUR ( '', #227 ) ;
#192 =( GEOMETRIC_REPRESENTATION_CONTEXT ( 3 ) GLOBAL_UNCERTAINTY_ASSIGNED_CONTEXT ( ( #168 ) ) GLOBAL_UNIT_ASSIGNED_CONTEXT ( ( #128, #14, #263 ) ) REPRESENTATION_CONTEXT ( 'NONE', 'WORKASPACE' ) );
#193 = CARTESIAN_POINT ( 'NONE',  ( 4.592425496802575451E-17, 2.250000000000000000, 0.3750000000000000555 ) ) ;
#194 = CARTESIAN_POINT ( 'NONE',  ( 0.000000000000000000, 0.000000000000000000, 0.000000000000000000 ) ) ;
#195 =( NAMED_UNIT ( * ) PLANE_ANGLE_UNIT ( ) SI_UNIT ( $, .RADIAN. ) );
#196 = SURFACE_SIDE_STYLE ('',( #81 ) ) ;
#197 =( CONVERSION_BASED_UNIT ( 'INCH', #29 ) LENGTH_UNIT ( ) NAMED_UNIT ( #4 ) );
#198 = CLOSED_SHELL ( 'NONE', ( #236, #200, #222, #100 ) ) ;
#199 = COLOUR_RGB ( '',1.000000000000000000, 0.000000000000000000, 0.000000000000000000 ) ;
#200 = ADVANCED_FACE ( 'NONE', ( #136 ), #92, .T. ) ;
#201 = ORIENTED_EDGE ( 'NONE', *, *, #15, .T. ) ;
#202 = UNCERTAINTY_MEASURE_WITH_UNIT (LENGTH_MEASURE( 1.000000000000000082E-05 ), #114, 'distance_accuracy_value', 'NONE');
#203 =( GEOMETRIC_REPRESENTATION_CONTEXT ( 3 ) GLOBAL_UNCERTAINTY_ASSIGNED_CONTEXT ( ( #202 ) ) GLOBAL_UNIT_ASSIGNED_CONTEXT ( ( #114, #289, #154 ) ) REPRESENTATION_CONTEXT ( 'NONE', 'WORKASPACE' ) );
#204 = AXIS2_PLACEMENT_3D ( 'NONE', #190, #139, #133 ) ;
#205 = ORIENTED_EDGE ( 'NONE', *, *, #78, .F. ) ;
#206 =( NAMED_UNIT ( * ) PLANE_ANGLE_UNIT ( ) SI_UNIT ( $, .RADIAN. ) );
#207 =( NAMED_UNIT ( * ) SI_UNIT ( $, .STERADIAN. ) SOLID_ANGLE_UNIT ( ) );
#208 = APPLICATION_PROTOCOL_DEFINITION ( 'draft international standard', 'automotive_design', 1998, #307 ) ;
#209 = EDGE_LOOP ( 'NONE', ( #201, #277, #90, #205 ) ) ;
#210 = MECHANICAL_DESIGN_GEOMETRIC_PRESENTATION_REPRESENTATION (  '', ( #234 ), #148 ) ;
#211 = ADVANCED_FACE ( 'NONE', ( #50 ), #3, .T. ) ;
#212 = SURFACE_SIDE_STYLE ('',( #294 ) ) ;
#213 = DIMENSIONAL_EXPONENTS ( 1.000000000000000000, 0.000000000000000000, 0.000000000000000000, 0.000000000000000000, 0.000000000000000000, 0.000000000000000000, 0.000000000000000000 ) ;
#214 = CARTESIAN_POINT ( 'NONE',  ( 0.3750000000000000555, 5.000000000000000000, 0.000000000000000000 ) ) ;
#215 =( LENGTH_UNIT ( ) NAMED_UNIT ( * ) SI_UNIT ( $, .METRE. ) );
#216 = CYLINDRICAL_SURFACE ( 'NONE', #97, 0.3750000000000000555 ) ;
#217 = PLANE ( 'NONE',  #173 ) ;
#218 = ORIENTED_EDGE ( 'NONE', *, *, #167, .F. ) ;
#219 = FACE_OUTER_BOUND ( 'NONE', #69, .T. ) ;
#220 = DIRECTION ( 'NONE',  ( -0.000000000000000000, -1.000000000000000000, -0.000000000000000000 ) ) ;
#221 = STYLED_ITEM ( 'NONE', ( #257 ), #236 ) ;
#222 = ADVANCED_FACE ( 'NONE', ( #158 ), #216, .T. ) ;
#223 = VERTEX_POINT ( 'NONE', #184 ) ;
#224 = EDGE_CURVE ( 'NONE', #99, #180, #27, .T. ) ;
#225 = DIRECTION ( 'NONE',  ( -0.000000000000000000, -1.000000000000000000, -0.000000000000000000 ) ) ;
#226 = CARTESIAN_POINT ( 'NONE',  ( -1.224646799147353207E-16, 5.000000000000000000, 0.000000000000000000 ) ) ;
#227 = COLOUR_RGB ( '',1.000000000000000000, 0.000000000000000000, 0.000000000000000000 ) ;
#228 = CYLINDRICAL_SURFACE ( 'NONE', #172, 0.3750000000000001110 ) ;
#229 = PRESENTATION_STYLE_ASSIGNMENT (( #185 ) ) ;
#230 = AXIS2_PLACEMENT_3D ( 'NONE', #298, #123, #36 ) ;
#231 = DIRECTION ( 'NONE',  ( -0.000000000000000000, -1.000000000000000000, -0.000000000000000000 ) ) ;
#232 = SURFACE_STYLE_USAGE ( .BOTH. , #131 ) ;
#233 = FILL_AREA_STYLE_COLOUR ( '', #135 ) ;
#234 = STYLED_ITEM ( 'NONE', ( #39 ), #222 ) ;
#235 = PRESENTATION_STYLE_ASSIGNMENT (( #137 ) ) ;
#236 = ADVANCED_FACE ( 'NONE', ( #287 ), #152, .T. ) ;
#237 = DIRECTION ( 'NONE',  ( -4.453261087808557677E-17, 1.000000000000000000, -0.000000000000000000 ) ) ;
#238 = CARTESIAN_POINT ( 'NONE',  ( 0.000000000000000000, 0.000000000000000000, -0.3750000000000000555 ) ) ;
#239 =( CONVERSION_BASED_UNIT ( 'INCH', #57 ) LENGTH_UNIT ( ) NAMED_UNIT ( #175 ) );
#240 =( LENGTH_UNIT ( ) NAMED_UNIT ( * ) SI_UNIT ( $, .METRE. ) );
#241 = COLOUR_RGB ( '',0.7921568627450980005, 0.8196078431372548767, 0.9333333333333333481 ) ;
#242 = CIRCLE ( 'NONE', #230, 0.3750000000000000555 ) ;
#243 = CARTESIAN_POINT ( 'NONE',  ( 0.3750000000000000555, 5.000000000000000000, 4.592425496802576684E-17 ) ) ;
#244 = EDGE_CURVE ( 'NONE', #64, #223, #86, .T. ) ;
#245 = DIMENSIONAL_EXPONENTS ( 1.000000000000000000, 0.000000000000000000, 0.000000000000000000, 0.000000000000000000, 0.000000000000000000, 0.000000000000000000, 0.000000000000000000 ) ;
#246 = DIRECTION ( 'NONE',  ( -4.453261087808557677E-17, 1.000000000000000000, -0.000000000000000000 ) ) ;
#247 = VECTOR ( 'NONE', #220, 39.37007874015748143 ) ;
#248 = FILL_AREA_STYLE_COLOUR ( '', #299 ) ;
#249 = APPLICATION_CONTEXT ( 'automotive_design' ) ;
#250 = VERTEX_POINT ( 'NONE', #32 ) ;
#251 = DIRECTION ( 'NONE',  ( 0.000000000000000000, 0.000000000000000000, -1.000000000000000000 ) ) ;
#252 =( NAMED_UNIT ( * ) PLANE_ANGLE_UNIT ( ) SI_UNIT ( $, .RADIAN. ) );
#253 = CIRCLE ( 'NONE', #134, 0.3750000000000000555 ) ;
#254 = ORIENTED_EDGE ( 'NONE', *, *, #244, .F. ) ;
#255 = AXIS2_PLACEMENT_3D ( 'NONE', #194, #58, #142 ) ;
#256 =( LENGTH_UNIT ( ) NAMED_UNIT ( * ) SI_UNIT ( $, .METRE. ) );
#257 = PRESENTATION_STYLE_ASSIGNMENT (( #232 ) ) ;
#258 = SURFACE_SIDE_STYLE ('',( #1 ) ) ;
#259 =( NAMED_UNIT ( * ) PLANE_ANGLE_UNIT ( ) SI_UNIT ( $, .RADIAN. ) );
#260 = DIMENSIONAL_EXPONENTS ( 1.000000000000000000, 0.000000000000000000, 0.000000000000000000, 0.000000000000000000, 0.000000000000000000, 0.000000000000000000, 0.000000000000000000 ) ;
#261 =( LENGTH_UNIT ( ) NAMED_UNIT ( * ) SI_UNIT ( $, .METRE. ) );
#262 = DIRECTION ( 'NONE',  ( 0.000000000000000000, 1.000000000000000000, 0.000000000000000000 ) ) ;
#263 =( NAMED_UNIT ( * ) SI_UNIT ( $, .STERADIAN. ) SOLID_ANGLE_UNIT ( ) );
#264 = AXIS2_PLACEMENT_3D ( 'NONE', #214, #165, #174 ) ;
#265 = FILL_AREA_STYLE ('',( #233 ) ) ;
#266 = AXIS2_PLACEMENT_3D ( 'NONE', #157, #10, #159 ) ;
#267 = EDGE_LOOP ( 'NONE', ( #16, #140, #278, #38 ) ) ;
#268 = DIRECTION ( 'NONE',  ( 0.000000000000000000, -0.000000000000000000, 1.000000000000000000 ) ) ;
#269 = CARTESIAN_POINT ( 'NONE',  ( 4.592425496802575451E-17, 0.000000000000000000, 0.3750000000000000555 ) ) ;
#270 = SURFACE_STYLE_USAGE ( .BOTH. , #212 ) ;
#271 = CARTESIAN_POINT ( 'NONE',  ( 4.592425496802575451E-17, 0.000000000000000000, 0.3750000000000000555 ) ) ;
#272 = ORIENTED_EDGE ( 'NONE', *, *, #179, .F. ) ;
#273 = DIRECTION ( 'NONE',  ( 0.000000000000000000, 0.000000000000000000, -1.000000000000000000 ) ) ;
#274 = DIRECTION ( 'NONE',  ( -1.000000000000000000, 0.000000000000000000, 0.000000000000000000 ) ) ;
#275 = CARTESIAN_POINT ( 'NONE',  ( 0.3750000000000000555, 2.250000000000000444, 4.592425496802576684E-17 ) ) ;
#276 = CARTESIAN_POINT ( 'NONE',  ( 0.000000000000000000, 0.000000000000000000, -0.3750000000000000555 ) ) ;
#277 = ORIENTED_EDGE ( 'NONE', *, *, #93, .T. ) ;
#278 = ORIENTED_EDGE ( 'NONE', *, *, #78, .T. ) ;
#279 =( GEOMETRIC_REPRESENTATION_CONTEXT ( 3 ) GLOBAL_UNCERTAINTY_ASSIGNED_CONTEXT ( ( #296 ) ) GLOBAL_UNIT_ASSIGNED_CONTEXT ( ( #290, #206, #47 ) ) REPRESENTATION_CONTEXT ( 'NONE', 'WORKASPACE' ) );
#280 = EDGE_LOOP ( 'NONE', ( #53, #166, #176, #281 ) ) ;
#281 = ORIENTED_EDGE ( 'NONE', *, *, #51, .F. ) ;
#282 = MECHANICAL_DESIGN_GEOMETRIC_PRESENTATION_REPRESENTATION (  '', ( #44 ), #279 ) ;
#283 = PRODUCT_DEFINITION_CONTEXT ( 'detailed design', #249, 'design' ) ;
#284 = AXIS2_PLACEMENT_3D ( 'NONE', #188, #291, #75 ) ;
#285 = PRODUCT_DEFINITION ( 'UNKNOWN', '', #127, #283 ) ;
#286 = FILL_AREA_STYLE_COLOUR ( '', #241 ) ;
#287 = FACE_OUTER_BOUND ( 'NONE', #209, .T. ) ;
#288 = ADVANCED_FACE ( 'NONE', ( #219 ), #116, .F. ) ;
#289 =( NAMED_UNIT ( * ) PLANE_ANGLE_UNIT ( ) SI_UNIT ( $, .RADIAN. ) );
#290 =( CONVERSION_BASED_UNIT ( 'INCH', #106 ) LENGTH_UNIT ( ) NAMED_UNIT ( #260 ) );
#291 = DIRECTION ( 'NONE',  ( -4.453261087808557677E-17, 1.000000000000000000, -0.000000000000000000 ) ) ;
#292 = VECTOR ( 'NONE', #246, 39.37007874015748143 ) ;
#293 = SURFACE_SIDE_STYLE ('',( #18 ) ) ;
#294 = SURFACE_STYLE_FILL_AREA ( #56 ) ;
#295 = PRESENTATION_STYLE_ASSIGNMENT (( #96 ) ) ;
#296 = UNCERTAINTY_MEASURE_WITH_UNIT (LENGTH_MEASURE( 1.000000000000000082E-05 ), #290, 'distance_accuracy_value', 'NONE');
#297 =( NAMED_UNIT ( * ) SI_UNIT ( $, .STERADIAN. ) SOLID_ANGLE_UNIT ( ) );
#298 = CARTESIAN_POINT ( 'NONE',  ( 1.516480271171051896E-32, 2.250000000000000444, 0.000000000000000000 ) ) ;
#299 = COLOUR_RGB ( '',1.000000000000000000, 0.000000000000000000, 0.000000000000000000 ) ;
#300 = DIRECTION ( 'NONE',  ( -1.000000000000000000, 0.000000000000000000, 0.000000000000000000 ) ) ;
#301 = AXIS2_PLACEMENT_3D ( 'NONE', #6, #169, #273 ) ;
#302 = EDGE_LOOP ( 'NONE', ( #309, #254 ) ) ;
#303 = STYLED_ITEM ( 'NONE', ( #30 ), #200 ) ;
#304 =( GEOMETRIC_REPRESENTATION_CONTEXT ( 3 ) GLOBAL_UNCERTAINTY_ASSIGNED_CONTEXT ( ( #46 ) ) GLOBAL_UNIT_ASSIGNED_CONTEXT ( ( #239, #178, #207 ) ) REPRESENTATION_CONTEXT ( 'NONE', 'WORKASPACE' ) );
#305 = PLANE ( 'NONE',  #264 ) ;
#306 = DIRECTION ( 'NONE',  ( 0.000000000000000000, 0.000000000000000000, 1.000000000000000000 ) ) ;
#307 = APPLICATION_CONTEXT ( 'automotive_design' ) ;
#308 = DIRECTION ( 'NONE',  ( 1.000000000000000000, 0.000000000000000000, 0.000000000000000000 ) ) ;
#309 = ORIENTED_EDGE ( 'NONE', *, *, #15, .F. ) ;
ENDSEC;
END-ISO-10303-21;
