ISO-10303-21;
HEADER;
FILE_DESCRIPTION (( 'STEP AP214' ),
    '1' );
FILE_NAME ('Micro_GEMM-010-3.STEP',
    '2021-09-01T21:11:56',
    ( '' ),
    ( '' ),
    'SwSTEP 2.0',
    'SolidWorks 2020',
    '' );
FILE_SCHEMA (( 'AUTOMOTIVE_DESIGN' ));
ENDSEC;

DATA;
#1 = AXIS2_PLACEMENT_3D ( 'NONE', #34, #57, #81 ) ;
#2 = CARTESIAN_POINT ( 'NONE',  ( 0.0000000000000000000, 0.0000000000000000000, 1.496062999999999921 ) ) ;
#3 = DIRECTION ( 'NONE',  ( -1.000000000000000000, 0.0000000000000000000, 0.0000000000000000000 ) ) ;
#4 = COLOUR_RGB ( '',0.7921568627450980005, 0.8196078431372548767, 0.9333333333333333481 ) ;
#5 = EDGE_LOOP ( 'NONE', ( #256, #268, #202, #73 ) ) ;
#6 = ORIENTED_EDGE ( 'NONE', *, *, #285, .F. ) ;
#7 = CIRCLE ( 'NONE', #236, 0.05905499999999998251 ) ;
#8 = ORIENTED_EDGE ( 'NONE', *, *, #109, .F. ) ;
#9 = LINE ( 'NONE', #246, #104 ) ;
#10 = CARTESIAN_POINT ( 'NONE',  ( 0.05905499999999998251, 7.232151672364692341E-18, 1.496062999999999921 ) ) ;
#11 =( LENGTH_UNIT ( ) NAMED_UNIT ( * ) SI_UNIT ( $, .METRE. ) );
#12 = EDGE_CURVE ( 'NONE', #206, #142, #32, .T. ) ;
#13 = LENGTH_MEASURE_WITH_UNIT ( LENGTH_MEASURE( 0.02539999999999999897 ), #279 );
#14 = CIRCLE ( 'NONE', #86, 0.05905499999999998251 ) ;
#15 = STYLED_ITEM ( 'NONE', ( #88 ), #169 ) ;
#16 = VERTEX_POINT ( 'NONE', #82 ) ;
#17 = ADVANCED_FACE ( 'NONE', ( #176 ), #229, .T. ) ;
#18 = PRODUCT ( 'Micro_GEMM-010-3', 'Micro_GEMM-010-3', '', ( #70 ) ) ;
#19 = LINE ( 'NONE', #180, #80 ) ;
#20 = PRESENTATION_LAYER_ASSIGNMENT (  '', '', ( #254 ) ) ;
#21 = LINE ( 'NONE', #111, #114 ) ;
#22 = CYLINDRICAL_SURFACE ( 'NONE', #215, 0.05905499999999998251 ) ;
#23 = VERTEX_POINT ( 'NONE', #148 ) ;
#24 = DIRECTION ( 'NONE',  ( -1.224646799147352961E-16, -0.0000000000000000000, -1.000000000000000000 ) ) ;
#25 = FACE_OUTER_BOUND ( 'NONE', #61, .T. ) ;
#26 = ORIENTED_EDGE ( 'NONE', *, *, #64, .T. ) ;
#27 = CIRCLE ( 'NONE', #197, 0.01966531499999995408 ) ;
#28 = COLOUR_RGB ( '',0.7921568627450980005, 0.8196078431372548767, 0.9333333333333333481 ) ;
#29 = EDGE_CURVE ( 'NONE', #23, #142, #219, .T. ) ;
#30 = ORIENTED_EDGE ( 'NONE', *, *, #178, .T. ) ;
#31 = VERTEX_POINT ( 'NONE', #102 ) ;
#32 = LINE ( 'NONE', #221, #283 ) ;
#33 = EDGE_CURVE ( 'NONE', #23, #117, #7, .T. ) ;
#34 = CARTESIAN_POINT ( 'NONE',  ( 1.446430334472938160E-17, 0.0000000000000000000, 0.1181099999999999650 ) ) ;
#35 = DIRECTION ( 'NONE',  ( -1.224646799147352961E-16, -0.0000000000000000000, -1.000000000000000000 ) ) ;
#36 =( CONVERSION_BASED_UNIT ( 'INCH', #58 ) LENGTH_UNIT ( ) NAMED_UNIT ( #174 ) );
#37 =( CONVERSION_BASED_UNIT ( 'INCH', #13 ) LENGTH_UNIT ( ) NAMED_UNIT ( #65 ) );
#38 = CIRCLE ( 'NONE', #208, 0.01966531499999995408 ) ;
#39 = DIRECTION ( 'NONE',  ( -1.000000000000000000, 0.0000000000000000000, 1.224646799147352714E-16 ) ) ;
#40 = CARTESIAN_POINT ( 'NONE',  ( 0.0000000000000000000, 0.0000000000000000000, 0.0000000000000000000 ) ) ;
#41 = DIRECTION ( 'NONE',  ( -1.224646799147352961E-16, -0.0000000000000000000, -1.000000000000000000 ) ) ;
#42 = PRESENTATION_STYLE_ASSIGNMENT (( #162 ) ) ;
#43 = CARTESIAN_POINT ( 'NONE',  ( 0.0000000000000000000, 0.0000000000000000000, 1.481063000000000240 ) ) ;
#44 = SURFACE_SIDE_STYLE ('',( #258 ) ) ;
#45 = CARTESIAN_POINT ( 'NONE',  ( 2.949324855037690456E-34, 0.0000000000000000000, 2.408306506897438479E-18 ) ) ;
#46 = APPLICATION_PROTOCOL_DEFINITION ( 'draft international standard', 'automotive_design', 1998, #218 ) ;
#47 = FACE_OUTER_BOUND ( 'NONE', #185, .T. ) ;
#48 = EDGE_LOOP ( 'NONE', ( #266, #213 ) ) ;
#49 = AXIS2_PLACEMENT_3D ( 'NONE', #233, #116, #296 ) ;
#50 = AXIS2_PLACEMENT_3D ( 'NONE', #170, #35, #60 ) ;
#51 = EDGE_LOOP ( 'NONE', ( #189, #240, #211, #68 ) ) ;
#52 = EDGE_LOOP ( 'NONE', ( #216, #264 ) ) ;
#53 = CLOSED_SHELL ( 'NONE', ( #252, #77, #234, #121, #131, #284, #166, #17, #186, #118 ) ) ;
#54 = ORIENTED_EDGE ( 'NONE', *, *, #29, .T. ) ;
#55 = EDGE_CURVE ( 'NONE', #78, #23, #59, .T. ) ;
#56 = DIRECTION ( 'NONE',  ( -1.000000000000000000, 0.0000000000000000000, 0.0000000000000000000 ) ) ;
#57 = DIRECTION ( 'NONE',  ( 1.224646799147352961E-16, 0.0000000000000000000, 1.000000000000000000 ) ) ;
#58 = LENGTH_MEASURE_WITH_UNIT ( LENGTH_MEASURE( 0.02539999999999999897 ), #11 );
#59 = LINE ( 'NONE', #274, #149 ) ;
#60 = DIRECTION ( 'NONE',  ( 1.000000000000000000, 0.0000000000000000000, 0.0000000000000000000 ) ) ;
#61 = EDGE_LOOP ( 'NONE', ( #97, #103, #124, #223 ) ) ;
#62 = CARTESIAN_POINT ( 'NONE',  ( 0.0000000000000000000, 0.0000000000000000000, 1.496062999999999921 ) ) ;
#63 = CARTESIAN_POINT ( 'NONE',  ( -0.05905499999999998251, 0.0000000000000000000, 1.481063000000000240 ) ) ;
#64 = EDGE_CURVE ( 'NONE', #31, #206, #38, .T. ) ;
#65 = DIMENSIONAL_EXPONENTS ( 1.000000000000000000, 0.0000000000000000000, 0.0000000000000000000, 0.0000000000000000000, 0.0000000000000000000, 0.0000000000000000000, 0.0000000000000000000 ) ;
#66 = CARTESIAN_POINT ( 'NONE',  ( 0.0000000000000000000, 0.0000000000000000000, 1.496062999999999921 ) ) ;
#67 = LINE ( 'NONE', #152, #190 ) ;
#68 = ORIENTED_EDGE ( 'NONE', *, *, #241, .F. ) ;
#69 = DIRECTION ( 'NONE',  ( -1.224646799147352961E-16, -0.0000000000000000000, -1.000000000000000000 ) ) ;
#70 = PRODUCT_CONTEXT ( 'NONE', #218, 'mechanical' ) ;
#71 = EDGE_CURVE ( 'NONE', #78, #144, #98, .T. ) ;
#72 = AXIS2_PLACEMENT_3D ( 'NONE', #40, #89, #91 ) ;
#73 = ORIENTED_EDGE ( 'NONE', *, *, #76, .F. ) ;
#74 = EDGE_LOOP ( 'NONE', ( #165, #54, #238, #242 ) ) ;
#75 = CARTESIAN_POINT ( 'NONE',  ( -0.01966531499999994367, 2.408306506897437709E-18, 0.1181099999999999650 ) ) ;
#76 = EDGE_CURVE ( 'NONE', #16, #112, #123, .T. ) ;
#77 = ADVANCED_FACE ( 'NONE', ( #47 ), #128, .T. ) ;
#78 = VERTEX_POINT ( 'NONE', #139 ) ;
#79 = CARTESIAN_POINT ( 'NONE',  ( 0.0000000000000000000, 0.0000000000000000000, 1.496062999999999921 ) ) ;
#80 = VECTOR ( 'NONE', #181, 39.37007874015748143 ) ;
#81 = DIRECTION ( 'NONE',  ( 1.000000000000000000, 0.0000000000000000000, 0.0000000000000000000 ) ) ;
#82 = CARTESIAN_POINT ( 'NONE',  ( 0.01966531499999996796, 2.408306506897438479E-18, -4.739000847409537175E-34 ) ) ;
#83 = FACE_OUTER_BOUND ( 'NONE', #48, .T. ) ;
#84 = UNCERTAINTY_MEASURE_WITH_UNIT (LENGTH_MEASURE( 1.000000000000000082E-05 ), #37, 'distance_accuracy_value', 'NONE');
#85 = DIRECTION ( 'NONE',  ( 1.000000000000000000, 0.0000000000000000000, 0.0000000000000000000 ) ) ;
#86 = AXIS2_PLACEMENT_3D ( 'NONE', #204, #161, #140 ) ;
#87 = DIRECTION ( 'NONE',  ( 0.0000000000000000000, 0.0000000000000000000, -1.000000000000000000 ) ) ;
#88 = PRESENTATION_STYLE_ASSIGNMENT (( #201 ) ) ;
#89 = DIRECTION ( 'NONE',  ( -1.224646799147352961E-16, -0.0000000000000000000, -1.000000000000000000 ) ) ;
#90 = SHAPE_DEFINITION_REPRESENTATION ( #105, #169 ) ;
#91 = DIRECTION ( 'NONE',  ( -1.000000000000000000, 0.0000000000000000000, 1.224646799147352961E-16 ) ) ;
#92 = AXIS2_PLACEMENT_3D ( 'NONE', #235, #159, #156 ) ;
#93 = DIRECTION ( 'NONE',  ( -1.224646799147352961E-16, -0.0000000000000000000, -1.000000000000000000 ) ) ;
#94 = EDGE_LOOP ( 'NONE', ( #26, #30, #6, #8 ) ) ;
#95 = EDGE_LOOP ( 'NONE', ( #126, #171, #262, #287 ) ) ;
#96 = PRODUCT_DEFINITION ( 'UNKNOWN', '', #99, #122 ) ;
#97 = ORIENTED_EDGE ( 'NONE', *, *, #29, .F. ) ;
#98 = CIRCLE ( 'NONE', #92, 0.04405500000000001082 ) ;
#99 = PRODUCT_DEFINITION_FORMATION_WITH_SPECIFIED_SOURCE ( 'ANY', '', #18, .NOT_KNOWN. ) ;
#100 = VERTEX_POINT ( 'NONE', #210 ) ;
#101 = DIRECTION ( 'NONE',  ( -1.000000000000000000, 0.0000000000000000000, 1.224646799147352961E-16 ) ) ;
#102 = CARTESIAN_POINT ( 'NONE',  ( -0.01966531499999994367, 4.820229089631064447E-18, 0.1181099999999999650 ) ) ;
#103 = ORIENTED_EDGE ( 'NONE', *, *, #33, .T. ) ;
#104 = VECTOR ( 'NONE', #286, 39.37007874015748854 ) ;
#105 = PRODUCT_DEFINITION_SHAPE ( 'NONE', 'NONE',  #96 ) ;
#106 = CARTESIAN_POINT ( 'NONE',  ( 1.446430334472938160E-17, 0.0000000000000000000, 0.1181099999999999650 ) ) ;
#107 =( NAMED_UNIT ( * ) SI_UNIT ( $, .STERADIAN. ) SOLID_ANGLE_UNIT ( ) );
#108 = DIRECTION ( 'NONE',  ( -1.000000000000000000, 0.0000000000000000000, 0.0000000000000000000 ) ) ;
#109 = EDGE_CURVE ( 'NONE', #31, #112, #21, .T. ) ;
#110 = FACE_OUTER_BOUND ( 'NONE', #52, .T. ) ;
#111 = CARTESIAN_POINT ( 'NONE',  ( -0.01966531499999995755, 0.0000000000000000000, 2.408306506897437709E-18 ) ) ;
#112 = VERTEX_POINT ( 'NONE', #135 ) ;
#113 = CARTESIAN_POINT ( 'NONE',  ( 1.446430334472938160E-17, 0.0000000000000000000, 0.1181099999999999650 ) ) ;
#114 = VECTOR ( 'NONE', #69, 39.37007874015748143 ) ;
#115 = AXIS2_PLACEMENT_3D ( 'NONE', #138, #281, #85 ) ;
#116 = DIRECTION ( 'NONE',  ( 0.0000000000000000000, 0.0000000000000000000, 1.000000000000000000 ) ) ;
#117 = VERTEX_POINT ( 'NONE', #63 ) ;
#118 = ADVANCED_FACE ( 'NONE', ( #110 ), #253, .F. ) ;
#119 = MECHANICAL_DESIGN_GEOMETRIC_PRESENTATION_REPRESENTATION (  '', ( #254 ), #157 ) ;
#120 = ORIENTED_EDGE ( 'NONE', *, *, #12, .F. ) ;
#121 = ADVANCED_FACE ( 'NONE', ( #179 ), #22, .T. ) ;
#122 = PRODUCT_DEFINITION_CONTEXT ( 'detailed design', #239, 'design' ) ;
#123 = CIRCLE ( 'NONE', #222, 0.01966531499999996796 ) ;
#124 = ORIENTED_EDGE ( 'NONE', *, *, #195, .T. ) ;
#125 = CIRCLE ( 'NONE', #295, 0.01966531499999996796 ) ;
#126 = ORIENTED_EDGE ( 'NONE', *, *, #247, .F. ) ;
#127 = FACE_OUTER_BOUND ( 'NONE', #51, .T. ) ;
#128 = CONICAL_SURFACE ( 'NONE', #260, 0.01966531499999995408, 0.1745329251994340025 ) ;
#129 =( NAMED_UNIT ( * ) SI_UNIT ( $, .STERADIAN. ) SOLID_ANGLE_UNIT ( ) );
#130 = CARTESIAN_POINT ( 'NONE',  ( 0.0000000000000000000, 0.0000000000000000000, 1.496062999999999921 ) ) ;
#131 = ADVANCED_FACE ( 'NONE', ( #25 ), #259, .T. ) ;
#132 = PRODUCT_RELATED_PRODUCT_CATEGORY ( 'part', '', ( #18 ) ) ;
#133 = DIRECTION ( 'NONE',  ( 0.0000000000000000000, 0.0000000000000000000, -1.000000000000000000 ) ) ;
#134 =( LENGTH_UNIT ( ) NAMED_UNIT ( * ) SI_UNIT ( $, .METRE. ) );
#135 = CARTESIAN_POINT ( 'NONE',  ( -0.01966531499999996796, 0.0000000000000000000, 4.816613013794876958E-18 ) ) ;
#136 =( GEOMETRIC_REPRESENTATION_CONTEXT ( 3 ) GLOBAL_UNCERTAINTY_ASSIGNED_CONTEXT ( ( #293 ) ) GLOBAL_UNIT_ASSIGNED_CONTEXT ( ( #160, #184, #107 ) ) REPRESENTATION_CONTEXT ( 'NONE', 'WORKASPACE' ) );
#137 = FACE_OUTER_BOUND ( 'NONE', #5, .T. ) ;
#138 = CARTESIAN_POINT ( 'NONE',  ( 0.0000000000000000000, 0.0000000000000000000, 0.0000000000000000000 ) ) ;
#139 = CARTESIAN_POINT ( 'NONE',  ( 0.04405500000000001082, 6.313666573004179469E-18, 1.496062999999999921 ) ) ;
#140 = DIRECTION ( 'NONE',  ( 1.000000000000000000, 0.0000000000000000000, 0.0000000000000000000 ) ) ;
#141 = FILL_AREA_STYLE ('',( #198 ) ) ;
#142 = VERTEX_POINT ( 'NONE', #280 ) ;
#143 = ORIENTED_EDGE ( 'NONE', *, *, #55, .F. ) ;
#144 = VERTEX_POINT ( 'NONE', #255 ) ;
#145 = AXIS2_PLACEMENT_3D ( 'NONE', #43, #133, #227 ) ;
#146 = DIRECTION ( 'NONE',  ( 0.0000000000000000000, 0.0000000000000000000, -1.000000000000000000 ) ) ;
#147 =( NAMED_UNIT ( * ) PLANE_ANGLE_UNIT ( ) SI_UNIT ( $, .RADIAN. ) );
#148 = CARTESIAN_POINT ( 'NONE',  ( 0.05905499999999998251, 7.232151672364692341E-18, 1.481063000000000240 ) ) ;
#149 = VECTOR ( 'NONE', #153, 39.37007874015748854 ) ;
#150 = DIRECTION ( 'NONE',  ( -1.224646799147352961E-16, -0.0000000000000000000, -1.000000000000000000 ) ) ;
#151 = EDGE_CURVE ( 'NONE', #142, #100, #14, .T. ) ;
#152 = CARTESIAN_POINT ( 'NONE',  ( 0.01966531499999995755, 2.408306506897438094E-18, -2.408306506897437709E-18 ) ) ;
#153 = DIRECTION ( 'NONE',  ( 0.7071067811865536790, 8.659560562355008046E-17, -0.7071067811865412445 ) ) ;
#154 = ORIENTED_EDGE ( 'NONE', *, *, #64, .F. ) ;
#155 = UNCERTAINTY_MEASURE_WITH_UNIT (LENGTH_MEASURE( 1.000000000000000082E-05 ), #36, 'distance_accuracy_value', 'NONE');
#156 = DIRECTION ( 'NONE',  ( 1.000000000000000000, 0.0000000000000000000, 0.0000000000000000000 ) ) ;
#157 =( GEOMETRIC_REPRESENTATION_CONTEXT ( 3 ) GLOBAL_UNCERTAINTY_ASSIGNED_CONTEXT ( ( #84 ) ) GLOBAL_UNIT_ASSIGNED_CONTEXT ( ( #37, #147, #129 ) ) REPRESENTATION_CONTEXT ( 'NONE', 'WORKASPACE' ) );
#158 = VECTOR ( 'NONE', #248, 39.37007874015748143 ) ;
#159 = DIRECTION ( 'NONE',  ( 0.0000000000000000000, 0.0000000000000000000, 1.000000000000000000 ) ) ;
#160 =( CONVERSION_BASED_UNIT ( 'INCH', #228 ) LENGTH_UNIT ( ) NAMED_UNIT ( #203 ) );
#161 = DIRECTION ( 'NONE',  ( -1.224646799147352961E-16, -0.0000000000000000000, -1.000000000000000000 ) ) ;
#162 = SURFACE_STYLE_USAGE ( .BOTH. , #282 ) ;
#163 = AXIS2_PLACEMENT_3D ( 'NONE', #62, #87, #205 ) ;
#164 = CIRCLE ( 'NONE', #50, 0.05905499999999998251 ) ;
#165 = ORIENTED_EDGE ( 'NONE', *, *, #187, .T. ) ;
#166 = ADVANCED_FACE ( 'NONE', ( #273 ), #294, .T. ) ;
#167 = VECTOR ( 'NONE', #175, 39.37007874015748143 ) ;
#168 = AXIS2_PLACEMENT_3D ( 'NONE', #173, #150, #101 ) ;
#169 = ADVANCED_BREP_SHAPE_REPRESENTATION ( 'Micro_GEMM-010-3', ( #226, #115 ), #261 ) ;
#170 = CARTESIAN_POINT ( 'NONE',  ( 4.182168873229443489E-17, 0.0000000000000000000, 0.3415000044209671182 ) ) ;
#171 = ORIENTED_EDGE ( 'NONE', *, *, #231, .F. ) ;
#172 = DIRECTION ( 'NONE',  ( 1.000000000000000000, 0.0000000000000000000, 0.0000000000000000000 ) ) ;
#173 = CARTESIAN_POINT ( 'NONE',  ( 0.0000000000000000000, 0.0000000000000000000, 0.0000000000000000000 ) ) ;
#174 = DIMENSIONAL_EXPONENTS ( 1.000000000000000000, 0.0000000000000000000, 0.0000000000000000000, 0.0000000000000000000, 0.0000000000000000000, 0.0000000000000000000, 0.0000000000000000000 ) ;
#175 = DIRECTION ( 'NONE',  ( -0.0000000000000000000, -0.0000000000000000000, -1.000000000000000000 ) ) ;
#176 = FACE_OUTER_BOUND ( 'NONE', #95, .T. ) ;
#177 = DIRECTION ( 'NONE',  ( 0.0000000000000000000, 0.0000000000000000000, 1.000000000000000000 ) ) ;
#178 = EDGE_CURVE ( 'NONE', #206, #16, #67, .T. ) ;
#179 = FACE_OUTER_BOUND ( 'NONE', #74, .T. ) ;
#180 = CARTESIAN_POINT ( 'NONE',  ( -0.05905499999999998251, 0.0000000000000000000, 1.496062999999999921 ) ) ;
#181 = DIRECTION ( 'NONE',  ( -0.0000000000000000000, -0.0000000000000000000, -1.000000000000000000 ) ) ;
#182 = FILL_AREA_STYLE_COLOUR ( '', #4 ) ;
#183 = DIRECTION ( 'NONE',  ( -0.0000000000000000000, -0.0000000000000000000, -1.000000000000000000 ) ) ;
#184 =( NAMED_UNIT ( * ) PLANE_ANGLE_UNIT ( ) SI_UNIT ( $, .RADIAN. ) );
#185 = EDGE_LOOP ( 'NONE', ( #154, #188, #243, #120 ) ) ;
#186 = ADVANCED_FACE ( 'NONE', ( #137 ), #251, .T. ) ;
#187 = EDGE_CURVE ( 'NONE', #117, #23, #244, .T. ) ;
#188 = ORIENTED_EDGE ( 'NONE', *, *, #247, .T. ) ;
#189 = ORIENTED_EDGE ( 'NONE', *, *, #71, .F. ) ;
#190 = VECTOR ( 'NONE', #41, 39.37007874015748143 ) ;
#191 = AXIS2_PLACEMENT_3D ( 'NONE', #79, #177, #250 ) ;
#192 = EDGE_LOOP ( 'NONE', ( #143, #214, #276, #297 ) ) ;
#193 = DIRECTION ( 'NONE',  ( 0.1736481776669314969, 0.0000000000000000000, 0.9848077530122077983 ) ) ;
#194 = DIRECTION ( 'NONE',  ( -1.224646799147352961E-16, -0.0000000000000000000, -1.000000000000000000 ) ) ;
#195 = EDGE_CURVE ( 'NONE', #117, #100, #19, .T. ) ;
#196 = SURFACE_STYLE_FILL_AREA ( #277 ) ;
#197 = AXIS2_PLACEMENT_3D ( 'NONE', #106, #220, #56 ) ;
#198 = FILL_AREA_STYLE_COLOUR ( '', #28 ) ;
#199 = DIRECTION ( 'NONE',  ( -0.0000000000000000000, -0.0000000000000000000, -1.000000000000000000 ) ) ;
#200 = PRESENTATION_LAYER_ASSIGNMENT (  '', '', ( #15 ) ) ;
#201 = SURFACE_STYLE_USAGE ( .BOTH. , #44 ) ;
#202 = ORIENTED_EDGE ( 'NONE', *, *, #109, .T. ) ;
#203 = DIMENSIONAL_EXPONENTS ( 1.000000000000000000, 0.0000000000000000000, 0.0000000000000000000, 0.0000000000000000000, 0.0000000000000000000, 0.0000000000000000000, 0.0000000000000000000 ) ;
#204 = CARTESIAN_POINT ( 'NONE',  ( 4.182168873229443489E-17, 0.0000000000000000000, 0.3415000044209671182 ) ) ;
#205 = DIRECTION ( 'NONE',  ( -1.000000000000000000, 0.0000000000000000000, 0.0000000000000000000 ) ) ;
#206 = VERTEX_POINT ( 'NONE', #275 ) ;
#207 = DIRECTION ( 'NONE',  ( 1.224646799147352961E-16, 0.0000000000000000000, 1.000000000000000000 ) ) ;
#208 = AXIS2_PLACEMENT_3D ( 'NONE', #113, #93, #108 ) ;
#209 = MECHANICAL_DESIGN_GEOMETRIC_PRESENTATION_REPRESENTATION (  '', ( #15 ), #136 ) ;
#210 = CARTESIAN_POINT ( 'NONE',  ( -0.05905499999999993394, 0.0000000000000000000, 0.3415000044209671182 ) ) ;
#211 = ORIENTED_EDGE ( 'NONE', *, *, #187, .F. ) ;
#212 = AXIS2_PLACEMENT_3D ( 'NONE', #288, #267, #172 ) ;
#213 = ORIENTED_EDGE ( 'NONE', *, *, #71, .T. ) ;
#214 = ORIENTED_EDGE ( 'NONE', *, *, #299, .F. ) ;
#215 = AXIS2_PLACEMENT_3D ( 'NONE', #2, #183, #3 ) ;
#216 = ORIENTED_EDGE ( 'NONE', *, *, #285, .T. ) ;
#217 = DIRECTION ( 'NONE',  ( 0.0000000000000000000, 0.0000000000000000000, -1.000000000000000000 ) ) ;
#218 = APPLICATION_CONTEXT ( 'automotive_design' ) ;
#219 = LINE ( 'NONE', #10, #167 ) ;
#220 = DIRECTION ( 'NONE',  ( -1.224646799147352961E-16, -0.0000000000000000000, -1.000000000000000000 ) ) ;
#221 = CARTESIAN_POINT ( 'NONE',  ( 0.01966531499999996796, 0.0000000000000000000, 0.1181099999999999650 ) ) ;
#222 = AXIS2_PLACEMENT_3D ( 'NONE', #45, #24, #230 ) ;
#223 = ORIENTED_EDGE ( 'NONE', *, *, #151, .F. ) ;
#224 = DIRECTION ( 'NONE',  ( -1.000000000000000000, 0.0000000000000000000, 0.0000000000000000000 ) ) ;
#225 = CYLINDRICAL_SURFACE ( 'NONE', #168, 0.01966531499999995755 ) ;
#226 = MANIFOLD_SOLID_BREP ( 'Cut-Revolve1', #53 ) ;
#227 = DIRECTION ( 'NONE',  ( 1.000000000000000000, 0.0000000000000000000, 0.0000000000000000000 ) ) ;
#228 = LENGTH_MEASURE_WITH_UNIT ( LENGTH_MEASURE( 0.02539999999999999897 ), #134 );
#229 = CONICAL_SURFACE ( 'NONE', #1, 0.01966531499999995408, 0.1745329251994340025 ) ;
#230 = DIRECTION ( 'NONE',  ( -1.000000000000000000, 0.0000000000000000000, 1.224646799147352714E-16 ) ) ;
#231 = EDGE_CURVE ( 'NONE', #206, #31, #27, .T. ) ;
#232 = CARTESIAN_POINT ( 'NONE',  ( 1.446430334472938160E-17, 0.0000000000000000000, 0.1181099999999999650 ) ) ;
#233 = CARTESIAN_POINT ( 'NONE',  ( 0.0000000000000000000, 0.0000000000000000000, 0.0000000000000000000 ) ) ;
#234 = ADVANCED_FACE ( 'NONE', ( #127 ), #263, .T. ) ;
#235 = CARTESIAN_POINT ( 'NONE',  ( 0.0000000000000000000, 0.0000000000000000000, 1.496062999999999921 ) ) ;
#236 = AXIS2_PLACEMENT_3D ( 'NONE', #270, #146, #245 ) ;
#237 = AXIS2_PLACEMENT_3D ( 'NONE', #130, #217, #224 ) ;
#238 = ORIENTED_EDGE ( 'NONE', *, *, #292, .F. ) ;
#239 = APPLICATION_CONTEXT ( 'automotive_design' ) ;
#240 = ORIENTED_EDGE ( 'NONE', *, *, #55, .T. ) ;
#241 = EDGE_CURVE ( 'NONE', #144, #117, #9, .T. ) ;
#242 = ORIENTED_EDGE ( 'NONE', *, *, #195, .F. ) ;
#243 = ORIENTED_EDGE ( 'NONE', *, *, #292, .T. ) ;
#244 = CIRCLE ( 'NONE', #145, 0.05905499999999998251 ) ;
#245 = DIRECTION ( 'NONE',  ( 1.000000000000000000, 0.0000000000000000000, 0.0000000000000000000 ) ) ;
#246 = CARTESIAN_POINT ( 'NONE',  ( -0.04405500000000001082, 0.0000000000000000000, 1.496062999999999921 ) ) ;
#247 = EDGE_CURVE ( 'NONE', #31, #100, #289, .T. ) ;
#248 = DIRECTION ( 'NONE',  ( -0.1736481776669312749, 2.126576849575784241E-17, 0.9848077530122077983 ) ) ;
#249 = AXIS2_PLACEMENT_3D ( 'NONE', #66, #199, #298 ) ;
#250 = DIRECTION ( 'NONE',  ( 1.000000000000000000, 0.0000000000000000000, -0.0000000000000000000 ) ) ;
#251 = CYLINDRICAL_SURFACE ( 'NONE', #72, 0.01966531499999995755 ) ;
#252 = ADVANCED_FACE ( 'NONE', ( #291 ), #225, .T. ) ;
#253 = PLANE ( 'NONE',  #49 ) ;
#254 = STYLED_ITEM ( 'NONE', ( #42 ), #226 ) ;
#255 = CARTESIAN_POINT ( 'NONE',  ( -0.04405500000000001082, 0.0000000000000000000, 1.496062999999999921 ) ) ;
#256 = ORIENTED_EDGE ( 'NONE', *, *, #178, .F. ) ;
#257 = DIRECTION ( 'NONE',  ( 1.000000000000000000, 0.0000000000000000000, 0.0000000000000000000 ) ) ;
#258 = SURFACE_STYLE_FILL_AREA ( #141 ) ;
#259 = CYLINDRICAL_SURFACE ( 'NONE', #249, 0.05905499999999998251 ) ;
#260 = AXIS2_PLACEMENT_3D ( 'NONE', #232, #207, #257 ) ;
#261 =( GEOMETRIC_REPRESENTATION_CONTEXT ( 3 ) GLOBAL_UNCERTAINTY_ASSIGNED_CONTEXT ( ( #155 ) ) GLOBAL_UNIT_ASSIGNED_CONTEXT ( ( #36, #290, #271 ) ) REPRESENTATION_CONTEXT ( 'NONE', 'WORKASPACE' ) );
#262 = ORIENTED_EDGE ( 'NONE', *, *, #12, .T. ) ;
#263 = CONICAL_SURFACE ( 'NONE', #237, 0.04405500000000001082, 0.7853981633974570498 ) ;
#264 = ORIENTED_EDGE ( 'NONE', *, *, #76, .T. ) ;
#265 = PLANE ( 'NONE',  #191 ) ;
#266 = ORIENTED_EDGE ( 'NONE', *, *, #299, .T. ) ;
#267 = DIRECTION ( 'NONE',  ( 0.0000000000000000000, 0.0000000000000000000, 1.000000000000000000 ) ) ;
#268 = ORIENTED_EDGE ( 'NONE', *, *, #231, .T. ) ;
#269 = CARTESIAN_POINT ( 'NONE',  ( 2.949324855037690456E-34, 0.0000000000000000000, 2.408306506897438479E-18 ) ) ;
#270 = CARTESIAN_POINT ( 'NONE',  ( 0.0000000000000000000, 0.0000000000000000000, 1.481063000000000240 ) ) ;
#271 =( NAMED_UNIT ( * ) SI_UNIT ( $, .STERADIAN. ) SOLID_ANGLE_UNIT ( ) );
#272 = CIRCLE ( 'NONE', #212, 0.04405500000000001082 ) ;
#273 = FACE_OUTER_BOUND ( 'NONE', #192, .T. ) ;
#274 = CARTESIAN_POINT ( 'NONE',  ( 0.04405500000000001082, 5.395181473643666598E-18, 1.496062999999999921 ) ) ;
#275 = CARTESIAN_POINT ( 'NONE',  ( 0.01966531499999996796, 0.0000000000000000000, 0.1181099999999999650 ) ) ;
#276 = ORIENTED_EDGE ( 'NONE', *, *, #241, .T. ) ;
#277 = FILL_AREA_STYLE ('',( #182 ) ) ;
#278 = APPLICATION_PROTOCOL_DEFINITION ( 'draft international standard', 'automotive_design', 1998, #239 ) ;
#279 =( LENGTH_UNIT ( ) NAMED_UNIT ( * ) SI_UNIT ( $, .METRE. ) );
#280 = CARTESIAN_POINT ( 'NONE',  ( 0.05905500000000002414, 7.232151672364696963E-18, 0.3415000044209671182 ) ) ;
#281 = DIRECTION ( 'NONE',  ( 0.0000000000000000000, 0.0000000000000000000, 1.000000000000000000 ) ) ;
#282 = SURFACE_SIDE_STYLE ('',( #196 ) ) ;
#283 = VECTOR ( 'NONE', #193, 39.37007874015748143 ) ;
#284 = ADVANCED_FACE ( 'NONE', ( #83 ), #265, .T. ) ;
#285 = EDGE_CURVE ( 'NONE', #112, #16, #125, .T. ) ;
#286 = DIRECTION ( 'NONE',  ( -0.7071067811865536790, 0.0000000000000000000, -0.7071067811865412445 ) ) ;
#287 = ORIENTED_EDGE ( 'NONE', *, *, #151, .T. ) ;
#288 = CARTESIAN_POINT ( 'NONE',  ( 0.0000000000000000000, 0.0000000000000000000, 1.496062999999999921 ) ) ;
#289 = LINE ( 'NONE', #75, #158 ) ;
#290 =( NAMED_UNIT ( * ) PLANE_ANGLE_UNIT ( ) SI_UNIT ( $, .RADIAN. ) );
#291 = FACE_OUTER_BOUND ( 'NONE', #94, .T. ) ;
#292 = EDGE_CURVE ( 'NONE', #100, #142, #164, .T. ) ;
#293 = UNCERTAINTY_MEASURE_WITH_UNIT (LENGTH_MEASURE( 1.000000000000000082E-05 ), #160, 'distance_accuracy_value', 'NONE');
#294 = CONICAL_SURFACE ( 'NONE', #163, 0.04405500000000001082, 0.7853981633974570498 ) ;
#295 = AXIS2_PLACEMENT_3D ( 'NONE', #269, #194, #39 ) ;
#296 = DIRECTION ( 'NONE',  ( 1.000000000000000000, 0.0000000000000000000, -0.0000000000000000000 ) ) ;
#297 = ORIENTED_EDGE ( 'NONE', *, *, #33, .F. ) ;
#298 = DIRECTION ( 'NONE',  ( -1.000000000000000000, 0.0000000000000000000, 0.0000000000000000000 ) ) ;
#299 = EDGE_CURVE ( 'NONE', #144, #78, #272, .T. ) ;
ENDSEC;
END-ISO-10303-21;
