ISO-10303-21;
HEADER;
FILE_DESCRIPTION (( 'STEP AP214' ),
    '1' );
FILE_NAME ('00407.STEP',
    '2023-06-22T14:07:54',
    ( '' ),
    ( '' ),
    'SwSTEP 2.0',
    'SolidWorks 2023',
    '' );
FILE_SCHEMA (( 'AUTOMOTIVE_DESIGN' ));
ENDSEC;

DATA;
#1 = ADVANCED_FACE ( 'NONE', ( #108 ), #190, .T. ) ;
#2 = CARTESIAN_POINT ( 'NONE',  ( -1.224646799147353207E-16, 5.000000000000000000, 0.000000000000000000 ) ) ;
#3 = SURFACE_STYLE_USAGE ( .BOTH. , #128 ) ;
#4 = DIRECTION ( 'NONE',  ( -0.000000000000000000, -1.000000000000000000, -0.000000000000000000 ) ) ;
#5 = AXIS2_PLACEMENT_3D ( 'NONE', #235, #302, #88 ) ;
#6 = DIRECTION ( 'NONE',  ( -1.000000000000000000, 0.000000000000000000, 0.000000000000000000 ) ) ;
#7 = ADVANCED_FACE ( 'NONE', ( #63 ), #40, .T. ) ;
#8 = STYLED_ITEM ( 'NONE', ( #151 ), #180 ) ;
#9 = ORIENTED_EDGE ( 'NONE', *, *, #287, .F. ) ;
#10 = SURFACE_STYLE_USAGE ( .BOTH. , #211 ) ;
#11 = DIRECTION ( 'NONE',  ( -4.898587196589413075E-17, 1.000000000000000000, -0.000000000000000000 ) ) ;
#12 = VERTEX_POINT ( 'NONE', #163 ) ;
#13 = EDGE_CURVE ( 'NONE', #12, #98, #42, .T. ) ;
#14 = AXIS2_PLACEMENT_3D ( 'NONE', #139, #285, #208 ) ;
#15 =( CONVERSION_BASED_UNIT ( 'INCH', #206 ) LENGTH_UNIT ( ) NAMED_UNIT ( #118 ) );
#16 = CARTESIAN_POINT ( 'NONE',  ( -0.1875000000000002220, 5.000000000000000000, 0.000000000000000000 ) ) ;
#17 = PRODUCT_RELATED_PRODUCT_CATEGORY ( 'part', '', ( #162 ) ) ;
#18 = ORIENTED_EDGE ( 'NONE', *, *, #230, .F. ) ;
#19 = PRODUCT_CONTEXT ( 'NONE', #184, 'mechanical' ) ;
#20 = FILL_AREA_STYLE_COLOUR ( '', #291 ) ;
#21 = CLOSED_SHELL ( 'NONE', ( #180, #213, #1, #87 ) ) ;
#22 = DIMENSIONAL_EXPONENTS ( 1.000000000000000000, 0.000000000000000000, 0.000000000000000000, 0.000000000000000000, 0.000000000000000000, 0.000000000000000000, 0.000000000000000000 ) ;
#23 =( NAMED_UNIT ( * ) PLANE_ANGLE_UNIT ( ) SI_UNIT ( $, .RADIAN. ) );
#24 = DIRECTION ( 'NONE',  ( 0.000000000000000000, 0.000000000000000000, -1.000000000000000000 ) ) ;
#25 = DIRECTION ( 'NONE',  ( 0.000000000000000000, -1.000000000000000000, -0.000000000000000000 ) ) ;
#26 = PRESENTATION_LAYER_ASSIGNMENT (  '', '', ( #8 ) ) ;
#27 = PRESENTATION_LAYER_ASSIGNMENT (  '', '', ( #101 ) ) ;
#28 =( NAMED_UNIT ( * ) PLANE_ANGLE_UNIT ( ) SI_UNIT ( $, .RADIAN. ) );
#29 = ADVANCED_FACE ( 'NONE', ( #45 ), #218, .F. ) ;
#30 = CARTESIAN_POINT ( 'NONE',  ( -1.224646799147353207E-16, 5.000000000000000000, 0.000000000000000000 ) ) ;
#31 = ADVANCED_BREP_SHAPE_REPRESENTATION ( '00407', ( #268, #275, #14 ), #67 ) ;
#32 = AXIS2_PLACEMENT_3D ( 'NONE', #56, #254, #226 ) ;
#33 =( NAMED_UNIT ( * ) PLANE_ANGLE_UNIT ( ) SI_UNIT ( $, .RADIAN. ) );
#34 = COLOUR_RGB ( '',0.7921568627450980005, 0.8196078431372548767, 0.9333333333333333481 ) ;
#35 = CARTESIAN_POINT ( 'NONE',  ( 0.1874999999999999445, 5.000000000000000000, 2.296212748401288342E-17 ) ) ;
#36 = ORIENTED_EDGE ( 'NONE', *, *, #60, .T. ) ;
#37 = MECHANICAL_DESIGN_GEOMETRIC_PRESENTATION_REPRESENTATION (  '', ( #59 ), #272 ) ;
#38 = SURFACE_STYLE_FILL_AREA ( #164 ) ;
#39 =( CONVERSION_BASED_UNIT ( 'INCH', #110 ) LENGTH_UNIT ( ) NAMED_UNIT ( #171 ) );
#40 = CYLINDRICAL_SURFACE ( 'NONE', #201, 0.1875000000000000833 ) ;
#41 = DIRECTION ( 'NONE',  ( -1.000000000000000000, 0.000000000000000000, 0.000000000000000000 ) ) ;
#42 = LINE ( 'NONE', #16, #258 ) ;
#43 = AXIS2_PLACEMENT_3D ( 'NONE', #52, #266, #308 ) ;
#44 = CIRCLE ( 'NONE', #186, 0.1875000000000001388 ) ;
#45 = FACE_OUTER_BOUND ( 'NONE', #215, .T. ) ;
#46 = ORIENTED_EDGE ( 'NONE', *, *, #248, .F. ) ;
#47 = CARTESIAN_POINT ( 'NONE',  ( -0.1875000000000002776, 5.000000000000000000, 0.000000000000000000 ) ) ;
#48 = PRESENTATION_LAYER_ASSIGNMENT (  '', '', ( #100 ) ) ;
#49 = DIRECTION ( 'NONE',  ( -1.000000000000000000, -4.898587196589412459E-17, 0.000000000000000000 ) ) ;
#50 = CARTESIAN_POINT ( 'NONE',  ( 0.000000000000000000, 2.500000000000000000, 0.000000000000000000 ) ) ;
#51 = UNCERTAINTY_MEASURE_WITH_UNIT (LENGTH_MEASURE( 1.000000000000000082E-05 ), #293, 'distance_accuracy_value', 'NONE');
#52 = CARTESIAN_POINT ( 'NONE',  ( 0.1875000000000000278, 5.000000000000000000, 0.000000000000000000 ) ) ;
#53 = LINE ( 'NONE', #35, #156 ) ;
#54 = SURFACE_STYLE_USAGE ( .BOTH. , #224 ) ;
#55 = AXIS2_PLACEMENT_3D ( 'NONE', #292, #261, #75 ) ;
#56 = CARTESIAN_POINT ( 'NONE',  ( 0.000000000000000000, 2.500000000000000000, 0.000000000000000000 ) ) ;
#57 = ORIENTED_EDGE ( 'NONE', *, *, #274, .F. ) ;
#58 = VERTEX_POINT ( 'NONE', #304 ) ;
#59 = STYLED_ITEM ( 'NONE', ( #155 ), #213 ) ;
#60 = EDGE_CURVE ( 'NONE', #58, #187, #137, .T. ) ;
#61 = STYLED_ITEM ( 'NONE', ( #243 ), #87 ) ;
#62 = FILL_AREA_STYLE ('',( #278 ) ) ;
#63 = FACE_OUTER_BOUND ( 'NONE', #207, .T. ) ;
#64 = CARTESIAN_POINT ( 'NONE',  ( -1.224646799147353207E-16, 5.000000000000000000, 0.000000000000000000 ) ) ;
#65 = EDGE_LOOP ( 'NONE', ( #9, #227, #192, #182 ) ) ;
#66 = AXIS2_PLACEMENT_3D ( 'NONE', #92, #241, #49 ) ;
#67 =( GEOMETRIC_REPRESENTATION_CONTEXT ( 3 ) GLOBAL_UNCERTAINTY_ASSIGNED_CONTEXT ( ( #233 ) ) GLOBAL_UNIT_ASSIGNED_CONTEXT ( ( #39, #234, #191 ) ) REPRESENTATION_CONTEXT ( 'NONE', 'WORKASPACE' ) );
#68 = DIMENSIONAL_EXPONENTS ( 1.000000000000000000, 0.000000000000000000, 0.000000000000000000, 0.000000000000000000, 0.000000000000000000, 0.000000000000000000, 0.000000000000000000 ) ;
#69 =( NAMED_UNIT ( * ) SI_UNIT ( $, .STERADIAN. ) SOLID_ANGLE_UNIT ( ) );
#70 = LENGTH_MEASURE_WITH_UNIT ( LENGTH_MEASURE( 0.02539999999999999897 ), #173 );
#71 = CIRCLE ( 'NONE', #113, 0.1875000000000001388 ) ;
#72 = PLANE ( 'NONE',  #66 ) ;
#73 =( LENGTH_UNIT ( ) NAMED_UNIT ( * ) SI_UNIT ( $, .METRE. ) );
#74 = PLANE ( 'NONE',  #305 ) ;
#75 = DIRECTION ( 'NONE',  ( -1.000000000000000000, 0.000000000000000000, 0.000000000000000000 ) ) ;
#76 = EDGE_LOOP ( 'NONE', ( #154, #46 ) ) ;
#77 = ORIENTED_EDGE ( 'NONE', *, *, #153, .F. ) ;
#78 = MECHANICAL_DESIGN_GEOMETRIC_PRESENTATION_REPRESENTATION (  '', ( #100 ), #160 ) ;
#79 = LENGTH_MEASURE_WITH_UNIT ( LENGTH_MEASURE( 0.02539999999999999897 ), #273 );
#80 = ORIENTED_EDGE ( 'NONE', *, *, #153, .T. ) ;
#81 = ADVANCED_FACE ( 'NONE', ( #122 ), #72, .F. ) ;
#82 = FILL_AREA_STYLE ('',( #158 ) ) ;
#83 =( LENGTH_UNIT ( ) NAMED_UNIT ( * ) SI_UNIT ( $, .METRE. ) );
#84 = CLOSED_SHELL ( 'NONE', ( #7, #81, #93, #29 ) ) ;
#85 = SHAPE_DEFINITION_REPRESENTATION ( #276, #31 ) ;
#86 = FILL_AREA_STYLE_COLOUR ( '', #185 ) ;
#87 = ADVANCED_FACE ( 'NONE', ( #145 ), #74, .T. ) ;
#88 = DIRECTION ( 'NONE',  ( 0.000000000000000000, 0.000000000000000000, -1.000000000000000000 ) ) ;
#89 = AXIS2_PLACEMENT_3D ( 'NONE', #2, #96, #246 ) ;
#90 = DIRECTION ( 'NONE',  ( -0.000000000000000000, -1.000000000000000000, -0.000000000000000000 ) ) ;
#91 = SURFACE_STYLE_FILL_AREA ( #286 ) ;
#92 = CARTESIAN_POINT ( 'NONE',  ( 2.249639673992786583E-34, 2.500000000000000000, 0.000000000000000000 ) ) ;
#93 = ADVANCED_FACE ( 'NONE', ( #219 ), #200, .T. ) ;
#94 = CARTESIAN_POINT ( 'NONE',  ( 0.000000000000000000, 2.500000000000000000, -0.1875000000000000278 ) ) ;
#95 = DIRECTION ( 'NONE',  ( -0.000000000000000000, -1.000000000000000000, -0.000000000000000000 ) ) ;
#96 = DIRECTION ( 'NONE',  ( -4.898587196589413075E-17, 1.000000000000000000, -0.000000000000000000 ) ) ;
#97 = EDGE_CURVE ( 'NONE', #12, #132, #197, .T. ) ;
#98 = VERTEX_POINT ( 'NONE', #47 ) ;
#99 = PLANE ( 'NONE',  #32 ) ;
#100 = STYLED_ITEM ( 'NONE', ( #189 ), #1 ) ;
#101 = STYLED_ITEM ( 'NONE', ( #240 ), #275 ) ;
#102 = SURFACE_STYLE_FILL_AREA ( #106 ) ;
#103 = EDGE_LOOP ( 'NONE', ( #36, #259 ) ) ;
#104 =( NAMED_UNIT ( * ) SI_UNIT ( $, .STERADIAN. ) SOLID_ANGLE_UNIT ( ) );
#105 = UNCERTAINTY_MEASURE_WITH_UNIT (LENGTH_MEASURE( 1.000000000000000082E-05 ), #270, 'distance_accuracy_value', 'NONE');
#106 = FILL_AREA_STYLE ('',( #109 ) ) ;
#107 = CIRCLE ( 'NONE', #157, 0.1875000000000000278 ) ;
#108 = FACE_OUTER_BOUND ( 'NONE', #65, .T. ) ;
#109 = FILL_AREA_STYLE_COLOUR ( '', #237 ) ;
#110 = LENGTH_MEASURE_WITH_UNIT ( LENGTH_MEASURE( 0.02539999999999999897 ), #210 );
#111 = DIRECTION ( 'NONE',  ( -4.898587196589413075E-17, 1.000000000000000000, -0.000000000000000000 ) ) ;
#112 = ORIENTED_EDGE ( 'NONE', *, *, #225, .T. ) ;
#113 = AXIS2_PLACEMENT_3D ( 'NONE', #30, #297, #6 ) ;
#114 = PRODUCT_DEFINITION_CONTEXT ( 'detailed design', #212, 'design' ) ;
#115 =( NAMED_UNIT ( * ) PLANE_ANGLE_UNIT ( ) SI_UNIT ( $, .RADIAN. ) );
#116 = ORIENTED_EDGE ( 'NONE', *, *, #13, .T. ) ;
#117 = VERTEX_POINT ( 'NONE', #94 ) ;
#118 = DIMENSIONAL_EXPONENTS ( 1.000000000000000000, 0.000000000000000000, 0.000000000000000000, 0.000000000000000000, 0.000000000000000000, 0.000000000000000000, 0.000000000000000000 ) ;
#119 = APPLICATION_PROTOCOL_DEFINITION ( 'draft international standard', 'automotive_design', 1998, #212 ) ;
#120 = EDGE_CURVE ( 'NONE', #117, #136, #150, .T. ) ;
#121 = DIRECTION ( 'NONE',  ( 0.000000000000000000, 0.000000000000000000, -1.000000000000000000 ) ) ;
#122 = FACE_OUTER_BOUND ( 'NONE', #169, .T. ) ;
#123 = UNCERTAINTY_MEASURE_WITH_UNIT (LENGTH_MEASURE( 1.000000000000000082E-05 ), #301, 'distance_accuracy_value', 'NONE');
#124 = FILL_AREA_STYLE_COLOUR ( '', #125 ) ;
#125 = COLOUR_RGB ( '',1.000000000000000000, 0.000000000000000000, 0.000000000000000000 ) ;
#126 = STYLED_ITEM ( 'NONE', ( #204 ), #268 ) ;
#127 = CARTESIAN_POINT ( 'NONE',  ( 2.296212748401287726E-17, 0.000000000000000000, 0.1875000000000000278 ) ) ;
#128 = SURFACE_SIDE_STYLE ('',( #221 ) ) ;
#129 =( CONVERSION_BASED_UNIT ( 'INCH', #188 ) LENGTH_UNIT ( ) NAMED_UNIT ( #144 ) );
#130 = MECHANICAL_DESIGN_GEOMETRIC_PRESENTATION_REPRESENTATION (  '', ( #101 ), #298 ) ;
#131 = CARTESIAN_POINT ( 'NONE',  ( 0.000000000000000000, 2.500000000000000000, 0.000000000000000000 ) ) ;
#132 = VERTEX_POINT ( 'NONE', #195 ) ;
#133 = VECTOR ( 'NONE', #4, 39.37007874015748143 ) ;
#134 = ORIENTED_EDGE ( 'NONE', *, *, #287, .T. ) ;
#135 = DIRECTION ( 'NONE',  ( -1.000000000000000000, 0.000000000000000000, 0.000000000000000000 ) ) ;
#136 = VERTEX_POINT ( 'NONE', #307 ) ;
#137 = CIRCLE ( 'NONE', #277, 0.1875000000000000278 ) ;
#138 = PRESENTATION_LAYER_ASSIGNMENT (  '', '', ( #126 ) ) ;
#139 = CARTESIAN_POINT ( 'NONE',  ( 0.000000000000000000, 0.000000000000000000, 0.000000000000000000 ) ) ;
#140 = EDGE_LOOP ( 'NONE', ( #18, #80, #116, #57 ) ) ;
#141 = DIMENSIONAL_EXPONENTS ( 1.000000000000000000, 0.000000000000000000, 0.000000000000000000, 0.000000000000000000, 0.000000000000000000, 0.000000000000000000, 0.000000000000000000 ) ;
#142 = APPLICATION_PROTOCOL_DEFINITION ( 'draft international standard', 'automotive_design', 1998, #184 ) ;
#143 = ORIENTED_EDGE ( 'NONE', *, *, #230, .T. ) ;
#144 = DIMENSIONAL_EXPONENTS ( 1.000000000000000000, 0.000000000000000000, 0.000000000000000000, 0.000000000000000000, 0.000000000000000000, 0.000000000000000000, 0.000000000000000000 ) ;
#145 = FACE_OUTER_BOUND ( 'NONE', #103, .T. ) ;
#146 = CIRCLE ( 'NONE', #299, 0.1875000000000000278 ) ;
#147 = DIRECTION ( 'NONE',  ( -0.000000000000000000, -1.000000000000000000, -0.000000000000000000 ) ) ;
#148 = CYLINDRICAL_SURFACE ( 'NONE', #172, 0.1875000000000000278 ) ;
#149 = DIRECTION ( 'NONE',  ( 0.000000000000000000, 0.000000000000000000, -1.000000000000000000 ) ) ;
#150 = CIRCLE ( 'NONE', #267, 0.1875000000000000278 ) ;
#151 = PRESENTATION_STYLE_ASSIGNMENT (( #3 ) ) ;
#152 =( LENGTH_UNIT ( ) NAMED_UNIT ( * ) SI_UNIT ( $, .METRE. ) );
#153 = EDGE_CURVE ( 'NONE', #132, #12, #251, .T. ) ;
#154 = ORIENTED_EDGE ( 'NONE', *, *, #120, .F. ) ;
#155 = PRESENTATION_STYLE_ASSIGNMENT (( #54 ) ) ;
#156 = VECTOR ( 'NONE', #250, 39.37007874015748143 ) ;
#157 = AXIS2_PLACEMENT_3D ( 'NONE', #131, #183, #181 ) ;
#158 = FILL_AREA_STYLE_COLOUR ( '', #179 ) ;
#159 =( NAMED_UNIT ( * ) PLANE_ANGLE_UNIT ( ) SI_UNIT ( $, .RADIAN. ) );
#160 =( GEOMETRIC_REPRESENTATION_CONTEXT ( 3 ) GLOBAL_UNCERTAINTY_ASSIGNED_CONTEXT ( ( #123 ) ) GLOBAL_UNIT_ASSIGNED_CONTEXT ( ( #301, #281, #255 ) ) REPRESENTATION_CONTEXT ( 'NONE', 'WORKASPACE' ) );
#161 =( NAMED_UNIT ( * ) SI_UNIT ( $, .STERADIAN. ) SOLID_ANGLE_UNIT ( ) );
#162 = PRODUCT ( '00407', '00407', '', ( #19 ) ) ;
#163 = CARTESIAN_POINT ( 'NONE',  ( -0.1875000000000000278, 2.500000000000000000, 0.000000000000000000 ) ) ;
#164 = FILL_AREA_STYLE ('',( #86 ) ) ;
#165 = UNCERTAINTY_MEASURE_WITH_UNIT (LENGTH_MEASURE( 1.000000000000000082E-05 ), #129, 'distance_accuracy_value', 'NONE');
#166 = AXIS2_PLACEMENT_3D ( 'NONE', #288, #247, #170 ) ;
#167 = VECTOR ( 'NONE', #90, 39.37007874015748143 ) ;
#168 = SURFACE_STYLE_FILL_AREA ( #62 ) ;
#169 = EDGE_LOOP ( 'NONE', ( #232, #77 ) ) ;
#170 = DIRECTION ( 'NONE',  ( -1.000000000000000000, 0.000000000000000000, 0.000000000000000000 ) ) ;
#171 = DIMENSIONAL_EXPONENTS ( 1.000000000000000000, 0.000000000000000000, 0.000000000000000000, 0.000000000000000000, 0.000000000000000000, 0.000000000000000000, 0.000000000000000000 ) ;
#172 = AXIS2_PLACEMENT_3D ( 'NONE', #174, #245, #121 ) ;
#173 =( LENGTH_UNIT ( ) NAMED_UNIT ( * ) SI_UNIT ( $, .METRE. ) );
#174 = CARTESIAN_POINT ( 'NONE',  ( 0.000000000000000000, 0.000000000000000000, 0.000000000000000000 ) ) ;
#175 = EDGE_CURVE ( 'NONE', #187, #58, #146, .T. ) ;
#176 = CARTESIAN_POINT ( 'NONE',  ( 0.000000000000000000, 0.000000000000000000, 0.000000000000000000 ) ) ;
#177 = UNCERTAINTY_MEASURE_WITH_UNIT (LENGTH_MEASURE( 1.000000000000000082E-05 ), #290, 'distance_accuracy_value', 'NONE');
#178 = DIRECTION ( 'NONE',  ( 0.000000000000000000, 0.000000000000000000, -1.000000000000000000 ) ) ;
#179 = COLOUR_RGB ( '',1.000000000000000000, 0.000000000000000000, 0.000000000000000000 ) ;
#180 = ADVANCED_FACE ( 'NONE', ( #265 ), #148, .T. ) ;
#181 = DIRECTION ( 'NONE',  ( 0.000000000000000000, 0.000000000000000000, -1.000000000000000000 ) ) ;
#182 = ORIENTED_EDGE ( 'NONE', *, *, #175, .F. ) ;
#183 = DIRECTION ( 'NONE',  ( -0.000000000000000000, -1.000000000000000000, -0.000000000000000000 ) ) ;
#184 = APPLICATION_CONTEXT ( 'automotive_design' ) ;
#185 = COLOUR_RGB ( '',1.000000000000000000, 0.000000000000000000, 0.000000000000000000 ) ;
#186 = AXIS2_PLACEMENT_3D ( 'NONE', #64, #11, #41 ) ;
#187 = VERTEX_POINT ( 'NONE', #127 ) ;
#188 = LENGTH_MEASURE_WITH_UNIT ( LENGTH_MEASURE( 0.02539999999999999897 ), #152 );
#189 = PRESENTATION_STYLE_ASSIGNMENT (( #10 ) ) ;
#190 = CYLINDRICAL_SURFACE ( 'NONE', #5, 0.1875000000000000278 ) ;
#191 =( NAMED_UNIT ( * ) SI_UNIT ( $, .STERADIAN. ) SOLID_ANGLE_UNIT ( ) );
#192 = ORIENTED_EDGE ( 'NONE', *, *, #198, .T. ) ;
#193 =( GEOMETRIC_REPRESENTATION_CONTEXT ( 3 ) GLOBAL_UNCERTAINTY_ASSIGNED_CONTEXT ( ( #51 ) ) GLOBAL_UNIT_ASSIGNED_CONTEXT ( ( #293, #28, #199 ) ) REPRESENTATION_CONTEXT ( 'NONE', 'WORKASPACE' ) );
#194 = SURFACE_STYLE_USAGE ( .BOTH. , #216 ) ;
#195 = CARTESIAN_POINT ( 'NONE',  ( 0.1875000000000000278, 2.500000000000000000, 2.296212748401288650E-17 ) ) ;
#196 = DIRECTION ( 'NONE',  ( -0.000000000000000000, -1.000000000000000000, -0.000000000000000000 ) ) ;
#197 = CIRCLE ( 'NONE', #55, 0.1875000000000000278 ) ;
#198 = EDGE_CURVE ( 'NONE', #117, #58, #289, .T. ) ;
#199 =( NAMED_UNIT ( * ) SI_UNIT ( $, .STERADIAN. ) SOLID_ANGLE_UNIT ( ) );
#200 = CYLINDRICAL_SURFACE ( 'NONE', #89, 0.1875000000000000833 ) ;
#201 = AXIS2_PLACEMENT_3D ( 'NONE', #231, #111, #135 ) ;
#202 = PRODUCT_DEFINITION ( 'UNKNOWN', '', #306, #114 ) ;
#203 = MECHANICAL_DESIGN_GEOMETRIC_PRESENTATION_REPRESENTATION (  '', ( #8 ), #193 ) ;
#204 = PRESENTATION_STYLE_ASSIGNMENT (( #252 ) ) ;
#205 = ORIENTED_EDGE ( 'NONE', *, *, #120, .T. ) ;
#206 = LENGTH_MEASURE_WITH_UNIT ( LENGTH_MEASURE( 0.02539999999999999897 ), #260 );
#207 = EDGE_LOOP ( 'NONE', ( #284, #143, #295, #238 ) ) ;
#208 = DIRECTION ( 'NONE',  ( 1.000000000000000000, 0.000000000000000000, 0.000000000000000000 ) ) ;
#209 = EDGE_LOOP ( 'NONE', ( #205, #134, #223, #253 ) ) ;
#210 =( LENGTH_UNIT ( ) NAMED_UNIT ( * ) SI_UNIT ( $, .METRE. ) );
#211 = SURFACE_SIDE_STYLE ('',( #38 ) ) ;
#212 = APPLICATION_CONTEXT ( 'automotive_design' ) ;
#213 = ADVANCED_FACE ( 'NONE', ( #220 ), #99, .T. ) ;
#214 = SURFACE_SIDE_STYLE ('',( #168 ) ) ;
#215 = EDGE_LOOP ( 'NONE', ( #112, #300 ) ) ;
#216 = SURFACE_SIDE_STYLE ('',( #91 ) ) ;
#217 = CARTESIAN_POINT ( 'NONE',  ( 0.000000000000000000, 0.000000000000000000, 0.000000000000000000 ) ) ;
#218 = PLANE ( 'NONE',  #43 ) ;
#219 = FACE_OUTER_BOUND ( 'NONE', #140, .T. ) ;
#220 = FACE_OUTER_BOUND ( 'NONE', #76, .T. ) ;
#221 = SURFACE_STYLE_FILL_AREA ( #249 ) ;
#222 = CARTESIAN_POINT ( 'NONE',  ( 0.000000000000000000, 0.000000000000000000, -0.1875000000000000278 ) ) ;
#223 = ORIENTED_EDGE ( 'NONE', *, *, #60, .F. ) ;
#224 = SURFACE_SIDE_STYLE ('',( #296 ) ) ;
#225 = EDGE_CURVE ( 'NONE', #98, #269, #71, .T. ) ;
#226 = DIRECTION ( 'NONE',  ( 0.000000000000000000, -0.000000000000000000, 1.000000000000000000 ) ) ;
#227 = ORIENTED_EDGE ( 'NONE', *, *, #248, .T. ) ;
#228 =( GEOMETRIC_REPRESENTATION_CONTEXT ( 3 ) GLOBAL_UNCERTAINTY_ASSIGNED_CONTEXT ( ( #105 ) ) GLOBAL_UNIT_ASSIGNED_CONTEXT ( ( #270, #33, #271 ) ) REPRESENTATION_CONTEXT ( 'NONE', 'WORKASPACE' ) );
#229 = SURFACE_SIDE_STYLE ('',( #102 ) ) ;
#230 = EDGE_CURVE ( 'NONE', #132, #269, #53, .T. ) ;
#231 = CARTESIAN_POINT ( 'NONE',  ( -1.224646799147353207E-16, 5.000000000000000000, 0.000000000000000000 ) ) ;
#232 = ORIENTED_EDGE ( 'NONE', *, *, #97, .F. ) ;
#233 = UNCERTAINTY_MEASURE_WITH_UNIT (LENGTH_MEASURE( 1.000000000000000082E-05 ), #39, 'distance_accuracy_value', 'NONE');
#234 =( NAMED_UNIT ( * ) PLANE_ANGLE_UNIT ( ) SI_UNIT ( $, .RADIAN. ) );
#235 = CARTESIAN_POINT ( 'NONE',  ( 0.000000000000000000, 0.000000000000000000, 0.000000000000000000 ) ) ;
#236 = PRESENTATION_LAYER_ASSIGNMENT (  '', '', ( #59 ) ) ;
#237 = COLOUR_RGB ( '',0.7921568627450980005, 0.8196078431372548767, 0.9333333333333333481 ) ;
#238 = ORIENTED_EDGE ( 'NONE', *, *, #13, .F. ) ;
#239 = DIMENSIONAL_EXPONENTS ( 1.000000000000000000, 0.000000000000000000, 0.000000000000000000, 0.000000000000000000, 0.000000000000000000, 0.000000000000000000, 0.000000000000000000 ) ;
#240 = PRESENTATION_STYLE_ASSIGNMENT (( #283 ) ) ;
#241 = DIRECTION ( 'NONE',  ( -4.898587196589412459E-17, 1.000000000000000000, 0.000000000000000000 ) ) ;
#242 = LINE ( 'NONE', #256, #167 ) ;
#243 = PRESENTATION_STYLE_ASSIGNMENT (( #194 ) ) ;
#244 =( GEOMETRIC_REPRESENTATION_CONTEXT ( 3 ) GLOBAL_UNCERTAINTY_ASSIGNED_CONTEXT ( ( #177 ) ) GLOBAL_UNIT_ASSIGNED_CONTEXT ( ( #290, #23, #69 ) ) REPRESENTATION_CONTEXT ( 'NONE', 'WORKASPACE' ) );
#245 = DIRECTION ( 'NONE',  ( -0.000000000000000000, -1.000000000000000000, -0.000000000000000000 ) ) ;
#246 = DIRECTION ( 'NONE',  ( -1.000000000000000000, 0.000000000000000000, 0.000000000000000000 ) ) ;
#247 = DIRECTION ( 'NONE',  ( -4.898587196589413075E-17, 1.000000000000000000, -0.000000000000000000 ) ) ;
#248 = EDGE_CURVE ( 'NONE', #136, #117, #107, .T. ) ;
#249 = FILL_AREA_STYLE ('',( #124 ) ) ;
#250 = DIRECTION ( 'NONE',  ( -4.898587196589412459E-17, 1.000000000000000000, -0.000000000000000000 ) ) ;
#251 = CIRCLE ( 'NONE', #166, 0.1875000000000000278 ) ;
#252 = SURFACE_STYLE_USAGE ( .BOTH. , #229 ) ;
#253 = ORIENTED_EDGE ( 'NONE', *, *, #198, .F. ) ;
#254 = DIRECTION ( 'NONE',  ( 0.000000000000000000, 1.000000000000000000, 0.000000000000000000 ) ) ;
#255 =( NAMED_UNIT ( * ) SI_UNIT ( $, .STERADIAN. ) SOLID_ANGLE_UNIT ( ) );
#256 = CARTESIAN_POINT ( 'NONE',  ( 2.296212748401287726E-17, 0.000000000000000000, 0.1875000000000000278 ) ) ;
#257 = LENGTH_MEASURE_WITH_UNIT ( LENGTH_MEASURE( 0.02539999999999999897 ), #83 );
#258 = VECTOR ( 'NONE', #282, 39.37007874015748143 ) ;
#259 = ORIENTED_EDGE ( 'NONE', *, *, #175, .T. ) ;
#260 =( LENGTH_UNIT ( ) NAMED_UNIT ( * ) SI_UNIT ( $, .METRE. ) );
#261 = DIRECTION ( 'NONE',  ( -4.898587196589413075E-17, 1.000000000000000000, -0.000000000000000000 ) ) ;
#262 = CARTESIAN_POINT ( 'NONE',  ( 0.000000000000000000, 0.000000000000000000, 0.000000000000000000 ) ) ;
#263 = MECHANICAL_DESIGN_GEOMETRIC_PRESENTATION_REPRESENTATION (  '', ( #61 ), #244 ) ;
#264 = DIRECTION ( 'NONE',  ( 0.000000000000000000, 0.000000000000000000, -1.000000000000000000 ) ) ;
#265 = FACE_OUTER_BOUND ( 'NONE', #209, .T. ) ;
#266 = DIRECTION ( 'NONE',  ( 4.898587196589412459E-17, -1.000000000000000000, 0.000000000000000000 ) ) ;
#267 = AXIS2_PLACEMENT_3D ( 'NONE', #50, #196, #178 ) ;
#268 = MANIFOLD_SOLID_BREP ( 'Revolve - Cutting Edge', #21 ) ;
#269 = VERTEX_POINT ( 'NONE', #303 ) ;
#270 =( CONVERSION_BASED_UNIT ( 'INCH', #79 ) LENGTH_UNIT ( ) NAMED_UNIT ( #22 ) );
#271 =( NAMED_UNIT ( * ) SI_UNIT ( $, .STERADIAN. ) SOLID_ANGLE_UNIT ( ) );
#272 =( GEOMETRIC_REPRESENTATION_CONTEXT ( 3 ) GLOBAL_UNCERTAINTY_ASSIGNED_CONTEXT ( ( #165 ) ) GLOBAL_UNIT_ASSIGNED_CONTEXT ( ( #129, #159, #104 ) ) REPRESENTATION_CONTEXT ( 'NONE', 'WORKASPACE' ) );
#273 =( LENGTH_UNIT ( ) NAMED_UNIT ( * ) SI_UNIT ( $, .METRE. ) );
#274 = EDGE_CURVE ( 'NONE', #269, #98, #44, .T. ) ;
#275 = MANIFOLD_SOLID_BREP ( 'Revolve - Tool Body (Straight Shanked)', #84 ) ;
#276 = PRODUCT_DEFINITION_SHAPE ( 'NONE', 'NONE',  #202 ) ;
#277 = AXIS2_PLACEMENT_3D ( 'NONE', #217, #95, #149 ) ;
#278 = FILL_AREA_STYLE_COLOUR ( '', #34 ) ;
#279 = MECHANICAL_DESIGN_GEOMETRIC_PRESENTATION_REPRESENTATION (  '', ( #126 ), #228 ) ;
#280 = UNCERTAINTY_MEASURE_WITH_UNIT (LENGTH_MEASURE( 1.000000000000000082E-05 ), #15, 'distance_accuracy_value', 'NONE');
#281 =( NAMED_UNIT ( * ) PLANE_ANGLE_UNIT ( ) SI_UNIT ( $, .RADIAN. ) );
#282 = DIRECTION ( 'NONE',  ( -4.898587196589412459E-17, 1.000000000000000000, -0.000000000000000000 ) ) ;
#283 = SURFACE_STYLE_USAGE ( .BOTH. , #214 ) ;
#284 = ORIENTED_EDGE ( 'NONE', *, *, #97, .T. ) ;
#285 = DIRECTION ( 'NONE',  ( 0.000000000000000000, 0.000000000000000000, 1.000000000000000000 ) ) ;
#286 = FILL_AREA_STYLE ('',( #20 ) ) ;
#287 = EDGE_CURVE ( 'NONE', #136, #187, #242, .T. ) ;
#288 = CARTESIAN_POINT ( 'NONE',  ( 1.516480271171051896E-32, 2.500000000000000000, 0.000000000000000000 ) ) ;
#289 = LINE ( 'NONE', #222, #133 ) ;
#290 =( CONVERSION_BASED_UNIT ( 'INCH', #70 ) LENGTH_UNIT ( ) NAMED_UNIT ( #141 ) );
#291 = COLOUR_RGB ( '',1.000000000000000000, 0.000000000000000000, 0.000000000000000000 ) ;
#292 = CARTESIAN_POINT ( 'NONE',  ( 1.516480271171051896E-32, 2.500000000000000000, 0.000000000000000000 ) ) ;
#293 =( CONVERSION_BASED_UNIT ( 'INCH', #294 ) LENGTH_UNIT ( ) NAMED_UNIT ( #239 ) );
#294 = LENGTH_MEASURE_WITH_UNIT ( LENGTH_MEASURE( 0.02539999999999999897 ), #73 );
#295 = ORIENTED_EDGE ( 'NONE', *, *, #225, .F. ) ;
#296 = SURFACE_STYLE_FILL_AREA ( #82 ) ;
#297 = DIRECTION ( 'NONE',  ( -4.898587196589413075E-17, 1.000000000000000000, -0.000000000000000000 ) ) ;
#298 =( GEOMETRIC_REPRESENTATION_CONTEXT ( 3 ) GLOBAL_UNCERTAINTY_ASSIGNED_CONTEXT ( ( #280 ) ) GLOBAL_UNIT_ASSIGNED_CONTEXT ( ( #15, #115, #161 ) ) REPRESENTATION_CONTEXT ( 'NONE', 'WORKASPACE' ) );
#299 = AXIS2_PLACEMENT_3D ( 'NONE', #262, #147, #264 ) ;
#300 = ORIENTED_EDGE ( 'NONE', *, *, #274, .T. ) ;
#301 =( CONVERSION_BASED_UNIT ( 'INCH', #257 ) LENGTH_UNIT ( ) NAMED_UNIT ( #68 ) );
#302 = DIRECTION ( 'NONE',  ( -0.000000000000000000, -1.000000000000000000, -0.000000000000000000 ) ) ;
#303 = CARTESIAN_POINT ( 'NONE',  ( 0.1875000000000000278, 5.000000000000000000, 2.296212748401288650E-17 ) ) ;
#304 = CARTESIAN_POINT ( 'NONE',  ( 0.000000000000000000, 0.000000000000000000, -0.1875000000000000278 ) ) ;
#305 = AXIS2_PLACEMENT_3D ( 'NONE', #176, #25, #24 ) ;
#306 = PRODUCT_DEFINITION_FORMATION_WITH_SPECIFIED_SOURCE ( 'ANY', '', #162, .NOT_KNOWN. ) ;
#307 = CARTESIAN_POINT ( 'NONE',  ( 2.296212748401287726E-17, 2.500000000000000000, 0.1875000000000000278 ) ) ;
#308 = DIRECTION ( 'NONE',  ( 1.000000000000000000, 4.898587196589412459E-17, 0.000000000000000000 ) ) ;
#309 = PRESENTATION_LAYER_ASSIGNMENT (  '', '', ( #61 ) ) ;
ENDSEC;
END-ISO-10303-21;
