ISO-10303-21;
HEADER;
FILE_DESCRIPTION (( 'STEP AP214' ),
    '1' );
FILE_NAME ('Micro_DM-312-4120X.STEP',
    '2021-09-02T16:03:15',
    ( '' ),
    ( '' ),
    'SwSTEP 2.0',
    'SolidWorks 2020',
    '' );
FILE_SCHEMA (( 'AUTOMOTIVE_DESIGN' ));
ENDSEC;

DATA;
#1 = FACE_OUTER_BOUND ( 'NONE', #274, .T. ) ;
#2 = CARTESIAN_POINT ( 'NONE',  ( -0.1562000000000000888, 0.0000000000000000000, 0.8129999999999999449 ) ) ;
#3 = CIRCLE ( 'NONE', #316, 0.1562500000000000000 ) ;
#4 = CARTESIAN_POINT ( 'NONE',  ( 0.0000000000000000000, 0.0000000000000000000, 0.0000000000000000000 ) ) ;
#5 = PLANE ( 'NONE',  #317 ) ;
#6 = PRODUCT_DEFINITION_CONTEXT ( 'detailed design', #80, 'design' ) ;
#7 = LINE ( 'NONE', #113, #121 ) ;
#8 = CYLINDRICAL_SURFACE ( 'NONE', #258, 0.1562000000000000333 ) ;
#9 = ADVANCED_FACE ( 'NONE', ( #320 ), #294, .T. ) ;
#10 = FACE_OUTER_BOUND ( 'NONE', #223, .T. ) ;
#11 = AXIS2_PLACEMENT_3D ( 'NONE', #173, #150, #90 ) ;
#12 = DIRECTION ( 'NONE',  ( 0.0000000000000000000, 0.0000000000000000000, 1.000000000000000000 ) ) ;
#13 = MANIFOLD_SOLID_BREP ( 'Cut-Revolve4', #72 ) ;
#14 = EDGE_CURVE ( 'NONE', #184, #299, #170, .T. ) ;
#15 = PRODUCT_DEFINITION_SHAPE ( 'NONE', 'NONE',  #176 ) ;
#16 = ORIENTED_EDGE ( 'NONE', *, *, #221, .T. ) ;
#17 = LINE ( 'NONE', #242, #188 ) ;
#18 = AXIS2_PLACEMENT_3D ( 'NONE', #43, #174, #148 ) ;
#19 = CONICAL_SURFACE ( 'NONE', #226, 0.1412499999999994871, 0.7853981633974391752 ) ;
#20 = ADVANCED_FACE ( 'NONE', ( #241 ), #105, .T. ) ;
#21 = CARTESIAN_POINT ( 'NONE',  ( -0.007499999999999999722, 1.002373405102108630E-17, 1.707404996040164512E-17 ) ) ;
#22 = ORIENTED_EDGE ( 'NONE', *, *, #166, .T. ) ;
#23 = UNCERTAINTY_MEASURE_WITH_UNIT (LENGTH_MEASURE( 1.000000000000000082E-05 ), #172, 'distance_accuracy_value', 'NONE');
#24 = CARTESIAN_POINT ( 'NONE',  ( 0.0000000000000000000, 0.0000000000000000000, 2.500000000000000000 ) ) ;
#25 = EDGE_LOOP ( 'NONE', ( #264, #194 ) ) ;
#26 = CARTESIAN_POINT ( 'NONE',  ( 0.1562500000000000000, 1.913510623667739463E-17, 2.484999999999999432 ) ) ;
#27 = EDGE_CURVE ( 'NONE', #37, #222, #141, .T. ) ;
#28 = ORIENTED_EDGE ( 'NONE', *, *, #310, .T. ) ;
#29 = DIRECTION ( 'NONE',  ( 1.000000000000000000, 0.0000000000000000000, 0.0000000000000000000 ) ) ;
#30 = VERTEX_POINT ( 'NONE', #120 ) ;
#31 = CARTESIAN_POINT ( 'NONE',  ( 0.0000000000000000000, 0.0000000000000000000, 0.8129999999999997229 ) ) ;
#32 = VERTEX_POINT ( 'NONE', #21 ) ;
#33 = LINE ( 'NONE', #271, #171 ) ;
#34 = CIRCLE ( 'NONE', #322, 0.1562000000000000888 ) ;
#35 = DIRECTION ( 'NONE',  ( -0.0000000000000000000, -0.0000000000000000000, -1.000000000000000000 ) ) ;
#36 = FACE_OUTER_BOUND ( 'NONE', #325, .T. ) ;
#37 = VERTEX_POINT ( 'NONE', #217 ) ;
#38 = DIRECTION ( 'NONE',  ( -0.0000000000000000000, -0.0000000000000000000, -1.000000000000000000 ) ) ;
#39 = CIRCLE ( 'NONE', #135, 0.1412499999999994871 ) ;
#40 = APPLICATION_PROTOCOL_DEFINITION ( 'draft international standard', 'automotive_design', 1998, #136 ) ;
#41 = DIRECTION ( 'NONE',  ( -0.0000000000000000000, -0.0000000000000000000, -1.000000000000000000 ) ) ;
#42 =( NAMED_UNIT ( * ) PLANE_ANGLE_UNIT ( ) SI_UNIT ( $, .RADIAN. ) );
#43 = CARTESIAN_POINT ( 'NONE',  ( 0.0000000000000000000, 0.0000000000000000000, 2.484999999999999432 ) ) ;
#44 =( LENGTH_UNIT ( ) NAMED_UNIT ( * ) SI_UNIT ( $, .METRE. ) );
#45 = EDGE_CURVE ( 'NONE', #299, #184, #165, .T. ) ;
#46 = AXIS2_PLACEMENT_3D ( 'NONE', #233, #41, #309 ) ;
#47 = DIMENSIONAL_EXPONENTS ( 1.000000000000000000, 0.0000000000000000000, 0.0000000000000000000, 0.0000000000000000000, 0.0000000000000000000, 0.0000000000000000000, 0.0000000000000000000 ) ;
#48 = SURFACE_SIDE_STYLE ('',( #198 ) ) ;
#49 = DIRECTION ( 'NONE',  ( -0.0000000000000000000, -0.0000000000000000000, -1.000000000000000000 ) ) ;
#50 = EDGE_CURVE ( 'NONE', #92, #299, #196, .T. ) ;
#51 = DIRECTION ( 'NONE',  ( 1.000000000000000000, 0.0000000000000000000, 0.0000000000000000000 ) ) ;
#52 = AXIS2_PLACEMENT_3D ( 'NONE', #97, #54, #155 ) ;
#53 = ORIENTED_EDGE ( 'NONE', *, *, #267, .T. ) ;
#54 = DIRECTION ( 'NONE',  ( -0.0000000000000000000, -0.0000000000000000000, -1.000000000000000000 ) ) ;
#55 = ORIENTED_EDGE ( 'NONE', *, *, #77, .F. ) ;
#56 = DIRECTION ( 'NONE',  ( 0.0000000000000000000, 0.0000000000000000000, 1.000000000000000000 ) ) ;
#57 = ORIENTED_EDGE ( 'NONE', *, *, #262, .T. ) ;
#58 = CARTESIAN_POINT ( 'NONE',  ( 0.0000000000000000000, 0.0000000000000000000, 0.8129999999999997229 ) ) ;
#59 = DIRECTION ( 'NONE',  ( 0.0000000000000000000, 0.0000000000000000000, 1.000000000000000000 ) ) ;
#60 = FACE_OUTER_BOUND ( 'NONE', #324, .T. ) ;
#61 = CIRCLE ( 'NONE', #175, 0.1412499999999994871 ) ;
#62 = CARTESIAN_POINT ( 'NONE',  ( 0.1412499999999994871, 1.821662113731684786E-17, 2.500000000000000000 ) ) ;
#63 =( CONVERSION_BASED_UNIT ( 'INCH', #281 ) LENGTH_UNIT ( ) NAMED_UNIT ( #318 ) );
#64 = EDGE_CURVE ( 'NONE', #184, #180, #17, .T. ) ;
#65 =( LENGTH_UNIT ( ) NAMED_UNIT ( * ) SI_UNIT ( $, .METRE. ) );
#66 = PRODUCT ( 'Micro_DM-312-4120X', 'Micro_DM-312-4120X', '', ( #168 ) ) ;
#67 =( LENGTH_UNIT ( ) NAMED_UNIT ( * ) SI_UNIT ( $, .METRE. ) );
#68 = DIRECTION ( 'NONE',  ( 0.0000000000000000000, 0.0000000000000000000, -1.000000000000000000 ) ) ;
#69 =( NAMED_UNIT ( * ) SI_UNIT ( $, .STERADIAN. ) SOLID_ANGLE_UNIT ( ) );
#70 = AXIS2_PLACEMENT_3D ( 'NONE', #319, #12, #51 ) ;
#71 = PLANE ( 'NONE',  #253 ) ;
#72 = CLOSED_SHELL ( 'NONE', ( #250, #20, #9, #103, #131, #240, #302, #85, #154, #289, #182 ) ) ;
#73 = VERTEX_POINT ( 'NONE', #134 ) ;
#74 = FACE_OUTER_BOUND ( 'NONE', #227, .T. ) ;
#75 = DIRECTION ( 'NONE',  ( -0.0000000000000000000, 0.0000000000000000000, -1.000000000000000000 ) ) ;
#76 = FACE_OUTER_BOUND ( 'NONE', #158, .T. ) ;
#77 = EDGE_CURVE ( 'NONE', #180, #303, #285, .T. ) ;
#78 = VERTEX_POINT ( 'NONE', #2 ) ;
#79 = DIRECTION ( 'NONE',  ( 0.0000000000000000000, 0.0000000000000000000, 1.000000000000000000 ) ) ;
#80 = APPLICATION_CONTEXT ( 'automotive_design' ) ;
#81 = DIRECTION ( 'NONE',  ( -1.000000000000000000, 0.0000000000000000000, 0.0000000000000000000 ) ) ;
#82 = VECTOR ( 'NONE', #108, 39.37007874015748143 ) ;
#83 = CARTESIAN_POINT ( 'NONE',  ( 0.0000000000000000000, 0.0000000000000000000, 2.500000000000000000 ) ) ;
#84 = LENGTH_MEASURE_WITH_UNIT ( LENGTH_MEASURE( 0.02539999999999999897 ), #67 );
#85 = ADVANCED_FACE ( 'NONE', ( #102, #247 ), #249, .T. ) ;
#86 = DIMENSIONAL_EXPONENTS ( 1.000000000000000000, 0.0000000000000000000, 0.0000000000000000000, 0.0000000000000000000, 0.0000000000000000000, 0.0000000000000000000, 0.0000000000000000000 ) ;
#87 =( NAMED_UNIT ( * ) SI_UNIT ( $, .STERADIAN. ) SOLID_ANGLE_UNIT ( ) );
#88 = ORIENTED_EDGE ( 'NONE', *, *, #124, .F. ) ;
#89 = FILL_AREA_STYLE ('',( #114 ) ) ;
#90 = DIRECTION ( 'NONE',  ( 1.000000000000000000, 0.0000000000000000000, 0.0000000000000000000 ) ) ;
#91 = EDGE_CURVE ( 'NONE', #303, #180, #3, .T. ) ;
#92 = VERTEX_POINT ( 'NONE', #269 ) ;
#93 = VECTOR ( 'NONE', #167, 39.37007874015748143 ) ;
#94 = ORIENTED_EDGE ( 'NONE', *, *, #200, .F. ) ;
#95 = FILL_AREA_STYLE_COLOUR ( '', #140 ) ;
#96 = ORIENTED_EDGE ( 'NONE', *, *, #124, .T. ) ;
#97 = CARTESIAN_POINT ( 'NONE',  ( 0.0000000000000000000, 0.0000000000000000000, 1.707404996040164512E-17 ) ) ;
#98 =( GEOMETRIC_REPRESENTATION_CONTEXT ( 3 ) GLOBAL_UNCERTAINTY_ASSIGNED_CONTEXT ( ( #273 ) ) GLOBAL_UNIT_ASSIGNED_CONTEXT ( ( #63, #117, #69 ) ) REPRESENTATION_CONTEXT ( 'NONE', 'WORKASPACE' ) );
#99 = ORIENTED_EDGE ( 'NONE', *, *, #14, .T. ) ;
#100 = CARTESIAN_POINT ( 'NONE',  ( 0.0000000000000000000, 0.0000000000000000000, 2.500000000000000000 ) ) ;
#101 = ORIENTED_EDGE ( 'NONE', *, *, #145, .F. ) ;
#102 = FACE_BOUND ( 'NONE', #292, .T. ) ;
#103 = ADVANCED_FACE ( 'NONE', ( #161 ), #207, .T. ) ;
#104 = ORIENTED_EDGE ( 'NONE', *, *, #295, .T. ) ;
#105 = CONICAL_SURFACE ( 'NONE', #70, 0.007499999999999999722, 1.047197551196600296 ) ;
#106 = DIRECTION ( 'NONE',  ( -0.0000000000000000000, -0.0000000000000000000, -1.000000000000000000 ) ) ;
#107 = DIRECTION ( 'NONE',  ( -0.0000000000000000000, -0.0000000000000000000, -1.000000000000000000 ) ) ;
#108 = DIRECTION ( 'NONE',  ( -0.0000000000000000000, -0.0000000000000000000, -1.000000000000000000 ) ) ;
#109 = PRODUCT_RELATED_PRODUCT_CATEGORY ( 'part', '', ( #66 ) ) ;
#110 = AXIS2_PLACEMENT_3D ( 'NONE', #24, #228, #305 ) ;
#111 = CARTESIAN_POINT ( 'NONE',  ( 0.0000000000000000000, 0.0000000000000000000, 0.08585198502849683555 ) ) ;
#112 = DIRECTION ( 'NONE',  ( -0.0000000000000000000, -0.0000000000000000000, -1.000000000000000000 ) ) ;
#113 = CARTESIAN_POINT ( 'NONE',  ( 0.007499999999999999722, 0.0000000000000000000, 1.707404996040164512E-17 ) ) ;
#114 = FILL_AREA_STYLE_COLOUR ( '', #280 ) ;
#115 = CIRCLE ( 'NONE', #297, 0.1562000000000000888 ) ;
#116 = CARTESIAN_POINT ( 'NONE',  ( 0.0000000000000000000, 0.0000000000000000000, 2.500000000000000000 ) ) ;
#117 =( NAMED_UNIT ( * ) PLANE_ANGLE_UNIT ( ) SI_UNIT ( $, .RADIAN. ) );
#118 = CARTESIAN_POINT ( 'NONE',  ( 0.0000000000000000000, 0.0000000000000000000, 0.08585198502849683555 ) ) ;
#119 = DIRECTION ( 'NONE',  ( -0.0000000000000000000, -0.0000000000000000000, -1.000000000000000000 ) ) ;
#120 = CARTESIAN_POINT ( 'NONE',  ( 0.007499999999999999722, 0.0000000000000000000, 1.707404996040164512E-17 ) ) ;
#121 = VECTOR ( 'NONE', #279, 39.37007874015748143 ) ;
#122 = ORIENTED_EDGE ( 'NONE', *, *, #200, .T. ) ;
#123 = DIRECTION ( 'NONE',  ( -0.0000000000000000000, -0.0000000000000000000, -1.000000000000000000 ) ) ;
#124 = EDGE_CURVE ( 'NONE', #30, #32, #306, .T. ) ;
#125 = ORIENTED_EDGE ( 'NONE', *, *, #190, .T. ) ;
#126 = CARTESIAN_POINT ( 'NONE',  ( 0.0000000000000000000, 0.0000000000000000000, 2.500000000000000000 ) ) ;
#127 = PRESENTATION_LAYER_ASSIGNMENT (  '', '', ( #147 ) ) ;
#128 = EDGE_LOOP ( 'NONE', ( #276, #57, #156, #133 ) ) ;
#129 = DIRECTION ( 'NONE',  ( -0.0000000000000000000, -0.0000000000000000000, -1.000000000000000000 ) ) ;
#130 = ORIENTED_EDGE ( 'NONE', *, *, #166, .F. ) ;
#131 = ADVANCED_FACE ( 'NONE', ( #1 ), #159, .T. ) ;
#132 = DIRECTION ( 'NONE',  ( -1.000000000000000000, 0.0000000000000000000, 0.0000000000000000000 ) ) ;
#133 = ORIENTED_EDGE ( 'NONE', *, *, #50, .F. ) ;
#134 = CARTESIAN_POINT ( 'NONE',  ( 0.1562000000000000888, 1.912898300268166897E-17, 0.8129999999999999449 ) ) ;
#135 = AXIS2_PLACEMENT_3D ( 'NONE', #142, #144, #261 ) ;
#136 = APPLICATION_CONTEXT ( 'automotive_design' ) ;
#137 = DIRECTION ( 'NONE',  ( 0.0000000000000000000, 0.0000000000000000000, -1.000000000000000000 ) ) ;
#138 = UNCERTAINTY_MEASURE_WITH_UNIT (LENGTH_MEASURE( 1.000000000000000082E-05 ), #177, 'distance_accuracy_value', 'NONE');
#139 = LINE ( 'NONE', #278, #208 ) ;
#140 = COLOUR_RGB ( '',0.7921568627450980005, 0.8196078431372548767, 0.9333333333333333481 ) ;
#141 = CIRCLE ( 'NONE', #327, 0.1562000000000000055 ) ;
#142 = CARTESIAN_POINT ( 'NONE',  ( 0.0000000000000000000, 0.0000000000000000000, 2.500000000000000000 ) ) ;
#143 = CARTESIAN_POINT ( 'NONE',  ( 0.0000000000000000000, 0.0000000000000000000, 0.0000000000000000000 ) ) ;
#144 = DIRECTION ( 'NONE',  ( 0.0000000000000000000, 0.0000000000000000000, 1.000000000000000000 ) ) ;
#145 = EDGE_CURVE ( 'NONE', #78, #222, #210, .T. ) ;
#146 = FILL_AREA_STYLE ('',( #95 ) ) ;
#147 = STYLED_ITEM ( 'NONE', ( #315 ), #293 ) ;
#148 = DIRECTION ( 'NONE',  ( 1.000000000000000000, 0.0000000000000000000, 0.0000000000000000000 ) ) ;
#149 = DIRECTION ( 'NONE',  ( -0.7071067811865410224, 0.0000000000000000000, -0.7071067811865539010 ) ) ;
#150 = DIRECTION ( 'NONE',  ( 0.0000000000000000000, 0.0000000000000000000, -1.000000000000000000 ) ) ;
#151 = PRESENTATION_STYLE_ASSIGNMENT (( #199 ) ) ;
#152 = VECTOR ( 'NONE', #149, 39.37007874015748854 ) ;
#153 = ORIENTED_EDGE ( 'NONE', *, *, #50, .T. ) ;
#154 = ADVANCED_FACE ( 'NONE', ( #76 ), #179, .T. ) ;
#155 = DIRECTION ( 'NONE',  ( -1.000000000000000000, 0.0000000000000000000, 0.0000000000000000000 ) ) ;
#156 = ORIENTED_EDGE ( 'NONE', *, *, #45, .F. ) ;
#157 = DIRECTION ( 'NONE',  ( 1.000000000000000000, 0.0000000000000000000, -0.0000000000000000000 ) ) ;
#158 = EDGE_LOOP ( 'NONE', ( #230, #88, #53, #209 ) ) ;
#159 = CYLINDRICAL_SURFACE ( 'NONE', #110, 0.1562500000000000000 ) ;
#160 = CIRCLE ( 'NONE', #46, 0.007499999999999999722 ) ;
#161 = FACE_OUTER_BOUND ( 'NONE', #248, .T. ) ;
#162 = DIRECTION ( 'NONE',  ( -0.0000000000000000000, -0.0000000000000000000, -1.000000000000000000 ) ) ;
#163 = CARTESIAN_POINT ( 'NONE',  ( 0.0000000000000000000, 0.0000000000000000000, 0.8129999999999999449 ) ) ;
#164 = STYLED_ITEM ( 'NONE', ( #151 ), #13 ) ;
#165 = CIRCLE ( 'NONE', #11, 0.1562500000000000000 ) ;
#166 = EDGE_CURVE ( 'NONE', #78, #73, #34, .T. ) ;
#167 = DIRECTION ( 'NONE',  ( -0.8660254037844398178, 1.060575238724908517E-16, 0.4999999999999977240 ) ) ;
#168 = PRODUCT_CONTEXT ( 'NONE', #136, 'mechanical' ) ;
#169 = EDGE_CURVE ( 'NONE', #299, #303, #33, .T. ) ;
#170 = CIRCLE ( 'NONE', #18, 0.1562500000000000000 ) ;
#171 = VECTOR ( 'NONE', #298, 39.37007874015748143 ) ;
#172 =( CONVERSION_BASED_UNIT ( 'INCH', #84 ) LENGTH_UNIT ( ) NAMED_UNIT ( #47 ) );
#173 = CARTESIAN_POINT ( 'NONE',  ( 0.0000000000000000000, 0.0000000000000000000, 2.484999999999999432 ) ) ;
#174 = DIRECTION ( 'NONE',  ( 0.0000000000000000000, 0.0000000000000000000, -1.000000000000000000 ) ) ;
#175 = AXIS2_PLACEMENT_3D ( 'NONE', #126, #252, #29 ) ;
#176 = PRODUCT_DEFINITION ( 'UNKNOWN', '', #215, #6 ) ;
#177 =( CONVERSION_BASED_UNIT ( 'INCH', #239 ) LENGTH_UNIT ( ) NAMED_UNIT ( #86 ) );
#178 = DIRECTION ( 'NONE',  ( -1.000000000000000000, 0.0000000000000000000, 0.0000000000000000000 ) ) ;
#179 = CONICAL_SURFACE ( 'NONE', #268, 0.007499999999999999722, 1.047197551196600296 ) ;
#180 = VERTEX_POINT ( 'NONE', #300 ) ;
#181 = CARTESIAN_POINT ( 'NONE',  ( 0.0000000000000000000, 0.0000000000000000000, 0.0000000000000000000 ) ) ;
#182 = ADVANCED_FACE ( 'NONE', ( #74 ), #71, .F. ) ;
#183 = VECTOR ( 'NONE', #123, 39.37007874015748143 ) ;
#184 = VERTEX_POINT ( 'NONE', #26 ) ;
#185 = CARTESIAN_POINT ( 'NONE',  ( -0.1562000000000000333, 0.0000000000000000000, 0.0000000000000000000 ) ) ;
#186 = CYLINDRICAL_SURFACE ( 'NONE', #260, 0.1562000000000000333 ) ;
#187 = DIRECTION ( 'NONE',  ( 0.7071067811865410224, 8.659560562354852739E-17, -0.7071067811865539010 ) ) ;
#188 = VECTOR ( 'NONE', #119, 39.37007874015748143 ) ;
#189 = DIRECTION ( 'NONE',  ( 0.0000000000000000000, 0.0000000000000000000, 1.000000000000000000 ) ) ;
#190 = EDGE_CURVE ( 'NONE', #92, #206, #61, .T. ) ;
#191 = DIRECTION ( 'NONE',  ( 1.000000000000000000, 0.0000000000000000000, 0.0000000000000000000 ) ) ;
#192 = CARTESIAN_POINT ( 'NONE',  ( -0.1562500000000000000, 0.0000000000000000000, 2.484999999999999432 ) ) ;
#193 = AXIS2_PLACEMENT_3D ( 'NONE', #100, #326, #132 ) ;
#194 = ORIENTED_EDGE ( 'NONE', *, *, #77, .T. ) ;
#195 = EDGE_CURVE ( 'NONE', #206, #92, #39, .T. ) ;
#196 = LINE ( 'NONE', #266, #152 ) ;
#197 =( GEOMETRIC_REPRESENTATION_CONTEXT ( 3 ) GLOBAL_UNCERTAINTY_ASSIGNED_CONTEXT ( ( #23 ) ) GLOBAL_UNIT_ASSIGNED_CONTEXT ( ( #172, #42, #87 ) ) REPRESENTATION_CONTEXT ( 'NONE', 'WORKASPACE' ) );
#198 = SURFACE_STYLE_FILL_AREA ( #146 ) ;
#199 = SURFACE_STYLE_USAGE ( .BOTH. , #48 ) ;
#200 = EDGE_CURVE ( 'NONE', #32, #30, #160, .T. ) ;
#201 = DIRECTION ( 'NONE',  ( -1.000000000000000000, 0.0000000000000000000, 0.0000000000000000000 ) ) ;
#202 = AXIS2_PLACEMENT_3D ( 'NONE', #231, #75, #201 ) ;
#203 = ORIENTED_EDGE ( 'NONE', *, *, #91, .F. ) ;
#204 = DIRECTION ( 'NONE',  ( 1.000000000000000000, 0.0000000000000000000, 0.0000000000000000000 ) ) ;
#205 = ORIENTED_EDGE ( 'NONE', *, *, #221, .F. ) ;
#206 = VERTEX_POINT ( 'NONE', #62 ) ;
#207 = CYLINDRICAL_SURFACE ( 'NONE', #193, 0.1562500000000000000 ) ;
#208 = VECTOR ( 'NONE', #187, 39.37007874015748854 ) ;
#209 = ORIENTED_EDGE ( 'NONE', *, *, #27, .T. ) ;
#210 = LINE ( 'NONE', #185, #183 ) ;
#211 = DIRECTION ( 'NONE',  ( -1.000000000000000000, 0.0000000000000000000, 0.0000000000000000000 ) ) ;
#212 = DIRECTION ( 'NONE',  ( -1.000000000000000000, 0.0000000000000000000, 0.0000000000000000000 ) ) ;
#213 = LINE ( 'NONE', #284, #82 ) ;
#214 = AXIS2_PLACEMENT_3D ( 'NONE', #111, #38, #238 ) ;
#215 = PRODUCT_DEFINITION_FORMATION_WITH_SPECIFIED_SOURCE ( 'ANY', '', #66, .NOT_KNOWN. ) ;
#216 =( NAMED_UNIT ( * ) SI_UNIT ( $, .STERADIAN. ) SOLID_ANGLE_UNIT ( ) );
#217 = CARTESIAN_POINT ( 'NONE',  ( 0.1561999999999999500, 0.0000000000000000000, 0.08585198502849683555 ) ) ;
#218 = ORIENTED_EDGE ( 'NONE', *, *, #14, .F. ) ;
#219 = MECHANICAL_DESIGN_GEOMETRIC_PRESENTATION_REPRESENTATION (  '', ( #164 ), #304 ) ;
#220 = CIRCLE ( 'NONE', #214, 0.1562000000000000055 ) ;
#221 = EDGE_CURVE ( 'NONE', #222, #37, #220, .T. ) ;
#222 = VERTEX_POINT ( 'NONE', #308 ) ;
#223 = EDGE_LOOP ( 'NONE', ( #125, #291 ) ) ;
#224 = DIRECTION ( 'NONE',  ( -1.000000000000000000, 0.0000000000000000000, 0.0000000000000000000 ) ) ;
#225 = ORIENTED_EDGE ( 'NONE', *, *, #310, .F. ) ;
#226 = AXIS2_PLACEMENT_3D ( 'NONE', #313, #137, #234 ) ;
#227 = EDGE_LOOP ( 'NONE', ( #96, #122 ) ) ;
#228 = DIRECTION ( 'NONE',  ( -0.0000000000000000000, -0.0000000000000000000, -1.000000000000000000 ) ) ;
#229 = ORIENTED_EDGE ( 'NONE', *, *, #27, .F. ) ;
#230 = ORIENTED_EDGE ( 'NONE', *, *, #314, .F. ) ;
#231 = CARTESIAN_POINT ( 'NONE',  ( 0.1562000000000000888, 0.0000000000000000000, 0.8129999999999999449 ) ) ;
#232 = AXIS2_PLACEMENT_3D ( 'NONE', #31, #129, #224 ) ;
#233 = CARTESIAN_POINT ( 'NONE',  ( 0.0000000000000000000, 0.0000000000000000000, 1.707404996040164512E-17 ) ) ;
#234 = DIRECTION ( 'NONE',  ( -1.000000000000000000, 0.0000000000000000000, 0.0000000000000000000 ) ) ;
#235 = AXIS2_PLACEMENT_3D ( 'NONE', #143, #189, #191 ) ;
#236 = DIRECTION ( 'NONE',  ( 1.000000000000000000, 0.0000000000000000000, -0.0000000000000000000 ) ) ;
#237 = SHAPE_DEFINITION_REPRESENTATION ( #15, #293 ) ;
#238 = DIRECTION ( 'NONE',  ( -1.000000000000000000, 0.0000000000000000000, 0.0000000000000000000 ) ) ;
#239 = LENGTH_MEASURE_WITH_UNIT ( LENGTH_MEASURE( 0.02539999999999999897 ), #44 );
#240 = ADVANCED_FACE ( 'NONE', ( #10 ), #5, .T. ) ;
#241 = FACE_OUTER_BOUND ( 'NONE', #307, .T. ) ;
#242 = CARTESIAN_POINT ( 'NONE',  ( 0.1562500000000000000, 1.913510623667739463E-17, 2.500000000000000000 ) ) ;
#243 = DIRECTION ( 'NONE',  ( -1.000000000000000000, 0.0000000000000000000, 0.0000000000000000000 ) ) ;
#244 = MECHANICAL_DESIGN_GEOMETRIC_PRESENTATION_REPRESENTATION (  '', ( #147 ), #197 ) ;
#245 = EDGE_LOOP ( 'NONE', ( #225, #104, #246, #229 ) ) ;
#246 = ORIENTED_EDGE ( 'NONE', *, *, #145, .T. ) ;
#247 = FACE_OUTER_BOUND ( 'NONE', #25, .T. ) ;
#248 = EDGE_LOOP ( 'NONE', ( #301, #328, #203, #263 ) ) ;
#249 = PLANE ( 'NONE',  #202 ) ;
#250 = ADVANCED_FACE ( 'NONE', ( #60 ), #186, .T. ) ;
#251 = ORIENTED_EDGE ( 'NONE', *, *, #64, .F. ) ;
#252 = DIRECTION ( 'NONE',  ( 0.0000000000000000000, 0.0000000000000000000, 1.000000000000000000 ) ) ;
#253 = AXIS2_PLACEMENT_3D ( 'NONE', #181, #56, #157 ) ;
#254 = ORIENTED_EDGE ( 'NONE', *, *, #169, .T. ) ;
#255 = ORIENTED_EDGE ( 'NONE', *, *, #295, .F. ) ;
#256 = DIRECTION ( 'NONE',  ( -1.000000000000000000, 0.0000000000000000000, 0.0000000000000000000 ) ) ;
#257 = CARTESIAN_POINT ( 'NONE',  ( 0.0000000000000000000, 0.0000000000000000000, 0.0000000000000000000 ) ) ;
#258 = AXIS2_PLACEMENT_3D ( 'NONE', #4, #112, #212 ) ;
#259 = FACE_OUTER_BOUND ( 'NONE', #245, .T. ) ;
#260 = AXIS2_PLACEMENT_3D ( 'NONE', #257, #35, #211 ) ;
#261 = DIRECTION ( 'NONE',  ( 1.000000000000000000, 0.0000000000000000000, 0.0000000000000000000 ) ) ;
#262 = EDGE_CURVE ( 'NONE', #206, #184, #139, .T. ) ;
#263 = ORIENTED_EDGE ( 'NONE', *, *, #169, .F. ) ;
#264 = ORIENTED_EDGE ( 'NONE', *, *, #91, .T. ) ;
#265 = SURFACE_STYLE_FILL_AREA ( #89 ) ;
#266 = CARTESIAN_POINT ( 'NONE',  ( -0.1412499999999994871, 0.0000000000000000000, 2.500000000000000000 ) ) ;
#267 = EDGE_CURVE ( 'NONE', #30, #37, #7, .T. ) ;
#268 = AXIS2_PLACEMENT_3D ( 'NONE', #277, #59, #204 ) ;
#269 = CARTESIAN_POINT ( 'NONE',  ( -0.1412499999999994871, 0.0000000000000000000, 2.500000000000000000 ) ) ;
#270 = ORIENTED_EDGE ( 'NONE', *, *, #190, .F. ) ;
#271 = CARTESIAN_POINT ( 'NONE',  ( -0.1562500000000000000, 0.0000000000000000000, 2.500000000000000000 ) ) ;
#272 = ORIENTED_EDGE ( 'NONE', *, *, #262, .F. ) ;
#273 = UNCERTAINTY_MEASURE_WITH_UNIT (LENGTH_MEASURE( 1.000000000000000082E-05 ), #63, 'distance_accuracy_value', 'NONE');
#274 = EDGE_LOOP ( 'NONE', ( #251, #99, #254, #55 ) ) ;
#275 = AXIS2_PLACEMENT_3D ( 'NONE', #116, #68, #323 ) ;
#276 = ORIENTED_EDGE ( 'NONE', *, *, #195, .F. ) ;
#277 = CARTESIAN_POINT ( 'NONE',  ( 0.0000000000000000000, 0.0000000000000000000, 1.707404996040164512E-17 ) ) ;
#278 = CARTESIAN_POINT ( 'NONE',  ( 0.1412499999999994871, 1.729813603795630110E-17, 2.500000000000000000 ) ) ;
#279 = DIRECTION ( 'NONE',  ( 0.8660254037844398178, 0.0000000000000000000, 0.4999999999999977240 ) ) ;
#280 = COLOUR_RGB ( '',0.7921568627450980005, 0.8196078431372548767, 0.9333333333333333481 ) ;
#281 = LENGTH_MEASURE_WITH_UNIT ( LENGTH_MEASURE( 0.02539999999999999897 ), #65 );
#282 = CARTESIAN_POINT ( 'NONE',  ( -0.007499999999999999722, 9.184850993605147975E-19, 1.707404996040164512E-17 ) ) ;
#283 = APPLICATION_PROTOCOL_DEFINITION ( 'draft international standard', 'automotive_design', 1998, #80 ) ;
#284 = CARTESIAN_POINT ( 'NONE',  ( 0.1562000000000000333, 1.912898300268165973E-17, 0.0000000000000000000 ) ) ;
#285 = CIRCLE ( 'NONE', #232, 0.1562500000000000000 ) ;
#286 = SURFACE_SIDE_STYLE ('',( #265 ) ) ;
#287 =( NAMED_UNIT ( * ) PLANE_ANGLE_UNIT ( ) SI_UNIT ( $, .RADIAN. ) );
#288 = SURFACE_STYLE_USAGE ( .BOTH. , #286 ) ;
#289 = ADVANCED_FACE ( 'NONE', ( #259 ), #8, .T. ) ;
#290 = ORIENTED_EDGE ( 'NONE', *, *, #314, .T. ) ;
#291 = ORIENTED_EDGE ( 'NONE', *, *, #195, .T. ) ;
#292 = EDGE_LOOP ( 'NONE', ( #130, #255 ) ) ;
#293 = ADVANCED_BREP_SHAPE_REPRESENTATION ( 'Micro_DM-312-4120X', ( #13, #235 ), #98 ) ;
#294 = CONICAL_SURFACE ( 'NONE', #275, 0.1412499999999994871, 0.7853981633974391752 ) ;
#295 = EDGE_CURVE ( 'NONE', #73, #78, #115, .T. ) ;
#296 = ORIENTED_EDGE ( 'NONE', *, *, #267, .F. ) ;
#297 = AXIS2_PLACEMENT_3D ( 'NONE', #163, #107, #81 ) ;
#298 = DIRECTION ( 'NONE',  ( -0.0000000000000000000, -0.0000000000000000000, -1.000000000000000000 ) ) ;
#299 = VERTEX_POINT ( 'NONE', #192 ) ;
#300 = CARTESIAN_POINT ( 'NONE',  ( 0.1562500000000000000, 1.913510623667739463E-17, 0.8129999999999997229 ) ) ;
#301 = ORIENTED_EDGE ( 'NONE', *, *, #45, .T. ) ;
#302 = ADVANCED_FACE ( 'NONE', ( #36 ), #19, .T. ) ;
#303 = VERTEX_POINT ( 'NONE', #312 ) ;
#304 =( GEOMETRIC_REPRESENTATION_CONTEXT ( 3 ) GLOBAL_UNCERTAINTY_ASSIGNED_CONTEXT ( ( #138 ) ) GLOBAL_UNIT_ASSIGNED_CONTEXT ( ( #177, #287, #216 ) ) REPRESENTATION_CONTEXT ( 'NONE', 'WORKASPACE' ) );
#305 = DIRECTION ( 'NONE',  ( -1.000000000000000000, 0.0000000000000000000, 0.0000000000000000000 ) ) ;
#306 = CIRCLE ( 'NONE', #52, 0.007499999999999999722 ) ;
#307 = EDGE_LOOP ( 'NONE', ( #94, #290, #16, #296 ) ) ;
#308 = CARTESIAN_POINT ( 'NONE',  ( -0.1561999999999999500, 1.912898300268165357E-17, 0.08585198502849683555 ) ) ;
#309 = DIRECTION ( 'NONE',  ( -1.000000000000000000, 0.0000000000000000000, 0.0000000000000000000 ) ) ;
#310 = EDGE_CURVE ( 'NONE', #73, #37, #213, .T. ) ;
#311 = LINE ( 'NONE', #282, #93 ) ;
#312 = CARTESIAN_POINT ( 'NONE',  ( -0.1562500000000000000, 0.0000000000000000000, 0.8129999999999997229 ) ) ;
#313 = CARTESIAN_POINT ( 'NONE',  ( 0.0000000000000000000, 0.0000000000000000000, 2.500000000000000000 ) ) ;
#314 = EDGE_CURVE ( 'NONE', #32, #222, #311, .T. ) ;
#315 = PRESENTATION_STYLE_ASSIGNMENT (( #288 ) ) ;
#316 = AXIS2_PLACEMENT_3D ( 'NONE', #58, #106, #178 ) ;
#317 = AXIS2_PLACEMENT_3D ( 'NONE', #83, #79, #236 ) ;
#318 = DIMENSIONAL_EXPONENTS ( 1.000000000000000000, 0.0000000000000000000, 0.0000000000000000000, 0.0000000000000000000, 0.0000000000000000000, 0.0000000000000000000, 0.0000000000000000000 ) ;
#319 = CARTESIAN_POINT ( 'NONE',  ( 0.0000000000000000000, 0.0000000000000000000, 1.707404996040164512E-17 ) ) ;
#320 = FACE_OUTER_BOUND ( 'NONE', #128, .T. ) ;
#321 = PRESENTATION_LAYER_ASSIGNMENT (  '', '', ( #164 ) ) ;
#322 = AXIS2_PLACEMENT_3D ( 'NONE', #329, #162, #256 ) ;
#323 = DIRECTION ( 'NONE',  ( -1.000000000000000000, 0.0000000000000000000, 0.0000000000000000000 ) ) ;
#324 = EDGE_LOOP ( 'NONE', ( #22, #28, #205, #101 ) ) ;
#325 = EDGE_LOOP ( 'NONE', ( #272, #270, #153, #218 ) ) ;
#326 = DIRECTION ( 'NONE',  ( -0.0000000000000000000, -0.0000000000000000000, -1.000000000000000000 ) ) ;
#327 = AXIS2_PLACEMENT_3D ( 'NONE', #118, #49, #243 ) ;
#328 = ORIENTED_EDGE ( 'NONE', *, *, #64, .T. ) ;
#329 = CARTESIAN_POINT ( 'NONE',  ( 0.0000000000000000000, 0.0000000000000000000, 0.8129999999999999449 ) ) ;
ENDSEC;
END-ISO-10303-21;
