ISO-10303-21;
HEADER;
FILE_DESCRIPTION (( 'STEP AP214' ),
    '1' );
FILE_NAME ('Micro_RTCM-120-1X.STEP',
    '2021-09-03T18:27:51',
    ( '' ),
    ( '' ),
    'SwSTEP 2.0',
    'SolidWorks 2020',
    '' );
FILE_SCHEMA (( 'AUTOMOTIVE_DESIGN' ));
ENDSEC;

DATA;
#1 = DIRECTION ( 'NONE',  ( 0.0000000000000000000, 0.0000000000000000000, 1.000000000000000000 ) ) ;
#2 = ORIENTED_EDGE ( 'NONE', *, *, #220, .T. ) ;
#3 = ADVANCED_FACE ( 'NONE', ( #16 ), #74, .F. ) ;
#4 = DIRECTION ( 'NONE',  ( 0.7071067811865474617, 8.659560562354932858E-17, -0.7071067811865474617 ) ) ;
#5 = CARTESIAN_POINT ( 'NONE',  ( 0.2362204999999999999, 2.892866792179872647E-17, 0.8668938237599220775 ) ) ;
#6 = EDGE_CURVE ( 'NONE', #140, #150, #41, .T. ) ;
#7 =( GEOMETRIC_REPRESENTATION_CONTEXT ( 3 ) GLOBAL_UNCERTAINTY_ASSIGNED_CONTEXT ( ( #76 ) ) GLOBAL_UNIT_ASSIGNED_CONTEXT ( ( #45, #87, #50 ) ) REPRESENTATION_CONTEXT ( 'NONE', 'WORKASPACE' ) );
#8 = DIRECTION ( 'NONE',  ( 0.0000000000000000000, 0.0000000000000000000, 1.000000000000000000 ) ) ;
#9 = DIRECTION ( 'NONE',  ( 1.000000000000000000, 0.0000000000000000000, 0.0000000000000000000 ) ) ;
#10 = DIRECTION ( 'NONE',  ( 1.000000000000000000, 0.0000000000000000000, 0.0000000000000000000 ) ) ;
#11 = MECHANICAL_DESIGN_GEOMETRIC_PRESENTATION_REPRESENTATION (  '', ( #135 ), #153 ) ;
#12 = EDGE_CURVE ( 'NONE', #196, #150, #44, .T. ) ;
#13 = SURFACE_SIDE_STYLE ('',( #111 ) ) ;
#14 = AXIS2_PLACEMENT_3D ( 'NONE', #136, #191, #17 ) ;
#15 = DIRECTION ( 'NONE',  ( 0.0000000000000000000, 0.0000000000000000000, -1.000000000000000000 ) ) ;
#16 = FACE_OUTER_BOUND ( 'NONE', #171, .T. ) ;
#17 = DIRECTION ( 'NONE',  ( -1.000000000000000000, 0.0000000000000000000, 0.0000000000000000000 ) ) ;
#18 = ORIENTED_EDGE ( 'NONE', *, *, #220, .F. ) ;
#19 = VERTEX_POINT ( 'NONE', #67 ) ;
#20 = ORIENTED_EDGE ( 'NONE', *, *, #192, .F. ) ;
#21 = CARTESIAN_POINT ( 'NONE',  ( -0.2362204999999999999, 0.0000000000000000000, 3.267717000000000649 ) ) ;
#22 = DIRECTION ( 'NONE',  ( 1.000000000000000000, 0.0000000000000000000, 0.0000000000000000000 ) ) ;
#23 = EDGE_CURVE ( 'NONE', #56, #140, #124, .T. ) ;
#24 = LINE ( 'NONE', #223, #61 ) ;
#25 = SURFACE_STYLE_FILL_AREA ( #85 ) ;
#26 = CARTESIAN_POINT ( 'NONE',  ( 0.0000000000000000000, 0.0000000000000000000, 0.8668938237599220775 ) ) ;
#27 = AXIS2_PLACEMENT_3D ( 'NONE', #240, #182, #70 ) ;
#28 = EDGE_CURVE ( 'NONE', #249, #196, #24, .T. ) ;
#29 =( NAMED_UNIT ( * ) PLANE_ANGLE_UNIT ( ) SI_UNIT ( $, .RADIAN. ) );
#30 = FILL_AREA_STYLE ('',( #106 ) ) ;
#31 = AXIS2_PLACEMENT_3D ( 'NONE', #62, #177, #219 ) ;
#32 = CARTESIAN_POINT ( 'NONE',  ( 0.0000000000000000000, 0.0000000000000000000, 3.267717000000000649 ) ) ;
#33 = ORIENTED_EDGE ( 'NONE', *, *, #201, .F. ) ;
#34 = ORIENTED_EDGE ( 'NONE', *, *, #72, .F. ) ;
#35 = ORIENTED_EDGE ( 'NONE', *, *, #6, .T. ) ;
#36 = EDGE_LOOP ( 'NONE', ( #118, #117 ) ) ;
#37 = PRODUCT_DEFINITION_FORMATION_WITH_SPECIFIED_SOURCE ( 'ANY', '', #213, .NOT_KNOWN. ) ;
#38 = ORIENTED_EDGE ( 'NONE', *, *, #71, .F. ) ;
#39 = CARTESIAN_POINT ( 'NONE',  ( 0.0000000000000000000, 0.0000000000000000000, 0.0000000000000000000 ) ) ;
#40 = DIRECTION ( 'NONE',  ( 0.0000000000000000000, 0.0000000000000000000, -1.000000000000000000 ) ) ;
#41 = CIRCLE ( 'NONE', #95, 0.2362204999999999999 ) ;
#42 = VECTOR ( 'NONE', #4, 39.37007874015748854 ) ;
#43 = LINE ( 'NONE', #176, #42 ) ;
#44 = LINE ( 'NONE', #21, #248 ) ;
#45 =( CONVERSION_BASED_UNIT ( 'INCH', #163 ) LENGTH_UNIT ( ) NAMED_UNIT ( #60 ) );
#46 = DIRECTION ( 'NONE',  ( -0.7071067811865474617, 0.0000000000000000000, -0.7071067811865474617 ) ) ;
#47 = FACE_OUTER_BOUND ( 'NONE', #36, .T. ) ;
#48 = AXIS2_PLACEMENT_3D ( 'NONE', #225, #107, #10 ) ;
#49 =( CONVERSION_BASED_UNIT ( 'INCH', #51 ) LENGTH_UNIT ( ) NAMED_UNIT ( #101 ) );
#50 =( NAMED_UNIT ( * ) SI_UNIT ( $, .STERADIAN. ) SOLID_ANGLE_UNIT ( ) );
#51 = LENGTH_MEASURE_WITH_UNIT ( LENGTH_MEASURE( 0.02539999999999999897 ), #246 );
#52 = DIRECTION ( 'NONE',  ( 0.0000000000000000000, 0.0000000000000000000, -1.000000000000000000 ) ) ;
#53 = COLOUR_RGB ( '',0.7921568627450980005, 0.8196078431372548767, 0.9333333333333333481 ) ;
#54 = ORIENTED_EDGE ( 'NONE', *, *, #201, .T. ) ;
#55 = ADVANCED_FACE ( 'NONE', ( #105 ), #195, .T. ) ;
#56 = VERTEX_POINT ( 'NONE', #194 ) ;
#57 = ORIENTED_EDGE ( 'NONE', *, *, #237, .T. ) ;
#58 = EDGE_CURVE ( 'NONE', #196, #56, #231, .T. ) ;
#59 = ORIENTED_EDGE ( 'NONE', *, *, #192, .T. ) ;
#60 = DIMENSIONAL_EXPONENTS ( 1.000000000000000000, 0.0000000000000000000, 0.0000000000000000000, 0.0000000000000000000, 0.0000000000000000000, 0.0000000000000000000, 0.0000000000000000000 ) ;
#61 = VECTOR ( 'NONE', #46, 39.37007874015748854 ) ;
#62 = CARTESIAN_POINT ( 'NONE',  ( 0.0000000000000000000, 0.0000000000000000000, 3.267717000000000649 ) ) ;
#63 = CARTESIAN_POINT ( 'NONE',  ( -0.2362204999999999999, 0.0000000000000000000, 3.252717000000002301 ) ) ;
#64 = MECHANICAL_DESIGN_GEOMETRIC_PRESENTATION_REPRESENTATION (  '', ( #113 ), #7 ) ;
#65 = CARTESIAN_POINT ( 'NONE',  ( 0.003936999999999995191, 0.0000000000000000000, 0.0000000000000000000 ) ) ;
#66 = EDGE_CURVE ( 'NONE', #249, #198, #205, .T. ) ;
#67 = CARTESIAN_POINT ( 'NONE',  ( -0.003936999999999995191, 1.470540568331152047E-17, 0.0000000000000000000 ) ) ;
#68 = APPLICATION_PROTOCOL_DEFINITION ( 'draft international standard', 'automotive_design', 1998, #69 ) ;
#69 = APPLICATION_CONTEXT ( 'automotive_design' ) ;
#70 = DIRECTION ( 'NONE',  ( 1.000000000000000000, 0.0000000000000000000, 0.0000000000000000000 ) ) ;
#71 = EDGE_CURVE ( 'NONE', #170, #140, #154, .T. ) ;
#72 = EDGE_CURVE ( 'NONE', #19, #170, #129, .T. ) ;
#73 = DIRECTION ( 'NONE',  ( 1.000000000000000000, 0.0000000000000000000, 0.0000000000000000000 ) ) ;
#74 = PLANE ( 'NONE',  #207 ) ;
#75 = CARTESIAN_POINT ( 'NONE',  ( 0.0000000000000000000, 0.0000000000000000000, 0.8668938237599220775 ) ) ;
#76 = UNCERTAINTY_MEASURE_WITH_UNIT (LENGTH_MEASURE( 1.000000000000000082E-05 ), #45, 'distance_accuracy_value', 'NONE');
#77 = ORIENTED_EDGE ( 'NONE', *, *, #28, .T. ) ;
#78 = ORIENTED_EDGE ( 'NONE', *, *, #12, .F. ) ;
#79 = UNCERTAINTY_MEASURE_WITH_UNIT (LENGTH_MEASURE( 1.000000000000000082E-05 ), #49, 'distance_accuracy_value', 'NONE');
#80 = EDGE_LOOP ( 'NONE', ( #34, #193, #2, #38 ) ) ;
#81 = DIRECTION ( 'NONE',  ( -0.2588190451025216277, 3.169619151431775418E-17, 0.9659258262890679791 ) ) ;
#82 = CONICAL_SURFACE ( 'NONE', #96, 0.003936999999999995191, 0.2617993877991502960 ) ;
#83 = DIRECTION ( 'NONE',  ( -1.000000000000000000, 0.0000000000000000000, 0.0000000000000000000 ) ) ;
#84 = CYLINDRICAL_SURFACE ( 'NONE', #92, 0.2362204999999999999 ) ;
#85 = FILL_AREA_STYLE ('',( #123 ) ) ;
#86 = CONICAL_SURFACE ( 'NONE', #157, 0.003936999999999995191, 0.2617993877991502960 ) ;
#87 =( NAMED_UNIT ( * ) PLANE_ANGLE_UNIT ( ) SI_UNIT ( $, .RADIAN. ) );
#88 = PRESENTATION_STYLE_ASSIGNMENT (( #186 ) ) ;
#89 = PRODUCT_CONTEXT ( 'NONE', #69, 'mechanical' ) ;
#90 = LENGTH_MEASURE_WITH_UNIT ( LENGTH_MEASURE( 0.02539999999999999897 ), #244 );
#91 = AXIS2_PLACEMENT_3D ( 'NONE', #149, #1, #73 ) ;
#92 = AXIS2_PLACEMENT_3D ( 'NONE', #216, #239, #179 ) ;
#93 = ORIENTED_EDGE ( 'NONE', *, *, #58, .F. ) ;
#94 = ORIENTED_EDGE ( 'NONE', *, *, #139, .F. ) ;
#95 = AXIS2_PLACEMENT_3D ( 'NONE', #75, #230, #212 ) ;
#96 = AXIS2_PLACEMENT_3D ( 'NONE', #162, #8, #22 ) ;
#97 = SHAPE_DEFINITION_REPRESENTATION ( #131, #199 ) ;
#98 = ORIENTED_EDGE ( 'NONE', *, *, #108, .F. ) ;
#99 = CARTESIAN_POINT ( 'NONE',  ( -0.2362204999999999999, 0.0000000000000000000, 0.8668938237599220775 ) ) ;
#100 = CARTESIAN_POINT ( 'NONE',  ( 0.0000000000000000000, 0.0000000000000000000, 0.0000000000000000000 ) ) ;
#101 = DIMENSIONAL_EXPONENTS ( 1.000000000000000000, 0.0000000000000000000, 0.0000000000000000000, 0.0000000000000000000, 0.0000000000000000000, 0.0000000000000000000, 0.0000000000000000000 ) ;
#102 = PRESENTATION_STYLE_ASSIGNMENT (( #221 ) ) ;
#103 = DIRECTION ( 'NONE',  ( -0.0000000000000000000, -0.0000000000000000000, -1.000000000000000000 ) ) ;
#104 = AXIS2_PLACEMENT_3D ( 'NONE', #142, #52, #116 ) ;
#105 = FACE_OUTER_BOUND ( 'NONE', #189, .T. ) ;
#106 = FILL_AREA_STYLE_COLOUR ( '', #181 ) ;
#107 = DIRECTION ( 'NONE',  ( 0.0000000000000000000, 0.0000000000000000000, 1.000000000000000000 ) ) ;
#108 = EDGE_CURVE ( 'NONE', #198, #249, #187, .T. ) ;
#109 = DIRECTION ( 'NONE',  ( 0.0000000000000000000, 0.0000000000000000000, 1.000000000000000000 ) ) ;
#110 = CLOSED_SHELL ( 'NONE', ( #121, #209, #245, #173, #169, #55, #178, #3 ) ) ;
#111 = SURFACE_STYLE_FILL_AREA ( #30 ) ;
#112 = FACE_OUTER_BOUND ( 'NONE', #233, .T. ) ;
#113 = STYLED_ITEM ( 'NONE', ( #102 ), #222 ) ;
#114 = CARTESIAN_POINT ( 'NONE',  ( 0.003936999999999995191, 0.0000000000000000000, 0.0000000000000000000 ) ) ;
#115 = DIRECTION ( 'NONE',  ( 1.000000000000000000, 0.0000000000000000000, -0.0000000000000000000 ) ) ;
#116 = DIRECTION ( 'NONE',  ( -1.000000000000000000, 0.0000000000000000000, 0.0000000000000000000 ) ) ;
#117 = ORIENTED_EDGE ( 'NONE', *, *, #108, .T. ) ;
#118 = ORIENTED_EDGE ( 'NONE', *, *, #66, .T. ) ;
#119 = AXIS2_PLACEMENT_3D ( 'NONE', #26, #164, #158 ) ;
#120 = ORIENTED_EDGE ( 'NONE', *, *, #71, .T. ) ;
#121 = ADVANCED_FACE ( 'NONE', ( #185 ), #82, .T. ) ;
#122 = LINE ( 'NONE', #143, #147 ) ;
#123 = FILL_AREA_STYLE_COLOUR ( '', #53 ) ;
#124 = LINE ( 'NONE', #159, #242 ) ;
#125 = CARTESIAN_POINT ( 'NONE',  ( 0.0000000000000000000, 0.0000000000000000000, 3.267717000000000649 ) ) ;
#126 =( LENGTH_UNIT ( ) NAMED_UNIT ( * ) SI_UNIT ( $, .METRE. ) );
#127 =( NAMED_UNIT ( * ) SI_UNIT ( $, .STERADIAN. ) SOLID_ANGLE_UNIT ( ) );
#128 = AXIS2_PLACEMENT_3D ( 'NONE', #217, #109, #9 ) ;
#129 = CIRCLE ( 'NONE', #14, 0.003936999999999995191 ) ;
#130 = AXIS2_PLACEMENT_3D ( 'NONE', #100, #103, #83 ) ;
#131 = PRODUCT_DEFINITION_SHAPE ( 'NONE', 'NONE',  #132 ) ;
#132 = PRODUCT_DEFINITION ( 'UNKNOWN', '', #37, #197 ) ;
#133 = ORIENTED_EDGE ( 'NONE', *, *, #12, .T. ) ;
#134 = ORIENTED_EDGE ( 'NONE', *, *, #28, .F. ) ;
#135 = STYLED_ITEM ( 'NONE', ( #88 ), #199 ) ;
#136 = CARTESIAN_POINT ( 'NONE',  ( 0.0000000000000000000, 0.0000000000000000000, 0.0000000000000000000 ) ) ;
#137 = ORIENTED_EDGE ( 'NONE', *, *, #72, .T. ) ;
#138 = EDGE_LOOP ( 'NONE', ( #98, #54, #93, #134 ) ) ;
#139 = EDGE_CURVE ( 'NONE', #19, #150, #122, .T. ) ;
#140 = VERTEX_POINT ( 'NONE', #5 ) ;
#141 = AXIS2_PLACEMENT_3D ( 'NONE', #32, #183, #227 ) ;
#142 = CARTESIAN_POINT ( 'NONE',  ( 0.0000000000000000000, 0.0000000000000000000, 3.267717000000000649 ) ) ;
#143 = CARTESIAN_POINT ( 'NONE',  ( -0.003936999999999995191, 4.821434448243123477E-19, 0.0000000000000000000 ) ) ;
#144 = FACE_OUTER_BOUND ( 'NONE', #138, .T. ) ;
#145 = PRESENTATION_LAYER_ASSIGNMENT (  '', '', ( #113 ) ) ;
#146 = CARTESIAN_POINT ( 'NONE',  ( 0.2212205000000019295, 2.801018282243833685E-17, 3.267717000000000649 ) ) ;
#147 = VECTOR ( 'NONE', #81, 39.37007874015748143 ) ;
#148 = CARTESIAN_POINT ( 'NONE',  ( -0.2212205000000019295, 0.0000000000000000000, 3.267717000000000649 ) ) ;
#149 = CARTESIAN_POINT ( 'NONE',  ( 0.0000000000000000000, 0.0000000000000000000, 3.267717000000000649 ) ) ;
#150 = VERTEX_POINT ( 'NONE', #99 ) ;
#151 = DIRECTION ( 'NONE',  ( 1.000000000000000000, 0.0000000000000000000, 0.0000000000000000000 ) ) ;
#152 = ORIENTED_EDGE ( 'NONE', *, *, #6, .F. ) ;
#153 =( GEOMETRIC_REPRESENTATION_CONTEXT ( 3 ) GLOBAL_UNCERTAINTY_ASSIGNED_CONTEXT ( ( #235 ) ) GLOBAL_UNIT_ASSIGNED_CONTEXT ( ( #167, #29, #127 ) ) REPRESENTATION_CONTEXT ( 'NONE', 'WORKASPACE' ) );
#154 = LINE ( 'NONE', #114, #238 ) ;
#155 = PRODUCT_RELATED_PRODUCT_CATEGORY ( 'part', '', ( #213 ) ) ;
#156 = ORIENTED_EDGE ( 'NONE', *, *, #66, .F. ) ;
#157 = AXIS2_PLACEMENT_3D ( 'NONE', #39, #200, #218 ) ;
#158 = DIRECTION ( 'NONE',  ( -1.000000000000000000, 0.0000000000000000000, 0.0000000000000000000 ) ) ;
#159 = CARTESIAN_POINT ( 'NONE',  ( 0.2362204999999999999, 2.892866792179872647E-17, 3.267717000000000649 ) ) ;
#160 = DIRECTION ( 'NONE',  ( -1.000000000000000000, 0.0000000000000000000, 0.0000000000000000000 ) ) ;
#161 = DIRECTION ( 'NONE',  ( -0.0000000000000000000, -0.0000000000000000000, -1.000000000000000000 ) ) ;
#162 = CARTESIAN_POINT ( 'NONE',  ( 0.0000000000000000000, 0.0000000000000000000, 0.0000000000000000000 ) ) ;
#163 = LENGTH_MEASURE_WITH_UNIT ( LENGTH_MEASURE( 0.02539999999999999897 ), #126 );
#164 = DIRECTION ( 'NONE',  ( -0.0000000000000000000, -0.0000000000000000000, -1.000000000000000000 ) ) ;
#165 = APPLICATION_PROTOCOL_DEFINITION ( 'draft international standard', 'automotive_design', 1998, #202 ) ;
#166 = CYLINDRICAL_SURFACE ( 'NONE', #141, 0.2362204999999999999 ) ;
#167 =( CONVERSION_BASED_UNIT ( 'INCH', #90 ) LENGTH_UNIT ( ) NAMED_UNIT ( #180 ) );
#168 = CIRCLE ( 'NONE', #27, 0.2362204999999999999 ) ;
#169 = ADVANCED_FACE ( 'NONE', ( #47 ), #224, .T. ) ;
#170 = VERTEX_POINT ( 'NONE', #65 ) ;
#171 = EDGE_LOOP ( 'NONE', ( #59, #137 ) ) ;
#172 = AXIS2_PLACEMENT_3D ( 'NONE', #125, #40, #160 ) ;
#173 = ADVANCED_FACE ( 'NONE', ( #243 ), #84, .T. ) ;
#174 = CARTESIAN_POINT ( 'NONE',  ( 0.0000000000000000000, 0.0000000000000000000, 3.252717000000002301 ) ) ;
#175 = EDGE_LOOP ( 'NONE', ( #94, #20, #120, #35 ) ) ;
#176 = CARTESIAN_POINT ( 'NONE',  ( 0.2212205000000019295, 2.709169772307794108E-17, 3.267717000000000649 ) ) ;
#177 = DIRECTION ( 'NONE',  ( 0.0000000000000000000, 0.0000000000000000000, 1.000000000000000000 ) ) ;
#178 = ADVANCED_FACE ( 'NONE', ( #241 ), #86, .T. ) ;
#179 = DIRECTION ( 'NONE',  ( -1.000000000000000000, 0.0000000000000000000, 0.0000000000000000000 ) ) ;
#180 = DIMENSIONAL_EXPONENTS ( 1.000000000000000000, 0.0000000000000000000, 0.0000000000000000000, 0.0000000000000000000, 0.0000000000000000000, 0.0000000000000000000, 0.0000000000000000000 ) ;
#181 = COLOUR_RGB ( '',0.7921568627450980005, 0.8196078431372548767, 0.9333333333333333481 ) ;
#182 = DIRECTION ( 'NONE',  ( 0.0000000000000000000, 0.0000000000000000000, -1.000000000000000000 ) ) ;
#183 = DIRECTION ( 'NONE',  ( -0.0000000000000000000, -0.0000000000000000000, -1.000000000000000000 ) ) ;
#184 =( GEOMETRIC_REPRESENTATION_CONTEXT ( 3 ) GLOBAL_UNCERTAINTY_ASSIGNED_CONTEXT ( ( #79 ) ) GLOBAL_UNIT_ASSIGNED_CONTEXT ( ( #49, #228, #206 ) ) REPRESENTATION_CONTEXT ( 'NONE', 'WORKASPACE' ) );
#185 = FACE_OUTER_BOUND ( 'NONE', #80, .T. ) ;
#186 = SURFACE_STYLE_USAGE ( .BOTH. , #13 ) ;
#187 = CIRCLE ( 'NONE', #128, 0.2212205000000019295 ) ;
#188 = CIRCLE ( 'NONE', #119, 0.2362204999999999999 ) ;
#189 = EDGE_LOOP ( 'NONE', ( #33, #156, #77, #214 ) ) ;
#190 = ORIENTED_EDGE ( 'NONE', *, *, #23, .T. ) ;
#191 = DIRECTION ( 'NONE',  ( -0.0000000000000000000, -0.0000000000000000000, -1.000000000000000000 ) ) ;
#192 = EDGE_CURVE ( 'NONE', #170, #19, #211, .T. ) ;
#193 = ORIENTED_EDGE ( 'NONE', *, *, #139, .T. ) ;
#194 = CARTESIAN_POINT ( 'NONE',  ( 0.2362204999999999999, 2.892866792179872647E-17, 3.252717000000002301 ) ) ;
#195 = CONICAL_SURFACE ( 'NONE', #104, 0.2212205000000019295, 0.7853981633974482790 ) ;
#196 = VERTEX_POINT ( 'NONE', #63 ) ;
#197 = PRODUCT_DEFINITION_CONTEXT ( 'detailed design', #202, 'design' ) ;
#198 = VERTEX_POINT ( 'NONE', #146 ) ;
#199 = ADVANCED_BREP_SHAPE_REPRESENTATION ( 'Micro_RTCM-120-1X', ( #222, #48 ), #184 ) ;
#200 = DIRECTION ( 'NONE',  ( 0.0000000000000000000, 0.0000000000000000000, 1.000000000000000000 ) ) ;
#201 = EDGE_CURVE ( 'NONE', #198, #56, #43, .T. ) ;
#202 = APPLICATION_CONTEXT ( 'automotive_design' ) ;
#203 = SURFACE_SIDE_STYLE ('',( #25 ) ) ;
#204 = DIRECTION ( 'NONE',  ( -0.0000000000000000000, -0.0000000000000000000, -1.000000000000000000 ) ) ;
#205 = CIRCLE ( 'NONE', #91, 0.2212205000000019295 ) ;
#206 =( NAMED_UNIT ( * ) SI_UNIT ( $, .STERADIAN. ) SOLID_ANGLE_UNIT ( ) );
#207 = AXIS2_PLACEMENT_3D ( 'NONE', #210, #247, #115 ) ;
#208 = PRESENTATION_LAYER_ASSIGNMENT (  '', '', ( #135 ) ) ;
#209 = ADVANCED_FACE ( 'NONE', ( #144 ), #226, .T. ) ;
#210 = CARTESIAN_POINT ( 'NONE',  ( 0.0000000000000000000, 0.0000000000000000000, 0.0000000000000000000 ) ) ;
#211 = CIRCLE ( 'NONE', #130, 0.003936999999999995191 ) ;
#212 = DIRECTION ( 'NONE',  ( -1.000000000000000000, 0.0000000000000000000, 0.0000000000000000000 ) ) ;
#213 = PRODUCT ( 'Micro_RTCM-120-1X', 'Micro_RTCM-120-1X', '', ( #89 ) ) ;
#214 = ORIENTED_EDGE ( 'NONE', *, *, #237, .F. ) ;
#215 = AXIS2_PLACEMENT_3D ( 'NONE', #174, #15, #151 ) ;
#216 = CARTESIAN_POINT ( 'NONE',  ( 0.0000000000000000000, 0.0000000000000000000, 3.267717000000000649 ) ) ;
#217 = CARTESIAN_POINT ( 'NONE',  ( 0.0000000000000000000, 0.0000000000000000000, 3.267717000000000649 ) ) ;
#218 = DIRECTION ( 'NONE',  ( 1.000000000000000000, 0.0000000000000000000, 0.0000000000000000000 ) ) ;
#219 = DIRECTION ( 'NONE',  ( 1.000000000000000000, 0.0000000000000000000, -0.0000000000000000000 ) ) ;
#220 = EDGE_CURVE ( 'NONE', #150, #140, #188, .T. ) ;
#221 = SURFACE_STYLE_USAGE ( .BOTH. , #203 ) ;
#222 = MANIFOLD_SOLID_BREP ( 'Cut-Revolve1', #110 ) ;
#223 = CARTESIAN_POINT ( 'NONE',  ( -0.2212205000000019295, 0.0000000000000000000, 3.267717000000000649 ) ) ;
#224 = PLANE ( 'NONE',  #31 ) ;
#225 = CARTESIAN_POINT ( 'NONE',  ( 0.0000000000000000000, 0.0000000000000000000, 0.0000000000000000000 ) ) ;
#226 = CONICAL_SURFACE ( 'NONE', #172, 0.2212205000000019295, 0.7853981633974482790 ) ;
#227 = DIRECTION ( 'NONE',  ( -1.000000000000000000, 0.0000000000000000000, 0.0000000000000000000 ) ) ;
#228 =( NAMED_UNIT ( * ) PLANE_ANGLE_UNIT ( ) SI_UNIT ( $, .RADIAN. ) );
#229 = ORIENTED_EDGE ( 'NONE', *, *, #23, .F. ) ;
#230 = DIRECTION ( 'NONE',  ( -0.0000000000000000000, -0.0000000000000000000, -1.000000000000000000 ) ) ;
#231 = CIRCLE ( 'NONE', #215, 0.2362204999999999999 ) ;
#232 = DIRECTION ( 'NONE',  ( 0.2588190451025216277, 0.0000000000000000000, 0.9659258262890679791 ) ) ;
#233 = EDGE_LOOP ( 'NONE', ( #236, #190, #18, #78 ) ) ;
#234 = EDGE_LOOP ( 'NONE', ( #229, #57, #133, #152 ) ) ;
#235 = UNCERTAINTY_MEASURE_WITH_UNIT (LENGTH_MEASURE( 1.000000000000000082E-05 ), #167, 'distance_accuracy_value', 'NONE');
#236 = ORIENTED_EDGE ( 'NONE', *, *, #58, .T. ) ;
#237 = EDGE_CURVE ( 'NONE', #56, #196, #168, .T. ) ;
#238 = VECTOR ( 'NONE', #232, 39.37007874015748143 ) ;
#239 = DIRECTION ( 'NONE',  ( -0.0000000000000000000, -0.0000000000000000000, -1.000000000000000000 ) ) ;
#240 = CARTESIAN_POINT ( 'NONE',  ( 0.0000000000000000000, 0.0000000000000000000, 3.252717000000002301 ) ) ;
#241 = FACE_OUTER_BOUND ( 'NONE', #175, .T. ) ;
#242 = VECTOR ( 'NONE', #204, 39.37007874015748143 ) ;
#243 = FACE_OUTER_BOUND ( 'NONE', #234, .T. ) ;
#244 =( LENGTH_UNIT ( ) NAMED_UNIT ( * ) SI_UNIT ( $, .METRE. ) );
#245 = ADVANCED_FACE ( 'NONE', ( #112 ), #166, .T. ) ;
#246 =( LENGTH_UNIT ( ) NAMED_UNIT ( * ) SI_UNIT ( $, .METRE. ) );
#247 = DIRECTION ( 'NONE',  ( 0.0000000000000000000, 0.0000000000000000000, 1.000000000000000000 ) ) ;
#248 = VECTOR ( 'NONE', #161, 39.37007874015748143 ) ;
#249 = VERTEX_POINT ( 'NONE', #148 ) ;
ENDSEC;
END-ISO-10303-21;
