ISO-10303-21;
HEADER;
FILE_DESCRIPTION (( 'STEP AP214' ),
    '1' );
FILE_NAME ('01015.STEP',
    '2023-06-22T14:17:29',
    ( '' ),
    ( '' ),
    'SwSTEP 2.0',
    'SolidWorks 2023',
    '' );
FILE_SCHEMA (( 'AUTOMOTIVE_DESIGN' ));
ENDSEC;

DATA;
#1 = DIRECTION ( 'NONE',  ( -0.000000000000000000, -1.000000000000000000, -0.000000000000000000 ) ) ;
#2 = LENGTH_MEASURE_WITH_UNIT ( LENGTH_MEASURE( 0.02539999999999999897 ), #97 );
#3 = ORIENTED_EDGE ( 'NONE', *, *, #108, .T. ) ;
#4 = CARTESIAN_POINT ( 'NONE',  ( -1.213184216936841517E-31, 0.2499999999999998057, 0.000000000000000000 ) ) ;
#5 = CIRCLE ( 'NONE', #256, 0.06250000000000001388 ) ;
#6 = ORIENTED_EDGE ( 'NONE', *, *, #21, .T. ) ;
#7 = VERTEX_POINT ( 'NONE', #271 ) ;
#8 = ADVANCED_FACE ( 'NONE', ( #93 ), #197, .F. ) ;
#9 = DIRECTION ( 'NONE',  ( -1.000000000000000000, 0.000000000000000000, 0.000000000000000000 ) ) ;
#10 = AXIS2_PLACEMENT_3D ( 'NONE', #14, #234, #13 ) ;
#11 =( LENGTH_UNIT ( ) NAMED_UNIT ( * ) SI_UNIT ( $, .METRE. ) );
#12 = PRODUCT_RELATED_PRODUCT_CATEGORY ( 'part', '', ( #206 ) ) ;
#13 = DIRECTION ( 'NONE',  ( 0.000000000000000000, 0.000000000000000000, -1.000000000000000000 ) ) ;
#14 = CARTESIAN_POINT ( 'NONE',  ( 0.000000000000000000, 0.2499999999999998057, 0.000000000000000000 ) ) ;
#15 = DIRECTION ( 'NONE',  ( -0.000000000000000000, -1.000000000000000000, -0.000000000000000000 ) ) ;
#16 = PRODUCT_DEFINITION ( 'UNKNOWN', '', #183, #106 ) ;
#17 = PRESENTATION_LAYER_ASSIGNMENT (  '', '', ( #288 ) ) ;
#18 = CARTESIAN_POINT ( 'NONE',  ( 0.000000000000000000, 0.2499999999999998057, -0.06250000000000001388 ) ) ;
#19 = FILL_AREA_STYLE_COLOUR ( '', #299 ) ;
#20 = DIMENSIONAL_EXPONENTS ( 1.000000000000000000, 0.000000000000000000, 0.000000000000000000, 0.000000000000000000, 0.000000000000000000, 0.000000000000000000, 0.000000000000000000 ) ;
#21 = EDGE_CURVE ( 'NONE', #43, #26, #98, .T. ) ;
#22 =( NAMED_UNIT ( * ) PLANE_ANGLE_UNIT ( ) SI_UNIT ( $, .RADIAN. ) );
#23 = CARTESIAN_POINT ( 'NONE',  ( 0.000000000000000000, 0.000000000000000000, 0.000000000000000000 ) ) ;
#24 = FACE_OUTER_BOUND ( 'NONE', #48, .T. ) ;
#25 = CARTESIAN_POINT ( 'NONE',  ( 0.000000000000000000, 0.000000000000000000, 0.000000000000000000 ) ) ;
#26 = VERTEX_POINT ( 'NONE', #76 ) ;
#27 = DIRECTION ( 'NONE',  ( -1.000000000000000000, 0.000000000000000000, 0.000000000000000000 ) ) ;
#28 = ORIENTED_EDGE ( 'NONE', *, *, #269, .T. ) ;
#29 = FACE_OUTER_BOUND ( 'NONE', #230, .T. ) ;
#30 = CIRCLE ( 'NONE', #10, 0.06250000000000001388 ) ;
#31 = ORIENTED_EDGE ( 'NONE', *, *, #229, .T. ) ;
#32 = SURFACE_STYLE_USAGE ( .BOTH. , #56 ) ;
#33 = PRODUCT_DEFINITION_SHAPE ( 'NONE', 'NONE',  #16 ) ;
#34 = DIRECTION ( 'NONE',  ( -1.000000000000000000, 0.000000000000000000, 0.000000000000000000 ) ) ;
#35 = AXIS2_PLACEMENT_3D ( 'NONE', #25, #94, #275 ) ;
#36 = CARTESIAN_POINT ( 'NONE',  ( -0.06250000000000001388, 0.2499999999999998335, 0.000000000000000000 ) ) ;
#37 = FILL_AREA_STYLE ('',( #215 ) ) ;
#38 = ORIENTED_EDGE ( 'NONE', *, *, #21, .F. ) ;
#39 = EDGE_CURVE ( 'NONE', #247, #120, #285, .T. ) ;
#40 = UNCERTAINTY_MEASURE_WITH_UNIT (LENGTH_MEASURE( 1.000000000000000082E-05 ), #156, 'distance_accuracy_value', 'NONE');
#41 = DIMENSIONAL_EXPONENTS ( 1.000000000000000000, 0.000000000000000000, 0.000000000000000000, 0.000000000000000000, 0.000000000000000000, 0.000000000000000000, 0.000000000000000000 ) ;
#42 = CARTESIAN_POINT ( 'NONE',  ( -0.06249999999999866773, 1.499999999999999778, 0.000000000000000000 ) ) ;
#43 = VERTEX_POINT ( 'NONE', #180 ) ;
#44 =( LENGTH_UNIT ( ) NAMED_UNIT ( * ) SI_UNIT ( $, .METRE. ) );
#45 = VERTEX_POINT ( 'NONE', #100 ) ;
#46 = ORIENTED_EDGE ( 'NONE', *, *, #290, .F. ) ;
#47 = DIRECTION ( 'NONE',  ( 0.000000000000000000, 0.000000000000000000, 1.000000000000000000 ) ) ;
#48 = EDGE_LOOP ( 'NONE', ( #176, #95 ) ) ;
#49 = CARTESIAN_POINT ( 'NONE',  ( 6.735557395310442023E-16, 1.499999999999999778, 0.000000000000000000 ) ) ;
#50 = VERTEX_POINT ( 'NONE', #36 ) ;
#51 = ADVANCED_FACE ( 'NONE', ( #232 ), #259, .T. ) ;
#52 = DIRECTION ( 'NONE',  ( 5.388445916248354013E-16, 1.000000000000000000, -0.000000000000000000 ) ) ;
#53 = CIRCLE ( 'NONE', #133, 0.06249999999999934081 ) ;
#54 =( NAMED_UNIT ( * ) PLANE_ANGLE_UNIT ( ) SI_UNIT ( $, .RADIAN. ) );
#55 = UNCERTAINTY_MEASURE_WITH_UNIT (LENGTH_MEASURE( 1.000000000000000082E-05 ), #284, 'distance_accuracy_value', 'NONE');
#56 = SURFACE_SIDE_STYLE ('',( #277 ) ) ;
#57 = MECHANICAL_DESIGN_GEOMETRIC_PRESENTATION_REPRESENTATION (  '', ( #91 ), #214 ) ;
#58 = CARTESIAN_POINT ( 'NONE',  ( 0.06250000000000034694, 1.499999999999999778, 7.654042494670917485E-18 ) ) ;
#59 = LENGTH_MEASURE_WITH_UNIT ( LENGTH_MEASURE( 0.02539999999999999897 ), #236 );
#60 = PRESENTATION_STYLE_ASSIGNMENT (( #32 ) ) ;
#61 = CYLINDRICAL_SURFACE ( 'NONE', #104, 0.06250000000000001388 ) ;
#62 =( CONVERSION_BASED_UNIT ( 'INCH', #132 ) LENGTH_UNIT ( ) NAMED_UNIT ( #243 ) );
#63 = EDGE_CURVE ( 'NONE', #26, #43, #194, .T. ) ;
#64 = FILL_AREA_STYLE_COLOUR ( '', #221 ) ;
#65 = SURFACE_STYLE_USAGE ( .BOTH. , #112 ) ;
#66 = FILL_AREA_STYLE ('',( #304 ) ) ;
#67 = AXIS2_PLACEMENT_3D ( 'NONE', #49, #228, #27 ) ;
#68 = ORIENTED_EDGE ( 'NONE', *, *, #78, .T. ) ;
#69 = FACE_OUTER_BOUND ( 'NONE', #175, .T. ) ;
#70 = VERTEX_POINT ( 'NONE', #18 ) ;
#71 = DIRECTION ( 'NONE',  ( -0.000000000000000000, -1.000000000000000000, -0.000000000000000000 ) ) ;
#72 = CYLINDRICAL_SURFACE ( 'NONE', #241, 0.06249999999999967387 ) ;
#73 = CARTESIAN_POINT ( 'NONE',  ( 6.735557395310442023E-16, 1.499999999999999778, 0.000000000000000000 ) ) ;
#74 = APPLICATION_PROTOCOL_DEFINITION ( 'draft international standard', 'automotive_design', 1998, #192 ) ;
#75 = STYLED_ITEM ( 'NONE', ( #209 ), #174 ) ;
#76 = CARTESIAN_POINT ( 'NONE',  ( 7.654042494670959086E-18, 0.000000000000000000, 0.06250000000000001388 ) ) ;
#77 =( NAMED_UNIT ( * ) SI_UNIT ( $, .STERADIAN. ) SOLID_ANGLE_UNIT ( ) );
#78 = EDGE_CURVE ( 'NONE', #7, #70, #30, .T. ) ;
#79 =( LENGTH_UNIT ( ) NAMED_UNIT ( * ) SI_UNIT ( $, .METRE. ) );
#80 = SURFACE_SIDE_STYLE ('',( #155 ) ) ;
#81 =( GEOMETRIC_REPRESENTATION_CONTEXT ( 3 ) GLOBAL_UNCERTAINTY_ASSIGNED_CONTEXT ( ( #237 ) ) GLOBAL_UNIT_ASSIGNED_CONTEXT ( ( #62, #211, #77 ) ) REPRESENTATION_CONTEXT ( 'NONE', 'WORKASPACE' ) );
#82 = DIRECTION ( 'NONE',  ( 0.000000000000000000, 0.000000000000000000, -1.000000000000000000 ) ) ;
#83 = CARTESIAN_POINT ( 'NONE',  ( 6.735557395310442023E-16, 1.499999999999999778, 0.000000000000000000 ) ) ;
#84 = DIMENSIONAL_EXPONENTS ( 1.000000000000000000, 0.000000000000000000, 0.000000000000000000, 0.000000000000000000, 0.000000000000000000, 0.000000000000000000, 0.000000000000000000 ) ;
#85 = COLOUR_RGB ( '',0.7921568627450980005, 0.8196078431372548767, 0.9333333333333333481 ) ;
#86 = SURFACE_STYLE_FILL_AREA ( #138 ) ;
#87 =( GEOMETRIC_REPRESENTATION_CONTEXT ( 3 ) GLOBAL_UNCERTAINTY_ASSIGNED_CONTEXT ( ( #258 ) ) GLOBAL_UNIT_ASSIGNED_CONTEXT ( ( #135, #282, #188 ) ) REPRESENTATION_CONTEXT ( 'NONE', 'WORKASPACE' ) );
#88 = DIRECTION ( 'NONE',  ( -5.388445916248354013E-16, -1.000000000000000000, 0.000000000000000000 ) ) ;
#89 = CARTESIAN_POINT ( 'NONE',  ( 0.000000000000000000, 0.000000000000000000, -0.06250000000000001388 ) ) ;
#90 = EDGE_LOOP ( 'NONE', ( #222, #170 ) ) ;
#91 = STYLED_ITEM ( 'NONE', ( #244 ), #199 ) ;
#92 = EDGE_CURVE ( 'NONE', #45, #247, #101, .T. ) ;
#93 = FACE_OUTER_BOUND ( 'NONE', #113, .T. ) ;
#94 = DIRECTION ( 'NONE',  ( -0.000000000000000000, -1.000000000000000000, -0.000000000000000000 ) ) ;
#95 = ORIENTED_EDGE ( 'NONE', *, *, #229, .F. ) ;
#96 = DIRECTION ( 'NONE',  ( -1.000000000000000000, 5.463695987328525451E-16, 0.000000000000000000 ) ) ;
#97 =( LENGTH_UNIT ( ) NAMED_UNIT ( * ) SI_UNIT ( $, .METRE. ) );
#98 = CIRCLE ( 'NONE', #103, 0.06250000000000001388 ) ;
#99 = AXIS2_PLACEMENT_3D ( 'NONE', #119, #47, #146 ) ;
#100 = CARTESIAN_POINT ( 'NONE',  ( 0.06250000000000001388, 0.2499999999999997502, 7.654042494670939056E-18 ) ) ;
#101 = LINE ( 'NONE', #58, #116 ) ;
#102 = CARTESIAN_POINT ( 'NONE',  ( -1.213184216936841517E-31, 0.2499999999999998057, 0.000000000000000000 ) ) ;
#103 = AXIS2_PLACEMENT_3D ( 'NONE', #23, #71, #195 ) ;
#104 = AXIS2_PLACEMENT_3D ( 'NONE', #109, #1, #82 ) ;
#105 = SURFACE_STYLE_FILL_AREA ( #279 ) ;
#106 = PRODUCT_DEFINITION_CONTEXT ( 'detailed design', #192, 'design' ) ;
#107 = PRESENTATION_STYLE_ASSIGNMENT (( #263 ) ) ;
#108 = EDGE_CURVE ( 'NONE', #50, #45, #179, .T. ) ;
#109 = CARTESIAN_POINT ( 'NONE',  ( 0.000000000000000000, 0.000000000000000000, 0.000000000000000000 ) ) ;
#110 = LENGTH_MEASURE_WITH_UNIT ( LENGTH_MEASURE( 0.02539999999999999897 ), #286 );
#111 = EDGE_LOOP ( 'NONE', ( #6, #122 ) ) ;
#112 = SURFACE_SIDE_STYLE ('',( #86 ) ) ;
#113 = EDGE_LOOP ( 'NONE', ( #274, #289 ) ) ;
#114 = AXIS2_PLACEMENT_3D ( 'NONE', #217, #190, #162 ) ;
#115 = CARTESIAN_POINT ( 'NONE',  ( 0.000000000000000000, 0.000000000000000000, 0.000000000000000000 ) ) ;
#116 = VECTOR ( 'NONE', #207, 39.37007874015748143 ) ;
#117 = APPLICATION_PROTOCOL_DEFINITION ( 'draft international standard', 'automotive_design', 1998, #246 ) ;
#118 = EDGE_LOOP ( 'NONE', ( #46, #68, #28, #224 ) ) ;
#119 = CARTESIAN_POINT ( 'NONE',  ( 0.000000000000000000, 0.000000000000000000, 0.000000000000000000 ) ) ;
#120 = VERTEX_POINT ( 'NONE', #42 ) ;
#121 = CARTESIAN_POINT ( 'NONE',  ( 6.735557395310442023E-16, 1.499999999999999778, 0.000000000000000000 ) ) ;
#122 = ORIENTED_EDGE ( 'NONE', *, *, #63, .T. ) ;
#123 = CYLINDRICAL_SURFACE ( 'NONE', #67, 0.06249999999999967387 ) ;
#124 = DIRECTION ( 'NONE',  ( -0.000000000000000000, -1.000000000000000000, -0.000000000000000000 ) ) ;
#125 = AXIS2_PLACEMENT_3D ( 'NONE', #73, #152, #34 ) ;
#126 = DIRECTION ( 'NONE',  ( 0.000000000000000000, -0.000000000000000000, 1.000000000000000000 ) ) ;
#127 = MANIFOLD_SOLID_BREP ( 'Revolve - Tool Body (Straight Shanked)', #158 ) ;
#128 = SURFACE_STYLE_USAGE ( .BOTH. , #80 ) ;
#129 = UNCERTAINTY_MEASURE_WITH_UNIT (LENGTH_MEASURE( 1.000000000000000082E-05 ), #164, 'distance_accuracy_value', 'NONE');
#130 = STYLED_ITEM ( 'NONE', ( #60 ), #51 ) ;
#131 =( GEOMETRIC_REPRESENTATION_CONTEXT ( 3 ) GLOBAL_UNCERTAINTY_ASSIGNED_CONTEXT ( ( #40 ) ) GLOBAL_UNIT_ASSIGNED_CONTEXT ( ( #156, #233, #278 ) ) REPRESENTATION_CONTEXT ( 'NONE', 'WORKASPACE' ) );
#132 = LENGTH_MEASURE_WITH_UNIT ( LENGTH_MEASURE( 0.02539999999999999897 ), #280 );
#133 = AXIS2_PLACEMENT_3D ( 'NONE', #83, #242, #270 ) ;
#134 = DIMENSIONAL_EXPONENTS ( 1.000000000000000000, 0.000000000000000000, 0.000000000000000000, 0.000000000000000000, 0.000000000000000000, 0.000000000000000000, 0.000000000000000000 ) ;
#135 =( CONVERSION_BASED_UNIT ( 'INCH', #160 ) LENGTH_UNIT ( ) NAMED_UNIT ( #134 ) );
#136 = MANIFOLD_SOLID_BREP ( 'Revolve - Cutting Edge', #251 ) ;
#137 = AXIS2_PLACEMENT_3D ( 'NONE', #297, #15, #205 ) ;
#138 = FILL_AREA_STYLE ('',( #169 ) ) ;
#139 = DIMENSIONAL_EXPONENTS ( 1.000000000000000000, 0.000000000000000000, 0.000000000000000000, 0.000000000000000000, 0.000000000000000000, 0.000000000000000000, 0.000000000000000000 ) ;
#140 = PRESENTATION_STYLE_ASSIGNMENT (( #219 ) ) ;
#141 = ORIENTED_EDGE ( 'NONE', *, *, #92, .F. ) ;
#142 = EDGE_CURVE ( 'NONE', #120, #247, #53, .T. ) ;
#143 =( GEOMETRIC_REPRESENTATION_CONTEXT ( 3 ) GLOBAL_UNCERTAINTY_ASSIGNED_CONTEXT ( ( #245 ) ) GLOBAL_UNIT_ASSIGNED_CONTEXT ( ( #255, #54, #204 ) ) REPRESENTATION_CONTEXT ( 'NONE', 'WORKASPACE' ) );
#144 =( NAMED_UNIT ( * ) SI_UNIT ( $, .STERADIAN. ) SOLID_ANGLE_UNIT ( ) );
#145 = ORIENTED_EDGE ( 'NONE', *, *, #167, .T. ) ;
#146 = DIRECTION ( 'NONE',  ( 1.000000000000000000, 0.000000000000000000, 0.000000000000000000 ) ) ;
#147 = CARTESIAN_POINT ( 'NONE',  ( 0.06250000000000001388, 1.499999999999999778, 7.654042494670939056E-18 ) ) ;
#148 =( NAMED_UNIT ( * ) PLANE_ANGLE_UNIT ( ) SI_UNIT ( $, .RADIAN. ) );
#149 = STYLED_ITEM ( 'NONE', ( #301 ), #127 ) ;
#150 = DIRECTION ( 'NONE',  ( 0.000000000000000000, 1.000000000000000000, 0.000000000000000000 ) ) ;
#151 = FACE_OUTER_BOUND ( 'NONE', #216, .T. ) ;
#152 = DIRECTION ( 'NONE',  ( 5.388445916248354013E-16, 1.000000000000000000, -0.000000000000000000 ) ) ;
#153 = STYLED_ITEM ( 'NONE', ( #140 ), #182 ) ;
#154 = LENGTH_MEASURE_WITH_UNIT ( LENGTH_MEASURE( 0.02539999999999999897 ), #11 );
#155 = SURFACE_STYLE_FILL_AREA ( #186 ) ;
#156 =( CONVERSION_BASED_UNIT ( 'INCH', #59 ) LENGTH_UNIT ( ) NAMED_UNIT ( #20 ) );
#157 = DIMENSIONAL_EXPONENTS ( 1.000000000000000000, 0.000000000000000000, 0.000000000000000000, 0.000000000000000000, 0.000000000000000000, 0.000000000000000000, 0.000000000000000000 ) ;
#158 = CLOSED_SHELL ( 'NONE', ( #200, #191, #235, #8 ) ) ;
#159 = MECHANICAL_DESIGN_GEOMETRIC_PRESENTATION_REPRESENTATION (  '', ( #75 ), #131 ) ;
#160 = LENGTH_MEASURE_WITH_UNIT ( LENGTH_MEASURE( 0.02539999999999999897 ), #79 );
#161 = PRESENTATION_LAYER_ASSIGNMENT (  '', '', ( #149 ) ) ;
#162 = DIRECTION ( 'NONE',  ( -1.000000000000000000, 5.388445916248354013E-16, 0.000000000000000000 ) ) ;
#163 = SURFACE_STYLE_USAGE ( .BOTH. , #300 ) ;
#164 =( CONVERSION_BASED_UNIT ( 'INCH', #110 ) LENGTH_UNIT ( ) NAMED_UNIT ( #41 ) );
#165 =( GEOMETRIC_REPRESENTATION_CONTEXT ( 3 ) GLOBAL_UNCERTAINTY_ASSIGNED_CONTEXT ( ( #55 ) ) GLOBAL_UNIT_ASSIGNED_CONTEXT ( ( #284, #22, #306 ) ) REPRESENTATION_CONTEXT ( 'NONE', 'WORKASPACE' ) );
#166 = SURFACE_STYLE_FILL_AREA ( #66 ) ;
#167 = EDGE_CURVE ( 'NONE', #70, #7, #308, .T. ) ;
#168 = ORIENTED_EDGE ( 'NONE', *, *, #298, .F. ) ;
#169 = FILL_AREA_STYLE_COLOUR ( '', #173 ) ;
#170 = ORIENTED_EDGE ( 'NONE', *, *, #78, .F. ) ;
#171 = DIRECTION ( 'NONE',  ( -0.000000000000000000, -1.000000000000000000, -0.000000000000000000 ) ) ;
#172 = AXIS2_PLACEMENT_3D ( 'NONE', #102, #208, #185 ) ;
#173 = COLOUR_RGB ( '',1.000000000000000000, 0.000000000000000000, 0.000000000000000000 ) ;
#174 = ADVANCED_FACE ( 'NONE', ( #184 ), #61, .T. ) ;
#175 = EDGE_LOOP ( 'NONE', ( #145, #260, #38, #268 ) ) ;
#176 = ORIENTED_EDGE ( 'NONE', *, *, #108, .F. ) ;
#177 = LINE ( 'NONE', #231, #201 ) ;
#178 = SHAPE_DEFINITION_REPRESENTATION ( #33, #292 ) ;
#179 = CIRCLE ( 'NONE', #172, 0.06250000000000001388 ) ;
#180 = CARTESIAN_POINT ( 'NONE',  ( 0.000000000000000000, 0.000000000000000000, -0.06250000000000001388 ) ) ;
#181 = CARTESIAN_POINT ( 'NONE',  ( 0.000000000000000000, 0.2499999999999998057, 0.000000000000000000 ) ) ;
#182 = ADVANCED_FACE ( 'NONE', ( #264 ), #283, .T. ) ;
#183 = PRODUCT_DEFINITION_FORMATION_WITH_SPECIFIED_SOURCE ( 'ANY', '', #206, .NOT_KNOWN. ) ;
#184 = FACE_OUTER_BOUND ( 'NONE', #118, .T. ) ;
#185 = DIRECTION ( 'NONE',  ( -1.000000000000000000, 5.463695987328525451E-16, 0.000000000000000000 ) ) ;
#186 = FILL_AREA_STYLE ('',( #64 ) ) ;
#187 = MECHANICAL_DESIGN_GEOMETRIC_PRESENTATION_REPRESENTATION (  '', ( #149 ), #81 ) ;
#188 =( NAMED_UNIT ( * ) SI_UNIT ( $, .STERADIAN. ) SOLID_ANGLE_UNIT ( ) );
#189 = ORIENTED_EDGE ( 'NONE', *, *, #142, .F. ) ;
#190 = DIRECTION ( 'NONE',  ( 5.388445916248354013E-16, 1.000000000000000000, -0.000000000000000000 ) ) ;
#191 = ADVANCED_FACE ( 'NONE', ( #24 ), #196, .F. ) ;
#192 = APPLICATION_CONTEXT ( 'automotive_design' ) ;
#193 = PRESENTATION_LAYER_ASSIGNMENT (  '', '', ( #75 ) ) ;
#194 = CIRCLE ( 'NONE', #240, 0.06250000000000001388 ) ;
#195 = DIRECTION ( 'NONE',  ( 0.000000000000000000, 0.000000000000000000, -1.000000000000000000 ) ) ;
#196 = PLANE ( 'NONE',  #114 ) ;
#197 = PLANE ( 'NONE',  #253 ) ;
#198 = DIRECTION ( 'NONE',  ( 5.388445916248354013E-16, 1.000000000000000000, -0.000000000000000000 ) ) ;
#199 = ADVANCED_FACE ( 'NONE', ( #69 ), #248, .T. ) ;
#200 = ADVANCED_FACE ( 'NONE', ( #29 ), #72, .T. ) ;
#201 = VECTOR ( 'NONE', #171, 39.37007874015748143 ) ;
#202 =( CONVERSION_BASED_UNIT ( 'INCH', #2 ) LENGTH_UNIT ( ) NAMED_UNIT ( #157 ) );
#203 = MECHANICAL_DESIGN_GEOMETRIC_PRESENTATION_REPRESENTATION (  '', ( #288 ), #87 ) ;
#204 =( NAMED_UNIT ( * ) SI_UNIT ( $, .STERADIAN. ) SOLID_ANGLE_UNIT ( ) );
#205 = DIRECTION ( 'NONE',  ( 0.000000000000000000, 0.000000000000000000, -1.000000000000000000 ) ) ;
#206 = PRODUCT ( '01015', '01015', '', ( #225 ) ) ;
#207 = DIRECTION ( 'NONE',  ( 5.388445916248354013E-16, 1.000000000000000000, -0.000000000000000000 ) ) ;
#208 = DIRECTION ( 'NONE',  ( 5.388445916248354013E-16, 1.000000000000000000, -0.000000000000000000 ) ) ;
#209 = PRESENTATION_STYLE_ASSIGNMENT (( #128 ) ) ;
#210 = UNCERTAINTY_MEASURE_WITH_UNIT (LENGTH_MEASURE( 1.000000000000000082E-05 ), #202, 'distance_accuracy_value', 'NONE');
#211 =( NAMED_UNIT ( * ) PLANE_ANGLE_UNIT ( ) SI_UNIT ( $, .RADIAN. ) );
#212 = SURFACE_SIDE_STYLE ('',( #105 ) ) ;
#213 = COLOUR_RGB ( '',1.000000000000000000, 0.000000000000000000, 0.000000000000000000 ) ;
#214 =( GEOMETRIC_REPRESENTATION_CONTEXT ( 3 ) GLOBAL_UNCERTAINTY_ASSIGNED_CONTEXT ( ( #129 ) ) GLOBAL_UNIT_ASSIGNED_CONTEXT ( ( #164, #305, #267 ) ) REPRESENTATION_CONTEXT ( 'NONE', 'WORKASPACE' ) );
#215 = FILL_AREA_STYLE_COLOUR ( '', #213 ) ;
#216 = EDGE_LOOP ( 'NONE', ( #141, #31, #227, #218 ) ) ;
#217 = CARTESIAN_POINT ( 'NONE',  ( 9.073546685104240443E-33, 0.2499999999999998057, 0.000000000000000000 ) ) ;
#218 = ORIENTED_EDGE ( 'NONE', *, *, #39, .F. ) ;
#219 = SURFACE_STYLE_USAGE ( .BOTH. , #303 ) ;
#220 = AXIS2_PLACEMENT_3D ( 'NONE', #181, #150, #126 ) ;
#221 = COLOUR_RGB ( '',1.000000000000000000, 0.000000000000000000, 0.000000000000000000 ) ;
#222 = ORIENTED_EDGE ( 'NONE', *, *, #167, .F. ) ;
#223 = LENGTH_MEASURE_WITH_UNIT ( LENGTH_MEASURE( 0.02539999999999999897 ), #44 );
#224 = ORIENTED_EDGE ( 'NONE', *, *, #63, .F. ) ;
#225 = PRODUCT_CONTEXT ( 'NONE', #246, 'mechanical' ) ;
#226 = LINE ( 'NONE', #254, #307 ) ;
#227 = ORIENTED_EDGE ( 'NONE', *, *, #298, .T. ) ;
#228 = DIRECTION ( 'NONE',  ( 5.388445916248354013E-16, 1.000000000000000000, -0.000000000000000000 ) ) ;
#229 = EDGE_CURVE ( 'NONE', #45, #50, #5, .T. ) ;
#230 = EDGE_LOOP ( 'NONE', ( #3, #265, #189, #168 ) ) ;
#231 = CARTESIAN_POINT ( 'NONE',  ( 7.654042494670959086E-18, 0.000000000000000000, 0.06250000000000001388 ) ) ;
#232 = FACE_OUTER_BOUND ( 'NONE', #90, .T. ) ;
#233 =( NAMED_UNIT ( * ) PLANE_ANGLE_UNIT ( ) SI_UNIT ( $, .RADIAN. ) );
#234 = DIRECTION ( 'NONE',  ( -0.000000000000000000, -1.000000000000000000, -0.000000000000000000 ) ) ;
#235 = ADVANCED_FACE ( 'NONE', ( #151 ), #123, .T. ) ;
#236 =( LENGTH_UNIT ( ) NAMED_UNIT ( * ) SI_UNIT ( $, .METRE. ) );
#237 = UNCERTAINTY_MEASURE_WITH_UNIT (LENGTH_MEASURE( 1.000000000000000082E-05 ), #62, 'distance_accuracy_value', 'NONE');
#238 = DIRECTION ( 'NONE',  ( 0.000000000000000000, 0.000000000000000000, -1.000000000000000000 ) ) ;
#239 = PRESENTATION_LAYER_ASSIGNMENT (  '', '', ( #91 ) ) ;
#240 = AXIS2_PLACEMENT_3D ( 'NONE', #296, #124, #238 ) ;
#241 = AXIS2_PLACEMENT_3D ( 'NONE', #121, #198, #9 ) ;
#242 = DIRECTION ( 'NONE',  ( 5.388445916248354013E-16, 1.000000000000000000, -0.000000000000000000 ) ) ;
#243 = DIMENSIONAL_EXPONENTS ( 1.000000000000000000, 0.000000000000000000, 0.000000000000000000, 0.000000000000000000, 0.000000000000000000, 0.000000000000000000, 0.000000000000000000 ) ;
#244 = PRESENTATION_STYLE_ASSIGNMENT (( #65 ) ) ;
#245 = UNCERTAINTY_MEASURE_WITH_UNIT (LENGTH_MEASURE( 1.000000000000000082E-05 ), #255, 'distance_accuracy_value', 'NONE');
#246 = APPLICATION_CONTEXT ( 'automotive_design' ) ;
#247 = VERTEX_POINT ( 'NONE', #147 ) ;
#248 = CYLINDRICAL_SURFACE ( 'NONE', #35, 0.06250000000000001388 ) ;
#249 = DIRECTION ( 'NONE',  ( 1.000000000000000000, -5.388445916248354013E-16, 0.000000000000000000 ) ) ;
#250 = DIRECTION ( 'NONE',  ( 0.000000000000000000, 0.000000000000000000, -1.000000000000000000 ) ) ;
#251 = CLOSED_SHELL ( 'NONE', ( #199, #51, #174, #182 ) ) ;
#252 = AXIS2_PLACEMENT_3D ( 'NONE', #115, #266, #250 ) ;
#253 = AXIS2_PLACEMENT_3D ( 'NONE', #309, #88, #249 ) ;
#254 = CARTESIAN_POINT ( 'NONE',  ( -0.06249999999999900080, 1.499999999999999778, 0.000000000000000000 ) ) ;
#255 =( CONVERSION_BASED_UNIT ( 'INCH', #154 ) LENGTH_UNIT ( ) NAMED_UNIT ( #84 ) );
#256 = AXIS2_PLACEMENT_3D ( 'NONE', #4, #52, #96 ) ;
#257 = FILL_AREA_STYLE ('',( #276 ) ) ;
#258 = UNCERTAINTY_MEASURE_WITH_UNIT (LENGTH_MEASURE( 1.000000000000000082E-05 ), #135, 'distance_accuracy_value', 'NONE');
#259 = PLANE ( 'NONE',  #220 ) ;
#260 = ORIENTED_EDGE ( 'NONE', *, *, #290, .T. ) ;
#261 = VECTOR ( 'NONE', #295, 39.37007874015748143 ) ;
#262 = MECHANICAL_DESIGN_GEOMETRIC_PRESENTATION_REPRESENTATION (  '', ( #130 ), #143 ) ;
#263 = SURFACE_STYLE_USAGE ( .BOTH. , #212 ) ;
#264 = FACE_OUTER_BOUND ( 'NONE', #111, .T. ) ;
#265 = ORIENTED_EDGE ( 'NONE', *, *, #92, .T. ) ;
#266 = DIRECTION ( 'NONE',  ( 0.000000000000000000, -1.000000000000000000, -0.000000000000000000 ) ) ;
#267 =( NAMED_UNIT ( * ) SI_UNIT ( $, .STERADIAN. ) SOLID_ANGLE_UNIT ( ) );
#268 = ORIENTED_EDGE ( 'NONE', *, *, #269, .F. ) ;
#269 = EDGE_CURVE ( 'NONE', #70, #43, #293, .T. ) ;
#270 = DIRECTION ( 'NONE',  ( -1.000000000000000000, 0.000000000000000000, 0.000000000000000000 ) ) ;
#271 = CARTESIAN_POINT ( 'NONE',  ( 7.654042494670959086E-18, 0.2499999999999998057, 0.06250000000000001388 ) ) ;
#272 = DIRECTION ( 'NONE',  ( 5.388445916248354013E-16, 1.000000000000000000, -0.000000000000000000 ) ) ;
#273 = PRESENTATION_LAYER_ASSIGNMENT (  '', '', ( #130 ) ) ;
#274 = ORIENTED_EDGE ( 'NONE', *, *, #142, .T. ) ;
#275 = DIRECTION ( 'NONE',  ( 0.000000000000000000, 0.000000000000000000, -1.000000000000000000 ) ) ;
#276 = FILL_AREA_STYLE_COLOUR ( '', #281 ) ;
#277 = SURFACE_STYLE_FILL_AREA ( #257 ) ;
#278 =( NAMED_UNIT ( * ) SI_UNIT ( $, .STERADIAN. ) SOLID_ANGLE_UNIT ( ) );
#279 = FILL_AREA_STYLE ('',( #19 ) ) ;
#280 =( LENGTH_UNIT ( ) NAMED_UNIT ( * ) SI_UNIT ( $, .METRE. ) );
#281 = COLOUR_RGB ( '',1.000000000000000000, 0.000000000000000000, 0.000000000000000000 ) ;
#282 =( NAMED_UNIT ( * ) PLANE_ANGLE_UNIT ( ) SI_UNIT ( $, .RADIAN. ) );
#283 = PLANE ( 'NONE',  #252 ) ;
#284 =( CONVERSION_BASED_UNIT ( 'INCH', #223 ) LENGTH_UNIT ( ) NAMED_UNIT ( #139 ) );
#285 = CIRCLE ( 'NONE', #125, 0.06249999999999934081 ) ;
#286 =( LENGTH_UNIT ( ) NAMED_UNIT ( * ) SI_UNIT ( $, .METRE. ) );
#287 = PRESENTATION_LAYER_ASSIGNMENT (  '', '', ( #153 ) ) ;
#288 = STYLED_ITEM ( 'NONE', ( #107 ), #136 ) ;
#289 = ORIENTED_EDGE ( 'NONE', *, *, #39, .T. ) ;
#290 = EDGE_CURVE ( 'NONE', #7, #26, #177, .T. ) ;
#291 = SURFACE_STYLE_FILL_AREA ( #37 ) ;
#292 = ADVANCED_BREP_SHAPE_REPRESENTATION ( '01015', ( #136, #127, #99 ), #294 ) ;
#293 = LINE ( 'NONE', #89, #261 ) ;
#294 =( GEOMETRIC_REPRESENTATION_CONTEXT ( 3 ) GLOBAL_UNCERTAINTY_ASSIGNED_CONTEXT ( ( #210 ) ) GLOBAL_UNIT_ASSIGNED_CONTEXT ( ( #202, #148, #144 ) ) REPRESENTATION_CONTEXT ( 'NONE', 'WORKASPACE' ) );
#295 = DIRECTION ( 'NONE',  ( -0.000000000000000000, -1.000000000000000000, -0.000000000000000000 ) ) ;
#296 = CARTESIAN_POINT ( 'NONE',  ( 0.000000000000000000, 0.000000000000000000, 0.000000000000000000 ) ) ;
#297 = CARTESIAN_POINT ( 'NONE',  ( 0.000000000000000000, 0.2499999999999998057, 0.000000000000000000 ) ) ;
#298 = EDGE_CURVE ( 'NONE', #50, #120, #226, .T. ) ;
#299 = COLOUR_RGB ( '',0.7921568627450980005, 0.8196078431372548767, 0.9333333333333333481 ) ;
#300 = SURFACE_SIDE_STYLE ('',( #166 ) ) ;
#301 = PRESENTATION_STYLE_ASSIGNMENT (( #163 ) ) ;
#302 = MECHANICAL_DESIGN_GEOMETRIC_PRESENTATION_REPRESENTATION (  '', ( #153 ), #165 ) ;
#303 = SURFACE_SIDE_STYLE ('',( #291 ) ) ;
#304 = FILL_AREA_STYLE_COLOUR ( '', #85 ) ;
#305 =( NAMED_UNIT ( * ) PLANE_ANGLE_UNIT ( ) SI_UNIT ( $, .RADIAN. ) );
#306 =( NAMED_UNIT ( * ) SI_UNIT ( $, .STERADIAN. ) SOLID_ANGLE_UNIT ( ) );
#307 = VECTOR ( 'NONE', #272, 39.37007874015748143 ) ;
#308 = CIRCLE ( 'NONE', #137, 0.06250000000000001388 ) ;
#309 = CARTESIAN_POINT ( 'NONE',  ( 0.06250000000000001388, 1.499999999999999778, 0.000000000000000000 ) ) ;
ENDSEC;
END-ISO-10303-21;
