ISO-10303-21;
HEADER;
FILE_DESCRIPTION (( 'STEP AP214' ),
    '1' );
FILE_NAME ('07034.STEP',
    '2023-07-12T13:05:24',
    ( '' ),
    ( '' ),
    'SwSTEP 2.0',
    'SolidWorks 2023',
    '' );
FILE_SCHEMA (( 'AUTOMOTIVE_DESIGN' ));
ENDSEC;

DATA;
#1 = DIMENSIONAL_EXPONENTS ( 1.000000000000000000, 0.000000000000000000, 0.000000000000000000, 0.000000000000000000, 0.000000000000000000, 0.000000000000000000, 0.000000000000000000 ) ;
#2 = CARTESIAN_POINT ( 'NONE',  ( 0.1875000000000000278, 0.08804591605141746935, 2.296212748401287109E-17 ) ) ;
#3 = CARTESIAN_POINT ( 'NONE',  ( 2.899956267070462878E-18, 0.08804591605141746935, 0.000000000000000000 ) ) ;
#4 = AXIS2_PLACEMENT_3D ( 'NONE', #121, #214, #267 ) ;
#5 = CARTESIAN_POINT ( 'NONE',  ( 3.796929285016891984E-35, 1.152790201969079895E-18, 0.000000000000000000 ) ) ;
#6 = VERTEX_POINT ( 'NONE', #297 ) ;
#7 = ADVANCED_BREP_SHAPE_REPRESENTATION ( '07034', ( #234, #23, #25 ), #184 ) ;
#8 = SURFACE_STYLE_USAGE ( .BOTH. , #251 ) ;
#9 =( LENGTH_UNIT ( ) NAMED_UNIT ( * ) SI_UNIT ( $, .METRE. ) );
#10 =( NAMED_UNIT ( * ) PLANE_ANGLE_UNIT ( ) SI_UNIT ( $, .RADIAN. ) );
#11 = CIRCLE ( 'NONE', #114, 0.1874999999999996392 ) ;
#12 = ORIENTED_EDGE ( 'NONE', *, *, #237, .F. ) ;
#13 = DIRECTION ( 'NONE',  ( 1.000000000000000000, 0.000000000000000000, 0.000000000000000000 ) ) ;
#14 = DIRECTION ( 'NONE',  ( -1.091126116544571190E-16, 1.000000000000000000, -0.000000000000000000 ) ) ;
#15 = ORIENTED_EDGE ( 'NONE', *, *, #192, .F. ) ;
#16 = FILL_AREA_STYLE ('',( #208 ) ) ;
#17 = VERTEX_POINT ( 'NONE', #174 ) ;
#18 = PRODUCT_DEFINITION_SHAPE ( 'NONE', 'NONE',  #140 ) ;
#19 = EDGE_LOOP ( 'NONE', ( #177, #232, #299, #12 ) ) ;
#20 = VECTOR ( 'NONE', #57, 39.37007874015748143 ) ;
#21 = STYLED_ITEM ( 'NONE', ( #291 ), #148 ) ;
#22 = DIRECTION ( 'NONE',  ( 3.293686291340228292E-17, 1.000000000000000000, 0.000000000000000000 ) ) ;
#23 = MANIFOLD_SOLID_BREP ( 'Revolve - Tool Body (Tipped Off)', #224 ) ;
#24 = DIRECTION ( 'NONE',  ( -1.091126116544571190E-16, 1.000000000000000000, -0.000000000000000000 ) ) ;
#25 = AXIS2_PLACEMENT_3D ( 'NONE', #54, #227, #13 ) ;
#26 = DIRECTION ( 'NONE',  ( 1.000000000000000000, 0.000000000000000000, 0.000000000000000000 ) ) ;
#27 = FILL_AREA_STYLE ('',( #33 ) ) ;
#28 = PRESENTATION_STYLE_ASSIGNMENT (( #269 ) ) ;
#29 = AXIS2_PLACEMENT_3D ( 'NONE', #67, #165, #218 ) ;
#30 = FACE_OUTER_BOUND ( 'NONE', #37, .T. ) ;
#31 = ADVANCED_FACE ( 'NONE', ( #104 ), #145, .F. ) ;
#32 = CARTESIAN_POINT ( 'NONE',  ( -0.1874999999999996947, 2.500000000000000000, 0.000000000000000000 ) ) ;
#33 = FILL_AREA_STYLE_COLOUR ( '', #99 ) ;
#34 = STYLED_ITEM ( 'NONE', ( #196 ), #23 ) ;
#35 = AXIS2_PLACEMENT_3D ( 'NONE', #51, #100, #220 ) ;
#36 =( NAMED_UNIT ( * ) SI_UNIT ( $, .STERADIAN. ) SOLID_ANGLE_UNIT ( ) );
#37 = EDGE_LOOP ( 'NONE', ( #157, #132, #198, #240 ) ) ;
#38 = EDGE_CURVE ( 'NONE', #260, #6, #171, .T. ) ;
#39 = PRESENTATION_STYLE_ASSIGNMENT (( #301 ) ) ;
#40 = STYLED_ITEM ( 'NONE', ( #28 ), #234 ) ;
#41 = LENGTH_MEASURE_WITH_UNIT ( LENGTH_MEASURE( 0.02539999999999999897 ), #181 );
#42 = EDGE_LOOP ( 'NONE', ( #262, #230 ) ) ;
#43 =( NAMED_UNIT ( * ) SI_UNIT ( $, .STERADIAN. ) SOLID_ANGLE_UNIT ( ) );
#44 = DIMENSIONAL_EXPONENTS ( 1.000000000000000000, 0.000000000000000000, 0.000000000000000000, 0.000000000000000000, 0.000000000000000000, 0.000000000000000000, 0.000000000000000000 ) ;
#45 = FILL_AREA_STYLE_COLOUR ( '', #80 ) ;
#46 = VECTOR ( 'NONE', #193, 39.37007874015748143 ) ;
#47 = PRESENTATION_STYLE_ASSIGNMENT (( #8 ) ) ;
#48 = DIRECTION ( 'NONE',  ( 1.091126116544571313E-16, -1.000000000000000000, 0.000000000000000000 ) ) ;
#49 = ADVANCED_FACE ( 'NONE', ( #280 ), #154, .T. ) ;
#50 = APPLICATION_CONTEXT ( 'automotive_design' ) ;
#51 = CARTESIAN_POINT ( 'NONE',  ( 3.796929285016891984E-35, 1.152790201969079895E-18, 0.000000000000000000 ) ) ;
#52 =( NAMED_UNIT ( * ) SI_UNIT ( $, .STERADIAN. ) SOLID_ANGLE_UNIT ( ) );
#53 =( GEOMETRIC_REPRESENTATION_CONTEXT ( 3 ) GLOBAL_UNCERTAINTY_ASSIGNED_CONTEXT ( ( #277 ) ) GLOBAL_UNIT_ASSIGNED_CONTEXT ( ( #281, #112, #264 ) ) REPRESENTATION_CONTEXT ( 'NONE', 'WORKASPACE' ) );
#54 = CARTESIAN_POINT ( 'NONE',  ( 0.000000000000000000, 0.000000000000000000, 0.000000000000000000 ) ) ;
#55 = DIRECTION ( 'NONE',  ( -1.000000000000000000, 3.293686291340227676E-17, 0.000000000000000000 ) ) ;
#56 = ORIENTED_EDGE ( 'NONE', *, *, #179, .T. ) ;
#57 = DIRECTION ( 'NONE',  ( 0.8660254037844398178, 0.4999999999999979461, 1.060575238724908271E-16 ) ) ;
#58 = DIRECTION ( 'NONE',  ( -1.000000000000000000, -1.091126116544571313E-16, 0.000000000000000000 ) ) ;
#59 =( GEOMETRIC_REPRESENTATION_CONTEXT ( 3 ) GLOBAL_UNCERTAINTY_ASSIGNED_CONTEXT ( ( #136 ) ) GLOBAL_UNIT_ASSIGNED_CONTEXT ( ( #243, #287, #43 ) ) REPRESENTATION_CONTEXT ( 'NONE', 'WORKASPACE' ) );
#60 = ORIENTED_EDGE ( 'NONE', *, *, #137, .T. ) ;
#61 = CARTESIAN_POINT ( 'NONE',  ( 0.1874999999999999722, 0.08804591605141733057, 2.296212748401285877E-17 ) ) ;
#62 = PLANE ( 'NONE',  #235 ) ;
#63 = FILL_AREA_STYLE ('',( #45 ) ) ;
#64 = PRESENTATION_LAYER_ASSIGNMENT (  '', '', ( #304 ) ) ;
#65 = COLOUR_RGB ( '',0.7921568627450980005, 0.8196078431372548767, 0.9333333333333333481 ) ;
#66 = DIRECTION ( 'NONE',  ( 1.000000000000000000, -3.293686291340227676E-17, 0.000000000000000000 ) ) ;
#67 = CARTESIAN_POINT ( 'NONE',  ( 6.123233995736772199E-17, 2.500000000000000000, 0.000000000000000000 ) ) ;
#68 = SURFACE_SIDE_STYLE ('',( #294 ) ) ;
#69 = CIRCLE ( 'NONE', #76, 0.1875000000000000278 ) ;
#70 = DIRECTION ( 'NONE',  ( 1.000000000000000000, 0.000000000000000000, 0.000000000000000000 ) ) ;
#71 = EDGE_CURVE ( 'NONE', #85, #204, #229, .T. ) ;
#72 = LENGTH_MEASURE_WITH_UNIT ( LENGTH_MEASURE( 0.02539999999999999897 ), #96 );
#73 = DIMENSIONAL_EXPONENTS ( 1.000000000000000000, 0.000000000000000000, 0.000000000000000000, 0.000000000000000000, 0.000000000000000000, 0.000000000000000000, 0.000000000000000000 ) ;
#74 = CARTESIAN_POINT ( 'NONE',  ( 0.1874999999999998335, 2.500000000000000000, 2.296212748401284644E-17 ) ) ;
#75 = STYLED_ITEM ( 'NONE', ( #109 ), #49 ) ;
#76 = AXIS2_PLACEMENT_3D ( 'NONE', #3, #293, #70 ) ;
#77 =( LENGTH_UNIT ( ) NAMED_UNIT ( * ) SI_UNIT ( $, .METRE. ) );
#78 = ORIENTED_EDGE ( 'NONE', *, *, #192, .T. ) ;
#79 = UNCERTAINTY_MEASURE_WITH_UNIT (LENGTH_MEASURE( 1.000000000000000082E-05 ), #250, 'distance_accuracy_value', 'NONE');
#80 = COLOUR_RGB ( '',1.000000000000000000, 0.000000000000000000, 0.000000000000000000 ) ;
#81 = CIRCLE ( 'NONE', #273, 0.03500000000000000333 ) ;
#82 = CARTESIAN_POINT ( 'NONE',  ( 3.244069492476312449E-16, 0.08804591605141731669, 0.000000000000000000 ) ) ;
#83 = CARTESIAN_POINT ( 'NONE',  ( 6.123233995736772199E-17, 2.500000000000000000, 0.000000000000000000 ) ) ;
#84 = EDGE_LOOP ( 'NONE', ( #116, #135 ) ) ;
#85 = VERTEX_POINT ( 'NONE', #153 ) ;
#86 =( GEOMETRIC_REPRESENTATION_CONTEXT ( 3 ) GLOBAL_UNCERTAINTY_ASSIGNED_CONTEXT ( ( #105 ) ) GLOBAL_UNIT_ASSIGNED_CONTEXT ( ( #143, #248, #52 ) ) REPRESENTATION_CONTEXT ( 'NONE', 'WORKASPACE' ) );
#87 = DIRECTION ( 'NONE',  ( -1.091126116544571313E-16, 1.000000000000000000, 0.000000000000000000 ) ) ;
#88 = DIRECTION ( 'NONE',  ( -1.000000000000000000, 0.000000000000000000, 0.000000000000000000 ) ) ;
#89 = SURFACE_SIDE_STYLE ('',( #186 ) ) ;
#90 = MECHANICAL_DESIGN_GEOMETRIC_PRESENTATION_REPRESENTATION (  '', ( #34 ), #183 ) ;
#91 = PRESENTATION_LAYER_ASSIGNMENT (  '', '', ( #21 ) ) ;
#92 = APPLICATION_CONTEXT ( 'automotive_design' ) ;
#93 = CARTESIAN_POINT ( 'NONE',  ( 2.899956267070462878E-18, 0.08804591605141746935, 0.000000000000000000 ) ) ;
#94 = LINE ( 'NONE', #245, #188 ) ;
#95 = CIRCLE ( 'NONE', #35, 0.03500000000000000333 ) ;
#96 =( LENGTH_UNIT ( ) NAMED_UNIT ( * ) SI_UNIT ( $, .METRE. ) );
#97 = SURFACE_STYLE_FILL_AREA ( #27 ) ;
#98 =( NAMED_UNIT ( * ) PLANE_ANGLE_UNIT ( ) SI_UNIT ( $, .RADIAN. ) );
#99 = COLOUR_RGB ( '',0.7921568627450980005, 0.8196078431372548767, 0.9333333333333333481 ) ;
#100 = DIRECTION ( 'NONE',  ( -3.293686291340228292E-17, -1.000000000000000000, -0.000000000000000000 ) ) ;
#101 = ORIENTED_EDGE ( 'NONE', *, *, #237, .T. ) ;
#102 = APPLICATION_PROTOCOL_DEFINITION ( 'draft international standard', 'automotive_design', 1998, #92 ) ;
#103 =( NAMED_UNIT ( * ) SI_UNIT ( $, .STERADIAN. ) SOLID_ANGLE_UNIT ( ) );
#104 = FACE_OUTER_BOUND ( 'NONE', #84, .T. ) ;
#105 = UNCERTAINTY_MEASURE_WITH_UNIT (LENGTH_MEASURE( 1.000000000000000082E-05 ), #143, 'distance_accuracy_value', 'NONE');
#106 = DIRECTION ( 'NONE',  ( -1.000000000000000000, 3.293686291340227676E-17, 0.000000000000000000 ) ) ;
#107 = VERTEX_POINT ( 'NONE', #257 ) ;
#108 =( CONVERSION_BASED_UNIT ( 'INCH', #129 ) LENGTH_UNIT ( ) NAMED_UNIT ( #222 ) );
#109 = PRESENTATION_STYLE_ASSIGNMENT (( #150 ) ) ;
#110 = EDGE_LOOP ( 'NONE', ( #239, #282, #210, #78 ) ) ;
#111 = PRODUCT ( '07034', '07034', '', ( #131 ) ) ;
#112 =( NAMED_UNIT ( * ) PLANE_ANGLE_UNIT ( ) SI_UNIT ( $, .RADIAN. ) );
#113 = ORIENTED_EDGE ( 'NONE', *, *, #246, .F. ) ;
#114 = AXIS2_PLACEMENT_3D ( 'NONE', #82, #147, #180 ) ;
#115 = LENGTH_MEASURE_WITH_UNIT ( LENGTH_MEASURE( 0.02539999999999999897 ), #191 );
#116 = ORIENTED_EDGE ( 'NONE', *, *, #307, .F. ) ;
#117 = FACE_OUTER_BOUND ( 'NONE', #300, .T. ) ;
#118 = CYLINDRICAL_SURFACE ( 'NONE', #4, 0.1874999999999997780 ) ;
#119 = UNCERTAINTY_MEASURE_WITH_UNIT (LENGTH_MEASURE( 1.000000000000000082E-05 ), #274, 'distance_accuracy_value', 'NONE');
#120 =( GEOMETRIC_REPRESENTATION_CONTEXT ( 3 ) GLOBAL_UNCERTAINTY_ASSIGNED_CONTEXT ( ( #226 ) ) GLOBAL_UNIT_ASSIGNED_CONTEXT ( ( #278, #209, #36 ) ) REPRESENTATION_CONTEXT ( 'NONE', 'WORKASPACE' ) );
#121 = CARTESIAN_POINT ( 'NONE',  ( 6.123233995736772199E-17, 2.500000000000000000, 0.000000000000000000 ) ) ;
#122 = PRESENTATION_LAYER_ASSIGNMENT (  '', '', ( #217 ) ) ;
#123 = CYLINDRICAL_SURFACE ( 'NONE', #29, 0.1874999999999997780 ) ;
#124 = ADVANCED_FACE ( 'NONE', ( #152 ), #256, .T. ) ;
#125 = CARTESIAN_POINT ( 'NONE',  ( 0.1874999999999999722, 2.500000000000000000, 0.000000000000000000 ) ) ;
#126 = MECHANICAL_DESIGN_GEOMETRIC_PRESENTATION_REPRESENTATION (  '', ( #217 ), #212 ) ;
#127 = FILL_AREA_STYLE ('',( #195 ) ) ;
#128 = ADVANCED_FACE ( 'NONE', ( #117 ), #118, .T. ) ;
#129 = LENGTH_MEASURE_WITH_UNIT ( LENGTH_MEASURE( 0.02539999999999999897 ), #254 );
#130 = CARTESIAN_POINT ( 'NONE',  ( 3.244069492476312449E-16, 0.08804591605141744159, 0.000000000000000000 ) ) ;
#131 = PRODUCT_CONTEXT ( 'NONE', #50, 'mechanical' ) ;
#132 = ORIENTED_EDGE ( 'NONE', *, *, #71, .T. ) ;
#133 = VECTOR ( 'NONE', #200, 39.37007874015748143 ) ;
#134 = SURFACE_STYLE_FILL_AREA ( #178 ) ;
#135 = ORIENTED_EDGE ( 'NONE', *, *, #179, .F. ) ;
#136 = UNCERTAINTY_MEASURE_WITH_UNIT (LENGTH_MEASURE( 1.000000000000000082E-05 ), #243, 'distance_accuracy_value', 'NONE');
#137 = EDGE_CURVE ( 'NONE', #6, #260, #276, .T. ) ;
#138 = CARTESIAN_POINT ( 'NONE',  ( 3.796929285016891984E-35, 1.152790201969079895E-18, 0.000000000000000000 ) ) ;
#139 = DIMENSIONAL_EXPONENTS ( 1.000000000000000000, 0.000000000000000000, 0.000000000000000000, 0.000000000000000000, 0.000000000000000000, 0.000000000000000000, 0.000000000000000000 ) ;
#140 = PRODUCT_DEFINITION ( 'UNKNOWN', '', #268, #286 ) ;
#141 = CARTESIAN_POINT ( 'NONE',  ( 1.898464642508445992E-35, 5.763951009845399473E-19, 0.000000000000000000 ) ) ;
#142 = AXIS2_PLACEMENT_3D ( 'NONE', #265, #24, #309 ) ;
#143 =( CONVERSION_BASED_UNIT ( 'INCH', #72 ) LENGTH_UNIT ( ) NAMED_UNIT ( #139 ) );
#144 = LINE ( 'NONE', #74, #46 ) ;
#145 = PLANE ( 'NONE',  #205 ) ;
#146 = AXIS2_PLACEMENT_3D ( 'NONE', #125, #48, #169 ) ;
#147 = DIRECTION ( 'NONE',  ( -1.091126116544571190E-16, 1.000000000000000000, -0.000000000000000000 ) ) ;
#148 = ADVANCED_FACE ( 'NONE', ( #308 ), #62, .T. ) ;
#149 = CARTESIAN_POINT ( 'NONE',  ( -0.1875000000000000555, 0.08804591605141748323, 0.000000000000000000 ) ) ;
#150 = SURFACE_STYLE_USAGE ( .BOTH. , #255 ) ;
#151 = DIRECTION ( 'NONE',  ( 3.293686291340228292E-17, 1.000000000000000000, 0.000000000000000000 ) ) ;
#152 = FACE_OUTER_BOUND ( 'NONE', #225, .T. ) ;
#153 = CARTESIAN_POINT ( 'NONE',  ( 0.03500000000000000333, 0.000000000000000000, 1.362419564051430508E-17 ) ) ;
#154 = CONICAL_SURFACE ( 'NONE', #252, 0.03500000000000000333, 1.047197551196600074 ) ;
#155 = EDGE_LOOP ( 'NONE', ( #182, #60 ) ) ;
#156 = LINE ( 'NONE', #32, #133 ) ;
#157 = ORIENTED_EDGE ( 'NONE', *, *, #158, .F. ) ;
#158 = EDGE_CURVE ( 'NONE', #85, #107, #81, .T. ) ;
#159 = DIRECTION ( 'NONE',  ( -3.293686291340228292E-17, -1.000000000000000000, 0.000000000000000000 ) ) ;
#160 = EDGE_CURVE ( 'NONE', #107, #303, #94, .T. ) ;
#161 = MECHANICAL_DESIGN_GEOMETRIC_PRESENTATION_REPRESENTATION (  '', ( #75 ), #120 ) ;
#162 = CARTESIAN_POINT ( 'NONE',  ( 6.123233995736772199E-17, 2.500000000000000000, 0.000000000000000000 ) ) ;
#163 = DIMENSIONAL_EXPONENTS ( 1.000000000000000000, 0.000000000000000000, 0.000000000000000000, 0.000000000000000000, 0.000000000000000000, 0.000000000000000000, 0.000000000000000000 ) ;
#164 = DIRECTION ( 'NONE',  ( -0.8660254037844397068, 0.4999999999999979461, 0.000000000000000000 ) ) ;
#165 = DIRECTION ( 'NONE',  ( -1.091126116544571190E-16, 1.000000000000000000, -0.000000000000000000 ) ) ;
#166 = COLOUR_RGB ( '',1.000000000000000000, 0.000000000000000000, 0.000000000000000000 ) ;
#167 = CIRCLE ( 'NONE', #283, 0.1875000000000000278 ) ;
#168 = CARTESIAN_POINT ( 'NONE',  ( -0.1874999999999998335, 2.500000000000000000, 0.000000000000000000 ) ) ;
#169 = DIRECTION ( 'NONE',  ( 1.000000000000000000, 1.091126116544571313E-16, 0.000000000000000000 ) ) ;
#170 = SURFACE_SIDE_STYLE ('',( #97 ) ) ;
#171 = CIRCLE ( 'NONE', #211, 0.1874999999999999167 ) ;
#172 = CONICAL_SURFACE ( 'NONE', #296, 0.03500000000000000333, 1.047197551196600074 ) ;
#173 =( NAMED_UNIT ( * ) PLANE_ANGLE_UNIT ( ) SI_UNIT ( $, .RADIAN. ) );
#174 = CARTESIAN_POINT ( 'NONE',  ( -0.1874999999999993061, 0.08804591605141730282, 0.000000000000000000 ) ) ;
#175 = APPLICATION_PROTOCOL_DEFINITION ( 'draft international standard', 'automotive_design', 1998, #50 ) ;
#176 = FILL_AREA_STYLE_COLOUR ( '', #166 ) ;
#177 = ORIENTED_EDGE ( 'NONE', *, *, #307, .T. ) ;
#178 = FILL_AREA_STYLE ('',( #176 ) ) ;
#179 = EDGE_CURVE ( 'NONE', #207, #17, #305, .T. ) ;
#180 = DIRECTION ( 'NONE',  ( -1.000000000000000000, -9.106159978880894651E-17, 0.000000000000000000 ) ) ;
#181 =( LENGTH_UNIT ( ) NAMED_UNIT ( * ) SI_UNIT ( $, .METRE. ) );
#182 = ORIENTED_EDGE ( 'NONE', *, *, #38, .T. ) ;
#183 =( GEOMETRIC_REPRESENTATION_CONTEXT ( 3 ) GLOBAL_UNCERTAINTY_ASSIGNED_CONTEXT ( ( #119 ) ) GLOBAL_UNIT_ASSIGNED_CONTEXT ( ( #274, #98, #103 ) ) REPRESENTATION_CONTEXT ( 'NONE', 'WORKASPACE' ) );
#184 =( GEOMETRIC_REPRESENTATION_CONTEXT ( 3 ) GLOBAL_UNCERTAINTY_ASSIGNED_CONTEXT ( ( #187 ) ) GLOBAL_UNIT_ASSIGNED_CONTEXT ( ( #108, #173, #203 ) ) REPRESENTATION_CONTEXT ( 'NONE', 'WORKASPACE' ) );
#185 = LENGTH_MEASURE_WITH_UNIT ( LENGTH_MEASURE( 0.02539999999999999897 ), #231 );
#186 = SURFACE_STYLE_FILL_AREA ( #63 ) ;
#187 = UNCERTAINTY_MEASURE_WITH_UNIT (LENGTH_MEASURE( 1.000000000000000082E-05 ), #108, 'distance_accuracy_value', 'NONE');
#188 = VECTOR ( 'NONE', #164, 39.37007874015748854 ) ;
#189 = DIRECTION ( 'NONE',  ( -3.293686291340228292E-17, -1.000000000000000000, -0.000000000000000000 ) ) ;
#190 = DIRECTION ( 'NONE',  ( -3.293686291340228292E-17, -1.000000000000000000, -0.000000000000000000 ) ) ;
#191 =( LENGTH_UNIT ( ) NAMED_UNIT ( * ) SI_UNIT ( $, .METRE. ) );
#192 = EDGE_CURVE ( 'NONE', #303, #204, #167, .T. ) ;
#193 = DIRECTION ( 'NONE',  ( -1.091126116544571313E-16, 1.000000000000000000, -0.000000000000000000 ) ) ;
#194 = DIMENSIONAL_EXPONENTS ( 1.000000000000000000, 0.000000000000000000, 0.000000000000000000, 0.000000000000000000, 0.000000000000000000, 0.000000000000000000, 0.000000000000000000 ) ;
#195 = FILL_AREA_STYLE_COLOUR ( '', #258 ) ;
#196 = PRESENTATION_STYLE_ASSIGNMENT (( #247 ) ) ;
#197 = FACE_OUTER_BOUND ( 'NONE', #155, .T. ) ;
#198 = ORIENTED_EDGE ( 'NONE', *, *, #246, .T. ) ;
#199 = ADVANCED_FACE ( 'NONE', ( #292 ), #123, .T. ) ;
#200 = DIRECTION ( 'NONE',  ( -1.091126116544571313E-16, 1.000000000000000000, -0.000000000000000000 ) ) ;
#201 = COLOUR_RGB ( '',1.000000000000000000, 0.000000000000000000, 0.000000000000000000 ) ;
#202 = MECHANICAL_DESIGN_GEOMETRIC_PRESENTATION_REPRESENTATION (  '', ( #21 ), #59 ) ;
#203 =( NAMED_UNIT ( * ) SI_UNIT ( $, .STERADIAN. ) SOLID_ANGLE_UNIT ( ) );
#204 = VERTEX_POINT ( 'NONE', #2 ) ;
#205 = AXIS2_PLACEMENT_3D ( 'NONE', #130, #87, #58 ) ;
#206 = SURFACE_SIDE_STYLE ('',( #238 ) ) ;
#207 = VERTEX_POINT ( 'NONE', #61 ) ;
#208 = FILL_AREA_STYLE_COLOUR ( '', #201 ) ;
#209 =( NAMED_UNIT ( * ) PLANE_ANGLE_UNIT ( ) SI_UNIT ( $, .RADIAN. ) );
#210 = ORIENTED_EDGE ( 'NONE', *, *, #160, .T. ) ;
#211 = AXIS2_PLACEMENT_3D ( 'NONE', #83, #14, #298 ) ;
#212 =( GEOMETRIC_REPRESENTATION_CONTEXT ( 3 ) GLOBAL_UNCERTAINTY_ASSIGNED_CONTEXT ( ( #79 ) ) GLOBAL_UNIT_ASSIGNED_CONTEXT ( ( #250, #10, #223 ) ) REPRESENTATION_CONTEXT ( 'NONE', 'WORKASPACE' ) );
#213 = CARTESIAN_POINT ( 'NONE',  ( 2.899956267070462108E-18, 0.08804591605141745547, 0.000000000000000000 ) ) ;
#214 = DIRECTION ( 'NONE',  ( -1.091126116544571190E-16, 1.000000000000000000, -0.000000000000000000 ) ) ;
#215 = PRESENTATION_LAYER_ASSIGNMENT (  '', '', ( #75 ) ) ;
#216 = PRESENTATION_LAYER_ASSIGNMENT (  '', '', ( #34 ) ) ;
#217 = STYLED_ITEM ( 'NONE', ( #47 ), #288 ) ;
#218 = DIRECTION ( 'NONE',  ( -1.000000000000000000, 0.000000000000000000, 0.000000000000000000 ) ) ;
#219 = AXIS2_PLACEMENT_3D ( 'NONE', #162, #306, #88 ) ;
#220 = DIRECTION ( 'NONE',  ( 1.000000000000000000, -3.293686291340227676E-17, 0.000000000000000000 ) ) ;
#221 = SURFACE_STYLE_FILL_AREA ( #127 ) ;
#222 = DIMENSIONAL_EXPONENTS ( 1.000000000000000000, 0.000000000000000000, 0.000000000000000000, 0.000000000000000000, 0.000000000000000000, 0.000000000000000000, 0.000000000000000000 ) ;
#223 =( NAMED_UNIT ( * ) SI_UNIT ( $, .STERADIAN. ) SOLID_ANGLE_UNIT ( ) );
#224 = CLOSED_SHELL ( 'NONE', ( #199, #31, #128, #270 ) ) ;
#225 = EDGE_LOOP ( 'NONE', ( #15, #113 ) ) ;
#226 = UNCERTAINTY_MEASURE_WITH_UNIT (LENGTH_MEASURE( 1.000000000000000082E-05 ), #278, 'distance_accuracy_value', 'NONE');
#227 = DIRECTION ( 'NONE',  ( 0.000000000000000000, 0.000000000000000000, 1.000000000000000000 ) ) ;
#228 = CARTESIAN_POINT ( 'NONE',  ( 3.796929285016891984E-35, 1.152790201969079895E-18, 0.000000000000000000 ) ) ;
#229 = LINE ( 'NONE', #302, #20 ) ;
#230 = ORIENTED_EDGE ( 'NONE', *, *, #158, .T. ) ;
#231 =( LENGTH_UNIT ( ) NAMED_UNIT ( * ) SI_UNIT ( $, .METRE. ) );
#232 = ORIENTED_EDGE ( 'NONE', *, *, #244, .T. ) ;
#233 = CLOSED_SHELL ( 'NONE', ( #288, #124, #49, #148 ) ) ;
#234 = MANIFOLD_SOLID_BREP ( 'Revolve - Cutting Edge', #233 ) ;
#235 = AXIS2_PLACEMENT_3D ( 'NONE', #141, #159, #289 ) ;
#236 = ORIENTED_EDGE ( 'NONE', *, *, #244, .F. ) ;
#237 = EDGE_CURVE ( 'NONE', #17, #260, #156, .T. ) ;
#238 = SURFACE_STYLE_FILL_AREA ( #16 ) ;
#239 = ORIENTED_EDGE ( 'NONE', *, *, #71, .F. ) ;
#240 = ORIENTED_EDGE ( 'NONE', *, *, #160, .F. ) ;
#241 = AXIS2_PLACEMENT_3D ( 'NONE', #213, #22, #263 ) ;
#242 = SURFACE_STYLE_USAGE ( .BOTH. , #89 ) ;
#243 =( CONVERSION_BASED_UNIT ( 'INCH', #115 ) LENGTH_UNIT ( ) NAMED_UNIT ( #194 ) );
#244 = EDGE_CURVE ( 'NONE', #207, #6, #144, .T. ) ;
#245 = CARTESIAN_POINT ( 'NONE',  ( -0.03500000000000000333, 2.305580403938159789E-18, 0.000000000000000000 ) ) ;
#246 = EDGE_CURVE ( 'NONE', #204, #303, #69, .T. ) ;
#247 = SURFACE_STYLE_USAGE ( .BOTH. , #170 ) ;
#248 =( NAMED_UNIT ( * ) PLANE_ANGLE_UNIT ( ) SI_UNIT ( $, .RADIAN. ) );
#249 = FILL_AREA_STYLE ('',( #261 ) ) ;
#250 =( CONVERSION_BASED_UNIT ( 'INCH', #272 ) LENGTH_UNIT ( ) NAMED_UNIT ( #1 ) );
#251 = SURFACE_SIDE_STYLE ('',( #221 ) ) ;
#252 = AXIS2_PLACEMENT_3D ( 'NONE', #228, #284, #55 ) ;
#253 = MECHANICAL_DESIGN_GEOMETRIC_PRESENTATION_REPRESENTATION (  '', ( #40 ), #86 ) ;
#254 =( LENGTH_UNIT ( ) NAMED_UNIT ( * ) SI_UNIT ( $, .METRE. ) );
#255 = SURFACE_SIDE_STYLE ('',( #134 ) ) ;
#256 = PLANE ( 'NONE',  #241 ) ;
#257 = CARTESIAN_POINT ( 'NONE',  ( -0.03500000000000000333, 2.305580403938159789E-18, 0.000000000000000000 ) ) ;
#258 = COLOUR_RGB ( '',1.000000000000000000, 0.000000000000000000, 0.000000000000000000 ) ;
#259 = PRESENTATION_LAYER_ASSIGNMENT (  '', '', ( #40 ) ) ;
#260 = VERTEX_POINT ( 'NONE', #168 ) ;
#261 = FILL_AREA_STYLE_COLOUR ( '', #65 ) ;
#262 = ORIENTED_EDGE ( 'NONE', *, *, #266, .T. ) ;
#263 = DIRECTION ( 'NONE',  ( -1.000000000000000000, 3.293686291340228292E-17, 0.000000000000000000 ) ) ;
#264 =( NAMED_UNIT ( * ) SI_UNIT ( $, .STERADIAN. ) SOLID_ANGLE_UNIT ( ) );
#265 = CARTESIAN_POINT ( 'NONE',  ( 3.244069492476312449E-16, 0.08804591605141731669, 0.000000000000000000 ) ) ;
#266 = EDGE_CURVE ( 'NONE', #107, #85, #95, .T. ) ;
#267 = DIRECTION ( 'NONE',  ( -1.000000000000000000, 0.000000000000000000, 0.000000000000000000 ) ) ;
#268 = PRODUCT_DEFINITION_FORMATION_WITH_SPECIFIED_SOURCE ( 'ANY', '', #111, .NOT_KNOWN. ) ;
#269 = SURFACE_STYLE_USAGE ( .BOTH. , #68 ) ;
#270 = ADVANCED_FACE ( 'NONE', ( #197 ), #271, .F. ) ;
#271 = PLANE ( 'NONE',  #146 ) ;
#272 = LENGTH_MEASURE_WITH_UNIT ( LENGTH_MEASURE( 0.02539999999999999897 ), #77 );
#273 = AXIS2_PLACEMENT_3D ( 'NONE', #138, #189, #66 ) ;
#274 =( CONVERSION_BASED_UNIT ( 'INCH', #295 ) LENGTH_UNIT ( ) NAMED_UNIT ( #73 ) );
#275 = PRODUCT_RELATED_PRODUCT_CATEGORY ( 'part', '', ( #111 ) ) ;
#276 = CIRCLE ( 'NONE', #219, 0.1874999999999999167 ) ;
#277 = UNCERTAINTY_MEASURE_WITH_UNIT (LENGTH_MEASURE( 1.000000000000000082E-05 ), #281, 'distance_accuracy_value', 'NONE');
#278 =( CONVERSION_BASED_UNIT ( 'INCH', #185 ) LENGTH_UNIT ( ) NAMED_UNIT ( #44 ) );
#279 = SHAPE_DEFINITION_REPRESENTATION ( #18, #7 ) ;
#280 = FACE_OUTER_BOUND ( 'NONE', #110, .T. ) ;
#281 =( CONVERSION_BASED_UNIT ( 'INCH', #41 ) LENGTH_UNIT ( ) NAMED_UNIT ( #163 ) );
#282 = ORIENTED_EDGE ( 'NONE', *, *, #266, .F. ) ;
#283 = AXIS2_PLACEMENT_3D ( 'NONE', #93, #190, #26 ) ;
#284 = DIRECTION ( 'NONE',  ( 3.293686291340228292E-17, 1.000000000000000000, 0.000000000000000000 ) ) ;
#285 = ORIENTED_EDGE ( 'NONE', *, *, #137, .F. ) ;
#286 = PRODUCT_DEFINITION_CONTEXT ( 'detailed design', #92, 'design' ) ;
#287 =( NAMED_UNIT ( * ) PLANE_ANGLE_UNIT ( ) SI_UNIT ( $, .RADIAN. ) );
#288 = ADVANCED_FACE ( 'NONE', ( #30 ), #172, .T. ) ;
#289 = DIRECTION ( 'NONE',  ( 1.000000000000000000, -3.293686291340228292E-17, 0.000000000000000000 ) ) ;
#290 = MECHANICAL_DESIGN_GEOMETRIC_PRESENTATION_REPRESENTATION (  '', ( #304 ), #53 ) ;
#291 = PRESENTATION_STYLE_ASSIGNMENT (( #242 ) ) ;
#292 = FACE_OUTER_BOUND ( 'NONE', #19, .T. ) ;
#293 = DIRECTION ( 'NONE',  ( -3.293686291340228292E-17, -1.000000000000000000, -0.000000000000000000 ) ) ;
#294 = SURFACE_STYLE_FILL_AREA ( #249 ) ;
#295 = LENGTH_MEASURE_WITH_UNIT ( LENGTH_MEASURE( 0.02539999999999999897 ), #9 );
#296 = AXIS2_PLACEMENT_3D ( 'NONE', #5, #151, #106 ) ;
#297 = CARTESIAN_POINT ( 'NONE',  ( 0.1874999999999999722, 2.500000000000000000, 2.296212748401285877E-17 ) ) ;
#298 = DIRECTION ( 'NONE',  ( -1.000000000000000000, 0.000000000000000000, 0.000000000000000000 ) ) ;
#299 = ORIENTED_EDGE ( 'NONE', *, *, #38, .F. ) ;
#300 = EDGE_LOOP ( 'NONE', ( #236, #56, #101, #285 ) ) ;
#301 = SURFACE_STYLE_USAGE ( .BOTH. , #206 ) ;
#302 = CARTESIAN_POINT ( 'NONE',  ( 0.03500000000000000333, 0.000000000000000000, 4.286263797015735979E-18 ) ) ;
#303 = VERTEX_POINT ( 'NONE', #149 ) ;
#304 = STYLED_ITEM ( 'NONE', ( #39 ), #124 ) ;
#305 = CIRCLE ( 'NONE', #142, 0.1874999999999996392 ) ;
#306 = DIRECTION ( 'NONE',  ( -1.091126116544571190E-16, 1.000000000000000000, -0.000000000000000000 ) ) ;
#307 = EDGE_CURVE ( 'NONE', #17, #207, #11, .T. ) ;
#308 = FACE_OUTER_BOUND ( 'NONE', #42, .T. ) ;
#309 = DIRECTION ( 'NONE',  ( -1.000000000000000000, -9.106159978880894651E-17, 0.000000000000000000 ) ) ;
ENDSEC;
END-ISO-10303-21;
