ISO-10303-21;
HEADER;
FILE_DESCRIPTION (( 'STEP AP214' ),
    '1' );
FILE_NAME ('84305.STEP',
    '2023-06-23T12:08:46',
    ( '' ),
    ( '' ),
    'SwSTEP 2.0',
    'SolidWorks 2023',
    '' );
FILE_SCHEMA (( 'AUTOMOTIVE_DESIGN' ));
ENDSEC;

DATA;
#1 = PRODUCT_DEFINITION_SHAPE ( 'NONE', 'NONE',  #101 ) ;
#2 =( CONVERSION_BASED_UNIT ( 'INCH', #242 ) LENGTH_UNIT ( ) NAMED_UNIT ( #57 ) );
#3 = PRESENTATION_LAYER_ASSIGNMENT (  '', '', ( #194 ) ) ;
#4 = DIRECTION ( 'NONE',  ( -0.000000000000000000, -1.000000000000000000, -0.000000000000000000 ) ) ;
#5 = VECTOR ( 'NONE', #173, 39.37007874015748143 ) ;
#6 = SHAPE_DEFINITION_REPRESENTATION ( #1, #159 ) ;
#7 =( GEOMETRIC_REPRESENTATION_CONTEXT ( 3 ) GLOBAL_UNCERTAINTY_ASSIGNED_CONTEXT ( ( #301 ) ) GLOBAL_UNIT_ASSIGNED_CONTEXT ( ( #293, #31, #121 ) ) REPRESENTATION_CONTEXT ( 'NONE', 'WORKASPACE' ) );
#8 = DIRECTION ( 'NONE',  ( 0.000000000000000000, -0.000000000000000000, 1.000000000000000000 ) ) ;
#9 = PRODUCT_CONTEXT ( 'NONE', #276, 'mechanical' ) ;
#10 = DIRECTION ( 'NONE',  ( 1.000000000000000000, -3.014515197901178074E-16, 0.000000000000000000 ) ) ;
#11 = DIRECTION ( 'NONE',  ( 0.000000000000000000, 0.000000000000000000, -1.000000000000000000 ) ) ;
#12 =( GEOMETRIC_REPRESENTATION_CONTEXT ( 3 ) GLOBAL_UNCERTAINTY_ASSIGNED_CONTEXT ( ( #208 ) ) GLOBAL_UNIT_ASSIGNED_CONTEXT ( ( #149, #88, #166 ) ) REPRESENTATION_CONTEXT ( 'NONE', 'WORKASPACE' ) );
#13 = EDGE_LOOP ( 'NONE', ( #299, #127 ) ) ;
#14 = AXIS2_PLACEMENT_3D ( 'NONE', #103, #105, #11 ) ;
#15 = CYLINDRICAL_SURFACE ( 'NONE', #234, 0.1250000000000000000 ) ;
#16 = PRESENTATION_LAYER_ASSIGNMENT (  '', '', ( #75 ) ) ;
#17 = LENGTH_MEASURE_WITH_UNIT ( LENGTH_MEASURE( 0.02539999999999999897 ), #163 );
#18 = FACE_OUTER_BOUND ( 'NONE', #74, .T. ) ;
#19 =( LENGTH_UNIT ( ) NAMED_UNIT ( * ) SI_UNIT ( $, .METRE. ) );
#20 =( GEOMETRIC_REPRESENTATION_CONTEXT ( 3 ) GLOBAL_UNCERTAINTY_ASSIGNED_CONTEXT ( ( #259 ) ) GLOBAL_UNIT_ASSIGNED_CONTEXT ( ( #66, #61, #306 ) ) REPRESENTATION_CONTEXT ( 'NONE', 'WORKASPACE' ) );
#21 = DIRECTION ( 'NONE',  ( 0.000000000000000000, -1.000000000000000000, -0.000000000000000000 ) ) ;
#22 = ADVANCED_FACE ( 'NONE', ( #122 ), #35, .F. ) ;
#23 =( GEOMETRIC_REPRESENTATION_CONTEXT ( 3 ) GLOBAL_UNCERTAINTY_ASSIGNED_CONTEXT ( ( #236 ) ) GLOBAL_UNIT_ASSIGNED_CONTEXT ( ( #2, #95, #220 ) ) REPRESENTATION_CONTEXT ( 'NONE', 'WORKASPACE' ) );
#24 = CIRCLE ( 'NONE', #77, 0.1250000000000000000 ) ;
#25 = EDGE_CURVE ( 'NONE', #257, #273, #209, .T. ) ;
#26 = CARTESIAN_POINT ( 'NONE',  ( -0.1249999999999992367, 2.000000000000000000, 0.000000000000000000 ) ) ;
#27 = DIRECTION ( 'NONE',  ( 0.000000000000000000, 0.000000000000000000, -1.000000000000000000 ) ) ;
#28 = DIRECTION ( 'NONE',  ( -1.000000000000000000, 0.000000000000000000, 0.000000000000000000 ) ) ;
#29 = CARTESIAN_POINT ( 'NONE',  ( 0.1249999999999999584, 2.000000000000000000, 0.000000000000000000 ) ) ;
#30 = ORIENTED_EDGE ( 'NONE', *, *, #162, .F. ) ;
#31 =( NAMED_UNIT ( * ) PLANE_ANGLE_UNIT ( ) SI_UNIT ( $, .RADIAN. ) );
#32 = VERTEX_POINT ( 'NONE', #80 ) ;
#33 = FILL_AREA_STYLE ('',( #193 ) ) ;
#34 = STYLED_ITEM ( 'NONE', ( #216 ), #145 ) ;
#35 = PLANE ( 'NONE',  #222 ) ;
#36 = CARTESIAN_POINT ( 'NONE',  ( 0.000000000000000000, 0.3750000000000000555, 0.000000000000000000 ) ) ;
#37 = SURFACE_STYLE_FILL_AREA ( #224 ) ;
#38 = FACE_OUTER_BOUND ( 'NONE', #229, .T. ) ;
#39 = ORIENTED_EDGE ( 'NONE', *, *, #252, .F. ) ;
#40 = PRESENTATION_STYLE_ASSIGNMENT (( #67 ) ) ;
#41 = PRESENTATION_STYLE_ASSIGNMENT (( #305 ) ) ;
#42 = ADVANCED_FACE ( 'NONE', ( #184 ), #15, .T. ) ;
#43 = PRODUCT_DEFINITION_FORMATION_WITH_SPECIFIED_SOURCE ( 'ANY', '', #239, .NOT_KNOWN. ) ;
#44 = CARTESIAN_POINT ( 'NONE',  ( 0.000000000000000000, 0.3750000000000000555, 0.000000000000000000 ) ) ;
#45 = ADVANCED_FACE ( 'NONE', ( #38 ), #203, .T. ) ;
#46 = DIRECTION ( 'NONE',  ( 0.000000000000000000, 0.000000000000000000, -1.000000000000000000 ) ) ;
#47 = CARTESIAN_POINT ( 'NONE',  ( 0.000000000000000000, 0.000000000000000000, -0.1250000000000000000 ) ) ;
#48 = LENGTH_MEASURE_WITH_UNIT ( LENGTH_MEASURE( 0.02539999999999999897 ), #117 );
#49 = FACE_OUTER_BOUND ( 'NONE', #258, .T. ) ;
#50 =( CONVERSION_BASED_UNIT ( 'INCH', #48 ) LENGTH_UNIT ( ) NAMED_UNIT ( #106 ) );
#51 = AXIS2_PLACEMENT_3D ( 'NONE', #104, #211, #237 ) ;
#52 = PRODUCT_DEFINITION_CONTEXT ( 'detailed design', #246, 'design' ) ;
#53 = DIRECTION ( 'NONE',  ( 3.014515197901178074E-16, 1.000000000000000000, -0.000000000000000000 ) ) ;
#54 = ORIENTED_EDGE ( 'NONE', *, *, #62, .T. ) ;
#55 = CARTESIAN_POINT ( 'NONE',  ( -0.1250000000000000000, 0.3750000000000002776, 0.000000000000000000 ) ) ;
#56 = ORIENTED_EDGE ( 'NONE', *, *, #287, .F. ) ;
#57 = DIMENSIONAL_EXPONENTS ( 1.000000000000000000, 0.000000000000000000, 0.000000000000000000, 0.000000000000000000, 0.000000000000000000, 0.000000000000000000, 0.000000000000000000 ) ;
#58 = MECHANICAL_DESIGN_GEOMETRIC_PRESENTATION_REPRESENTATION (  '', ( #279 ), #12 ) ;
#59 = ORIENTED_EDGE ( 'NONE', *, *, #202, .T. ) ;
#60 = DIRECTION ( 'NONE',  ( 0.000000000000000000, 0.000000000000000000, -1.000000000000000000 ) ) ;
#61 =( NAMED_UNIT ( * ) PLANE_ANGLE_UNIT ( ) SI_UNIT ( $, .RADIAN. ) );
#62 = EDGE_CURVE ( 'NONE', #32, #241, #137, .T. ) ;
#63 = SURFACE_STYLE_FILL_AREA ( #85 ) ;
#64 = CARTESIAN_POINT ( 'NONE',  ( 0.1250000000000000000, 0.3750000000000001665, 1.530808498934189660E-17 ) ) ;
#65 = SURFACE_STYLE_USAGE ( .BOTH. , #197 ) ;
#66 =( CONVERSION_BASED_UNIT ( 'INCH', #17 ) LENGTH_UNIT ( ) NAMED_UNIT ( #260 ) );
#67 = SURFACE_STYLE_USAGE ( .BOTH. , #110 ) ;
#68 = DIRECTION ( 'NONE',  ( 0.000000000000000000, 1.000000000000000000, 0.000000000000000000 ) ) ;
#69 = COLOUR_RGB ( '',1.000000000000000000, 0.000000000000000000, 0.000000000000000000 ) ;
#70 =( NAMED_UNIT ( * ) PLANE_ANGLE_UNIT ( ) SI_UNIT ( $, .RADIAN. ) );
#71 = DIRECTION ( 'NONE',  ( -1.000000000000000000, 0.000000000000000000, 0.000000000000000000 ) ) ;
#72 = AXIS2_PLACEMENT_3D ( 'NONE', #36, #274, #83 ) ;
#73 = CARTESIAN_POINT ( 'NONE',  ( 0.1249999999999999584, 2.000000000000000000, 1.530808498934189352E-17 ) ) ;
#74 = EDGE_LOOP ( 'NONE', ( #152, #39 ) ) ;
#75 = STYLED_ITEM ( 'NONE', ( #174 ), #42 ) ;
#76 = CARTESIAN_POINT ( 'NONE',  ( 0.000000000000000000, 0.000000000000000000, 0.000000000000000000 ) ) ;
#77 = AXIS2_PLACEMENT_3D ( 'NONE', #157, #180, #146 ) ;
#78 = UNCERTAINTY_MEASURE_WITH_UNIT (LENGTH_MEASURE( 1.000000000000000082E-05 ), #97, 'distance_accuracy_value', 'NONE');
#79 = CARTESIAN_POINT ( 'NONE',  ( 4.898587196589413815E-16, 2.000000000000000000, 0.000000000000000000 ) ) ;
#80 = CARTESIAN_POINT ( 'NONE',  ( 0.000000000000000000, 0.3750000000000000555, -0.1250000000000000000 ) ) ;
#81 = CARTESIAN_POINT ( 'NONE',  ( 5.679563673985736224E-33, 0.3750000000000002220, 0.000000000000000000 ) ) ;
#82 = VERTEX_POINT ( 'NONE', #123 ) ;
#83 = DIRECTION ( 'NONE',  ( 0.000000000000000000, 0.000000000000000000, -1.000000000000000000 ) ) ;
#84 = FILL_AREA_STYLE ('',( #108 ) ) ;
#85 = FILL_AREA_STYLE ('',( #168 ) ) ;
#86 = FILL_AREA_STYLE_COLOUR ( '', #176 ) ;
#87 = ADVANCED_FACE ( 'NONE', ( #165 ), #240, .F. ) ;
#88 =( NAMED_UNIT ( * ) PLANE_ANGLE_UNIT ( ) SI_UNIT ( $, .RADIAN. ) );
#89 = COLOUR_RGB ( '',0.7921568627450980005, 0.8196078431372548767, 0.9333333333333333481 ) ;
#90 = LINE ( 'NONE', #136, #5 ) ;
#91 = FILL_AREA_STYLE_COLOUR ( '', #102 ) ;
#92 = LENGTH_MEASURE_WITH_UNIT ( LENGTH_MEASURE( 0.02539999999999999897 ), #223 );
#93 = CARTESIAN_POINT ( 'NONE',  ( 0.000000000000000000, 0.000000000000000000, 0.000000000000000000 ) ) ;
#94 = PRODUCT_RELATED_PRODUCT_CATEGORY ( 'part', '', ( #239 ) ) ;
#95 =( NAMED_UNIT ( * ) PLANE_ANGLE_UNIT ( ) SI_UNIT ( $, .RADIAN. ) );
#96 = DIRECTION ( 'NONE',  ( 0.000000000000000000, 0.000000000000000000, -1.000000000000000000 ) ) ;
#97 =( CONVERSION_BASED_UNIT ( 'INCH', #92 ) LENGTH_UNIT ( ) NAMED_UNIT ( #179 ) );
#98 = CYLINDRICAL_SURFACE ( 'NONE', #195, 0.1249999999999997224 ) ;
#99 = EDGE_CURVE ( 'NONE', #130, #273, #90, .T. ) ;
#100 = AXIS2_PLACEMENT_3D ( 'NONE', #76, #227, #182 ) ;
#101 = PRODUCT_DEFINITION ( 'UNKNOWN', '', #43, #52 ) ;
#102 = COLOUR_RGB ( '',1.000000000000000000, 0.000000000000000000, 0.000000000000000000 ) ;
#103 = CARTESIAN_POINT ( 'NONE',  ( 0.000000000000000000, 0.3750000000000000555, 0.000000000000000000 ) ) ;
#104 = CARTESIAN_POINT ( 'NONE',  ( 4.898587196589413815E-16, 2.000000000000000000, 0.000000000000000000 ) ) ;
#105 = DIRECTION ( 'NONE',  ( -0.000000000000000000, -1.000000000000000000, -0.000000000000000000 ) ) ;
#106 = DIMENSIONAL_EXPONENTS ( 1.000000000000000000, 0.000000000000000000, 0.000000000000000000, 0.000000000000000000, 0.000000000000000000, 0.000000000000000000, 0.000000000000000000 ) ;
#107 = EDGE_LOOP ( 'NONE', ( #155, #214, #181, #56 ) ) ;
#108 = FILL_AREA_STYLE_COLOUR ( '', #278 ) ;
#109 = PRESENTATION_STYLE_ASSIGNMENT (( #191 ) ) ;
#110 = SURFACE_SIDE_STYLE ('',( #37 ) ) ;
#111 = PRESENTATION_LAYER_ASSIGNMENT (  '', '', ( #34 ) ) ;
#112 =( NAMED_UNIT ( * ) PLANE_ANGLE_UNIT ( ) SI_UNIT ( $, .RADIAN. ) );
#113 = CLOSED_SHELL ( 'NONE', ( #42, #140, #45, #172 ) ) ;
#114 = ORIENTED_EDGE ( 'NONE', *, *, #300, .F. ) ;
#115 = CARTESIAN_POINT ( 'NONE',  ( 4.898587196589413815E-16, 2.000000000000000000, 0.000000000000000000 ) ) ;
#116 = CYLINDRICAL_SURFACE ( 'NONE', #177, 0.1249999999999997224 ) ;
#117 =( LENGTH_UNIT ( ) NAMED_UNIT ( * ) SI_UNIT ( $, .METRE. ) );
#118 = DIRECTION ( 'NONE',  ( 3.014515197901178074E-16, 1.000000000000000000, -0.000000000000000000 ) ) ;
#119 = ORIENTED_EDGE ( 'NONE', *, *, #99, .T. ) ;
#120 = DIRECTION ( 'NONE',  ( -3.014515197901178074E-16, -1.000000000000000000, 0.000000000000000000 ) ) ;
#121 =( NAMED_UNIT ( * ) SI_UNIT ( $, .STERADIAN. ) SOLID_ANGLE_UNIT ( ) );
#122 = FACE_OUTER_BOUND ( 'NONE', #13, .T. ) ;
#123 = CARTESIAN_POINT ( 'NONE',  ( 0.000000000000000000, 0.000000000000000000, -0.1250000000000000000 ) ) ;
#124 = MECHANICAL_DESIGN_GEOMETRIC_PRESENTATION_REPRESENTATION (  '', ( #269 ), #308 ) ;
#125 =( LENGTH_UNIT ( ) NAMED_UNIT ( * ) SI_UNIT ( $, .METRE. ) );
#126 = VECTOR ( 'NONE', #144, 39.37007874015748143 ) ;
#127 = ORIENTED_EDGE ( 'NONE', *, *, #287, .T. ) ;
#128 = SURFACE_STYLE_FILL_AREA ( #219 ) ;
#129 = DIRECTION ( 'NONE',  ( -1.000000000000000000, 3.014515197901178074E-16, 0.000000000000000000 ) ) ;
#130 = VERTEX_POINT ( 'NONE', #64 ) ;
#131 = CARTESIAN_POINT ( 'NONE',  ( 1.530808498934191509E-17, 0.000000000000000000, 0.1250000000000000000 ) ) ;
#132 = PLANE ( 'NONE',  #143 ) ;
#133 = CIRCLE ( 'NONE', #14, 0.1250000000000000000 ) ;
#134 = SURFACE_SIDE_STYLE ('',( #63 ) ) ;
#135 = SURFACE_STYLE_USAGE ( .BOTH. , #307 ) ;
#136 = CARTESIAN_POINT ( 'NONE',  ( 0.1250000000000002220, 2.000000000000000000, 1.530808498934188119E-17 ) ) ;
#137 = CIRCLE ( 'NONE', #72, 0.1250000000000000000 ) ;
#138 = AXIS2_PLACEMENT_3D ( 'NONE', #255, #213, #27 ) ;
#139 = LENGTH_MEASURE_WITH_UNIT ( LENGTH_MEASURE( 0.02539999999999999897 ), #267 );
#140 = ADVANCED_FACE ( 'NONE', ( #18 ), #283, .T. ) ;
#141 = CARTESIAN_POINT ( 'NONE',  ( 0.000000000000000000, 0.000000000000000000, 0.000000000000000000 ) ) ;
#142 = MANIFOLD_SOLID_BREP ( 'Revolve - Tool Body (Straight Shanked)', #254 ) ;
#143 = AXIS2_PLACEMENT_3D ( 'NONE', #141, #21, #46 ) ;
#144 = DIRECTION ( 'NONE',  ( -0.000000000000000000, -1.000000000000000000, -0.000000000000000000 ) ) ;
#145 = MANIFOLD_SOLID_BREP ( 'Revolve - Cutting Edge', #113 ) ;
#146 = DIRECTION ( 'NONE',  ( -1.000000000000000000, 5.463695987328526437E-16, 0.000000000000000000 ) ) ;
#147 =( GEOMETRIC_REPRESENTATION_CONTEXT ( 3 ) GLOBAL_UNCERTAINTY_ASSIGNED_CONTEXT ( ( #238 ) ) GLOBAL_UNIT_ASSIGNED_CONTEXT ( ( #247, #112, #249 ) ) REPRESENTATION_CONTEXT ( 'NONE', 'WORKASPACE' ) );
#148 = AXIS2_PLACEMENT_3D ( 'NONE', #79, #53, #28 ) ;
#149 =( CONVERSION_BASED_UNIT ( 'INCH', #178 ) LENGTH_UNIT ( ) NAMED_UNIT ( #233 ) );
#150 = DIRECTION ( 'NONE',  ( 3.014515197901178074E-16, 1.000000000000000000, -0.000000000000000000 ) ) ;
#151 = DIMENSIONAL_EXPONENTS ( 1.000000000000000000, 0.000000000000000000, 0.000000000000000000, 0.000000000000000000, 0.000000000000000000, 0.000000000000000000, 0.000000000000000000 ) ;
#152 = ORIENTED_EDGE ( 'NONE', *, *, #62, .F. ) ;
#153 = DIRECTION ( 'NONE',  ( 3.014515197901178074E-16, 1.000000000000000000, -0.000000000000000000 ) ) ;
#154 = UNCERTAINTY_MEASURE_WITH_UNIT (LENGTH_MEASURE( 1.000000000000000082E-05 ), #50, 'distance_accuracy_value', 'NONE');
#155 = ORIENTED_EDGE ( 'NONE', *, *, #99, .F. ) ;
#156 = DIMENSIONAL_EXPONENTS ( 1.000000000000000000, 0.000000000000000000, 0.000000000000000000, 0.000000000000000000, 0.000000000000000000, 0.000000000000000000, 0.000000000000000000 ) ;
#157 = CARTESIAN_POINT ( 'NONE',  ( 6.065921084684207584E-32, 0.3750000000000002220, 0.000000000000000000 ) ) ;
#158 = VERTEX_POINT ( 'NONE', #131 ) ;
#159 = ADVANCED_BREP_SHAPE_REPRESENTATION ( '84305', ( #145, #142, #100 ), #7 ) ;
#160 = MECHANICAL_DESIGN_GEOMETRIC_PRESENTATION_REPRESENTATION (  '', ( #34 ), #171 ) ;
#161 = ORIENTED_EDGE ( 'NONE', *, *, #25, .F. ) ;
#162 = EDGE_CURVE ( 'NONE', #241, #158, #291, .T. ) ;
#163 =( LENGTH_UNIT ( ) NAMED_UNIT ( * ) SI_UNIT ( $, .METRE. ) );
#164 =( NAMED_UNIT ( * ) SI_UNIT ( $, .STERADIAN. ) SOLID_ANGLE_UNIT ( ) );
#165 = FACE_OUTER_BOUND ( 'NONE', #281, .T. ) ;
#166 =( NAMED_UNIT ( * ) SI_UNIT ( $, .STERADIAN. ) SOLID_ANGLE_UNIT ( ) );
#167 = MECHANICAL_DESIGN_GEOMETRIC_PRESENTATION_REPRESENTATION (  '', ( #194 ), #23 ) ;
#168 = FILL_AREA_STYLE_COLOUR ( '', #69 ) ;
#169 = STYLED_ITEM ( 'NONE', ( #109 ), #172 ) ;
#170 = FILL_AREA_STYLE ('',( #91 ) ) ;
#171 =( GEOMETRIC_REPRESENTATION_CONTEXT ( 3 ) GLOBAL_UNCERTAINTY_ASSIGNED_CONTEXT ( ( #78 ) ) GLOBAL_UNIT_ASSIGNED_CONTEXT ( ( #97, #288, #175 ) ) REPRESENTATION_CONTEXT ( 'NONE', 'WORKASPACE' ) );
#172 = ADVANCED_FACE ( 'NONE', ( #221 ), #132, .T. ) ;
#173 = DIRECTION ( 'NONE',  ( 3.014515197901178074E-16, 1.000000000000000000, -0.000000000000000000 ) ) ;
#174 = PRESENTATION_STYLE_ASSIGNMENT (( #263 ) ) ;
#175 =( NAMED_UNIT ( * ) SI_UNIT ( $, .STERADIAN. ) SOLID_ANGLE_UNIT ( ) );
#176 = COLOUR_RGB ( '',0.7921568627450980005, 0.8196078431372548767, 0.9333333333333333481 ) ;
#177 = AXIS2_PLACEMENT_3D ( 'NONE', #292, #118, #207 ) ;
#178 = LENGTH_MEASURE_WITH_UNIT ( LENGTH_MEASURE( 0.02539999999999999897 ), #19 );
#179 = DIMENSIONAL_EXPONENTS ( 1.000000000000000000, 0.000000000000000000, 0.000000000000000000, 0.000000000000000000, 0.000000000000000000, 0.000000000000000000, 0.000000000000000000 ) ;
#180 = DIRECTION ( 'NONE',  ( 3.014515197901178074E-16, 1.000000000000000000, -0.000000000000000000 ) ) ;
#181 = ORIENTED_EDGE ( 'NONE', *, *, #212, .T. ) ;
#182 = DIRECTION ( 'NONE',  ( 1.000000000000000000, 0.000000000000000000, 0.000000000000000000 ) ) ;
#183 = EDGE_LOOP ( 'NONE', ( #54, #235, #114, #256 ) ) ;
#184 = FACE_OUTER_BOUND ( 'NONE', #183, .T. ) ;
#185 = ORIENTED_EDGE ( 'NONE', *, *, #232, .T. ) ;
#186 = DIRECTION ( 'NONE',  ( 3.014515197901178074E-16, 1.000000000000000000, -0.000000000000000000 ) ) ;
#187 = LENGTH_MEASURE_WITH_UNIT ( LENGTH_MEASURE( 0.02539999999999999897 ), #125 );
#188 = ORIENTED_EDGE ( 'NONE', *, *, #232, .F. ) ;
#189 = SURFACE_SIDE_STYLE ('',( #196 ) ) ;
#190 = PRESENTATION_LAYER_ASSIGNMENT (  '', '', ( #269 ) ) ;
#191 = SURFACE_STYLE_USAGE ( .BOTH. , #134 ) ;
#192 = ORIENTED_EDGE ( 'NONE', *, *, #252, .T. ) ;
#193 = FILL_AREA_STYLE_COLOUR ( '', #89 ) ;
#194 = STYLED_ITEM ( 'NONE', ( #40 ), #140 ) ;
#195 = AXIS2_PLACEMENT_3D ( 'NONE', #115, #204, #71 ) ;
#196 = SURFACE_STYLE_FILL_AREA ( #33 ) ;
#197 = SURFACE_SIDE_STYLE ('',( #198 ) ) ;
#198 = SURFACE_STYLE_FILL_AREA ( #170 ) ;
#199 = ADVANCED_FACE ( 'NONE', ( #289 ), #98, .T. ) ;
#200 =( LENGTH_UNIT ( ) NAMED_UNIT ( * ) SI_UNIT ( $, .METRE. ) );
#201 = SURFACE_STYLE_FILL_AREA ( #84 ) ;
#202 = EDGE_CURVE ( 'NONE', #32, #82, #268, .T. ) ;
#203 = CYLINDRICAL_SURFACE ( 'NONE', #265, 0.1250000000000000000 ) ;
#204 = DIRECTION ( 'NONE',  ( 3.014515197901178074E-16, 1.000000000000000000, -0.000000000000000000 ) ) ;
#205 = COLOUR_RGB ( '',1.000000000000000000, 0.000000000000000000, 0.000000000000000000 ) ;
#206 = CIRCLE ( 'NONE', #286, 0.1250000000000000000 ) ;
#207 = DIRECTION ( 'NONE',  ( -1.000000000000000000, 0.000000000000000000, 0.000000000000000000 ) ) ;
#208 = UNCERTAINTY_MEASURE_WITH_UNIT (LENGTH_MEASURE( 1.000000000000000082E-05 ), #149, 'distance_accuracy_value', 'NONE');
#209 = CIRCLE ( 'NONE', #51, 0.1249999999999994726 ) ;
#210 = AXIS2_PLACEMENT_3D ( 'NONE', #228, #295, #253 ) ;
#211 = DIRECTION ( 'NONE',  ( 3.014515197901178074E-16, 1.000000000000000000, -0.000000000000000000 ) ) ;
#212 = EDGE_CURVE ( 'NONE', #217, #257, #251, .T. ) ;
#213 = DIRECTION ( 'NONE',  ( -0.000000000000000000, -1.000000000000000000, -0.000000000000000000 ) ) ;
#214 = ORIENTED_EDGE ( 'NONE', *, *, #261, .T. ) ;
#215 = ORIENTED_EDGE ( 'NONE', *, *, #280, .T. ) ;
#216 = PRESENTATION_STYLE_ASSIGNMENT (( #135 ) ) ;
#217 = VERTEX_POINT ( 'NONE', #55 ) ;
#218 = VECTOR ( 'NONE', #264, 39.37007874015748143 ) ;
#219 = FILL_AREA_STYLE ('',( #86 ) ) ;
#220 =( NAMED_UNIT ( * ) SI_UNIT ( $, .STERADIAN. ) SOLID_ANGLE_UNIT ( ) );
#221 = FACE_OUTER_BOUND ( 'NONE', #296, .T. ) ;
#222 = AXIS2_PLACEMENT_3D ( 'NONE', #29, #120, #10 ) ;
#223 =( LENGTH_UNIT ( ) NAMED_UNIT ( * ) SI_UNIT ( $, .METRE. ) );
#224 = FILL_AREA_STYLE ('',( #243 ) ) ;
#225 = PRESENTATION_LAYER_ASSIGNMENT (  '', '', ( #279 ) ) ;
#226 = VECTOR ( 'NONE', #150, 39.37007874015748143 ) ;
#227 = DIRECTION ( 'NONE',  ( 0.000000000000000000, 0.000000000000000000, 1.000000000000000000 ) ) ;
#228 = CARTESIAN_POINT ( 'NONE',  ( 0.000000000000000000, 0.000000000000000000, 0.000000000000000000 ) ) ;
#229 = EDGE_LOOP ( 'NONE', ( #30, #192, #59, #302 ) ) ;
#230 = DIRECTION ( 'NONE',  ( -1.000000000000000000, 5.463695987328526437E-16, 0.000000000000000000 ) ) ;
#231 = CARTESIAN_POINT ( 'NONE',  ( 1.530808498934191509E-17, 0.3750000000000000555, 0.1250000000000000000 ) ) ;
#232 = EDGE_CURVE ( 'NONE', #217, #130, #206, .T. ) ;
#233 = DIMENSIONAL_EXPONENTS ( 1.000000000000000000, 0.000000000000000000, 0.000000000000000000, 0.000000000000000000, 0.000000000000000000, 0.000000000000000000, 0.000000000000000000 ) ;
#234 = AXIS2_PLACEMENT_3D ( 'NONE', #93, #4, #96 ) ;
#235 = ORIENTED_EDGE ( 'NONE', *, *, #162, .T. ) ;
#236 = UNCERTAINTY_MEASURE_WITH_UNIT (LENGTH_MEASURE( 1.000000000000000082E-05 ), #2, 'distance_accuracy_value', 'NONE');
#237 = DIRECTION ( 'NONE',  ( -1.000000000000000000, 0.000000000000000000, 0.000000000000000000 ) ) ;
#238 = UNCERTAINTY_MEASURE_WITH_UNIT (LENGTH_MEASURE( 1.000000000000000082E-05 ), #247, 'distance_accuracy_value', 'NONE');
#239 = PRODUCT ( '84305', '84305', '', ( #9 ) ) ;
#240 = PLANE ( 'NONE',  #290 ) ;
#241 = VERTEX_POINT ( 'NONE', #231 ) ;
#242 = LENGTH_MEASURE_WITH_UNIT ( LENGTH_MEASURE( 0.02539999999999999897 ), #200 );
#243 = FILL_AREA_STYLE_COLOUR ( '', #205 ) ;
#244 = CIRCLE ( 'NONE', #138, 0.1250000000000000000 ) ;
#245 = CIRCLE ( 'NONE', #148, 0.1249999999999994726 ) ;
#246 = APPLICATION_CONTEXT ( 'automotive_design' ) ;
#247 =( CONVERSION_BASED_UNIT ( 'INCH', #139 ) LENGTH_UNIT ( ) NAMED_UNIT ( #151 ) );
#248 = ADVANCED_FACE ( 'NONE', ( #49 ), #116, .T. ) ;
#249 =( NAMED_UNIT ( * ) SI_UNIT ( $, .STERADIAN. ) SOLID_ANGLE_UNIT ( ) );
#250 = PRESENTATION_LAYER_ASSIGNMENT (  '', '', ( #169 ) ) ;
#251 = LINE ( 'NONE', #26, #226 ) ;
#252 = EDGE_CURVE ( 'NONE', #241, #32, #133, .T. ) ;
#253 = DIRECTION ( 'NONE',  ( 0.000000000000000000, 0.000000000000000000, -1.000000000000000000 ) ) ;
#254 = CLOSED_SHELL ( 'NONE', ( #248, #87, #199, #22 ) ) ;
#255 = CARTESIAN_POINT ( 'NONE',  ( 0.000000000000000000, 0.000000000000000000, 0.000000000000000000 ) ) ;
#256 = ORIENTED_EDGE ( 'NONE', *, *, #202, .F. ) ;
#257 = VERTEX_POINT ( 'NONE', #271 ) ;
#258 = EDGE_LOOP ( 'NONE', ( #185, #119, #161, #294 ) ) ;
#259 = UNCERTAINTY_MEASURE_WITH_UNIT (LENGTH_MEASURE( 1.000000000000000082E-05 ), #66, 'distance_accuracy_value', 'NONE');
#260 = DIMENSIONAL_EXPONENTS ( 1.000000000000000000, 0.000000000000000000, 0.000000000000000000, 0.000000000000000000, 0.000000000000000000, 0.000000000000000000, 0.000000000000000000 ) ;
#261 = EDGE_CURVE ( 'NONE', #130, #217, #24, .T. ) ;
#262 = DIRECTION ( 'NONE',  ( -0.000000000000000000, -1.000000000000000000, -0.000000000000000000 ) ) ;
#263 = SURFACE_STYLE_USAGE ( .BOTH. , #285 ) ;
#264 = DIRECTION ( 'NONE',  ( -0.000000000000000000, -1.000000000000000000, -0.000000000000000000 ) ) ;
#265 = AXIS2_PLACEMENT_3D ( 'NONE', #304, #262, #60 ) ;
#266 = CIRCLE ( 'NONE', #210, 0.1250000000000000000 ) ;
#267 =( LENGTH_UNIT ( ) NAMED_UNIT ( * ) SI_UNIT ( $, .METRE. ) );
#268 = LINE ( 'NONE', #47, #126 ) ;
#269 = STYLED_ITEM ( 'NONE', ( #41 ), #142 ) ;
#270 = CARTESIAN_POINT ( 'NONE',  ( 1.530808498934191509E-17, 0.000000000000000000, 0.1250000000000000000 ) ) ;
#271 = CARTESIAN_POINT ( 'NONE',  ( -0.1249999999999989730, 2.000000000000000000, 0.000000000000000000 ) ) ;
#272 = CARTESIAN_POINT ( 'NONE',  ( 6.065921084684207584E-32, 0.3750000000000002220, 0.000000000000000000 ) ) ;
#273 = VERTEX_POINT ( 'NONE', #73 ) ;
#274 = DIRECTION ( 'NONE',  ( -0.000000000000000000, -1.000000000000000000, -0.000000000000000000 ) ) ;
#275 = APPLICATION_PROTOCOL_DEFINITION ( 'draft international standard', 'automotive_design', 1998, #246 ) ;
#276 = APPLICATION_CONTEXT ( 'automotive_design' ) ;
#277 = ORIENTED_EDGE ( 'NONE', *, *, #261, .F. ) ;
#278 = COLOUR_RGB ( '',1.000000000000000000, 0.000000000000000000, 0.000000000000000000 ) ;
#279 = STYLED_ITEM ( 'NONE', ( #282 ), #45 ) ;
#280 = EDGE_CURVE ( 'NONE', #158, #82, #266, .T. ) ;
#281 = EDGE_LOOP ( 'NONE', ( #188, #277 ) ) ;
#282 = PRESENTATION_STYLE_ASSIGNMENT (( #65 ) ) ;
#283 = PLANE ( 'NONE',  #303 ) ;
#284 = MECHANICAL_DESIGN_GEOMETRIC_PRESENTATION_REPRESENTATION (  '', ( #75 ), #147 ) ;
#285 = SURFACE_SIDE_STYLE ('',( #201 ) ) ;
#286 = AXIS2_PLACEMENT_3D ( 'NONE', #272, #153, #230 ) ;
#287 = EDGE_CURVE ( 'NONE', #273, #257, #245, .T. ) ;
#288 =( NAMED_UNIT ( * ) PLANE_ANGLE_UNIT ( ) SI_UNIT ( $, .RADIAN. ) );
#289 = FACE_OUTER_BOUND ( 'NONE', #107, .T. ) ;
#290 = AXIS2_PLACEMENT_3D ( 'NONE', #81, #186, #129 ) ;
#291 = LINE ( 'NONE', #270, #218 ) ;
#292 = CARTESIAN_POINT ( 'NONE',  ( 4.898587196589413815E-16, 2.000000000000000000, 0.000000000000000000 ) ) ;
#293 =( CONVERSION_BASED_UNIT ( 'INCH', #187 ) LENGTH_UNIT ( ) NAMED_UNIT ( #156 ) );
#294 = ORIENTED_EDGE ( 'NONE', *, *, #212, .F. ) ;
#295 = DIRECTION ( 'NONE',  ( -0.000000000000000000, -1.000000000000000000, -0.000000000000000000 ) ) ;
#296 = EDGE_LOOP ( 'NONE', ( #298, #215 ) ) ;
#297 = APPLICATION_PROTOCOL_DEFINITION ( 'draft international standard', 'automotive_design', 1998, #276 ) ;
#298 = ORIENTED_EDGE ( 'NONE', *, *, #300, .T. ) ;
#299 = ORIENTED_EDGE ( 'NONE', *, *, #25, .T. ) ;
#300 = EDGE_CURVE ( 'NONE', #82, #158, #244, .T. ) ;
#301 = UNCERTAINTY_MEASURE_WITH_UNIT (LENGTH_MEASURE( 1.000000000000000082E-05 ), #293, 'distance_accuracy_value', 'NONE');
#302 = ORIENTED_EDGE ( 'NONE', *, *, #280, .F. ) ;
#303 = AXIS2_PLACEMENT_3D ( 'NONE', #44, #68, #8 ) ;
#304 = CARTESIAN_POINT ( 'NONE',  ( 0.000000000000000000, 0.000000000000000000, 0.000000000000000000 ) ) ;
#305 = SURFACE_STYLE_USAGE ( .BOTH. , #189 ) ;
#306 =( NAMED_UNIT ( * ) SI_UNIT ( $, .STERADIAN. ) SOLID_ANGLE_UNIT ( ) );
#307 = SURFACE_SIDE_STYLE ('',( #128 ) ) ;
#308 =( GEOMETRIC_REPRESENTATION_CONTEXT ( 3 ) GLOBAL_UNCERTAINTY_ASSIGNED_CONTEXT ( ( #154 ) ) GLOBAL_UNIT_ASSIGNED_CONTEXT ( ( #50, #70, #164 ) ) REPRESENTATION_CONTEXT ( 'NONE', 'WORKASPACE' ) );
#309 = MECHANICAL_DESIGN_GEOMETRIC_PRESENTATION_REPRESENTATION (  '', ( #169 ), #20 ) ;
ENDSEC;
END-ISO-10303-21;
