ISO-10303-21;
HEADER;
FILE_DESCRIPTION (( 'STEP AP214' ),
    '1' );
FILE_NAME ('Micro_SME-025-2X.STEP',
    '2021-09-02T11:12:05',
    ( '' ),
    ( '' ),
    'SwSTEP 2.0',
    'SolidWorks 2020',
    '' );
FILE_SCHEMA (( 'AUTOMOTIVE_DESIGN' ));
ENDSEC;

DATA;
#1 = AXIS2_PLACEMENT_3D ( 'NONE', #125, #173, #221 ) ;
#2 = EDGE_CURVE ( 'NONE', #113, #148, #237, .T. ) ;
#3 = CYLINDRICAL_SURFACE ( 'NONE', #252, 0.01248750000000000034 ) ;
#4 = ORIENTED_EDGE ( 'NONE', *, *, #77, .T. ) ;
#5 = FACE_OUTER_BOUND ( 'NONE', #153, .T. ) ;
#6 = DIRECTION ( 'NONE',  ( 1.000000000000000000, 0.0000000000000000000, 0.0000000000000000000 ) ) ;
#7 = DIRECTION ( 'NONE',  ( -0.0000000000000000000, -0.0000000000000000000, -1.000000000000000000 ) ) ;
#8 =( NAMED_UNIT ( * ) PLANE_ANGLE_UNIT ( ) SI_UNIT ( $, .RADIAN. ) );
#9 = CLOSED_SHELL ( 'NONE', ( #225, #67, #107, #217, #247, #121, #60, #207, #193, #117 ) ) ;
#10 = ORIENTED_EDGE ( 'NONE', *, *, #82, .T. ) ;
#11 = APPLICATION_PROTOCOL_DEFINITION ( 'draft international standard', 'automotive_design', 1998, #84 ) ;
#12 = CARTESIAN_POINT ( 'NONE',  ( 3.926646044054139173E-17, 0.0000000000000000000, 0.3206349820036292764 ) ) ;
#13 = CARTESIAN_POINT ( 'NONE',  ( 0.0000000000000000000, 0.0000000000000000000, 1.500000000000000222 ) ) ;
#14 = EDGE_CURVE ( 'NONE', #188, #148, #295, .T. ) ;
#15 = DIRECTION ( 'NONE',  ( -0.0000000000000000000, -0.0000000000000000000, -1.000000000000000000 ) ) ;
#16 = FILL_AREA_STYLE_COLOUR ( '', #271 ) ;
#17 = APPLICATION_PROTOCOL_DEFINITION ( 'draft international standard', 'automotive_design', 1998, #291 ) ;
#18 = ORIENTED_EDGE ( 'NONE', *, *, #275, .T. ) ;
#19 = ORIENTED_EDGE ( 'NONE', *, *, #45, .T. ) ;
#20 = AXIS2_PLACEMENT_3D ( 'NONE', #95, #282, #71 ) ;
#21 = UNCERTAINTY_MEASURE_WITH_UNIT (LENGTH_MEASURE( 1.000000000000000082E-05 ), #31, 'distance_accuracy_value', 'NONE');
#22 = DIRECTION ( 'NONE',  ( -1.000000000000000000, 0.0000000000000000000, 0.0000000000000000000 ) ) ;
#23 = EDGE_CURVE ( 'NONE', #266, #188, #91, .T. ) ;
#24 = DIRECTION ( 'NONE',  ( 1.000000000000000000, 0.0000000000000000000, 0.0000000000000000000 ) ) ;
#25 = STYLED_ITEM ( 'NONE', ( #182 ), #83 ) ;
#26 = LINE ( 'NONE', #70, #132 ) ;
#27 = EDGE_LOOP ( 'NONE', ( #90, #263, #283, #261 ) ) ;
#28 = DIRECTION ( 'NONE',  ( -0.0000000000000000000, -0.0000000000000000000, -1.000000000000000000 ) ) ;
#29 = ORIENTED_EDGE ( 'NONE', *, *, #191, .T. ) ;
#30 = DIRECTION ( 'NONE',  ( -0.7071067811865462405, 0.0000000000000000000, -0.7071067811865486830 ) ) ;
#31 =( CONVERSION_BASED_UNIT ( 'INCH', #242 ) LENGTH_UNIT ( ) NAMED_UNIT ( #159 ) );
#32 = EDGE_CURVE ( 'NONE', #113, #266, #253, .T. ) ;
#33 = CARTESIAN_POINT ( 'NONE',  ( 4.531193156845208389E-18, 0.0000000000000000000, 0.03699999999999999817 ) ) ;
#34 = CARTESIAN_POINT ( 'NONE',  ( -0.04750000000000064587, 0.0000000000000000000, 1.500000000000000222 ) ) ;
#35 = VERTEX_POINT ( 'NONE', #280 ) ;
#36 = FACE_OUTER_BOUND ( 'NONE', #150, .T. ) ;
#37 = VECTOR ( 'NONE', #30, 39.37007874015748854 ) ;
#38 = CYLINDRICAL_SURFACE ( 'NONE', #138, 0.06250000000000002776 ) ;
#39 = DIRECTION ( 'NONE',  ( -1.224646799147353700E-16, -0.0000000000000000000, -1.000000000000000000 ) ) ;
#40 = CIRCLE ( 'NONE', #20, 0.01248750000000000207 ) ;
#41 = DIRECTION ( 'NONE',  ( 1.000000000000000000, 0.0000000000000000000, -0.0000000000000000000 ) ) ;
#42 = DIRECTION ( 'NONE',  ( -1.224646799147353700E-16, -0.0000000000000000000, -1.000000000000000000 ) ) ;
#43 = ORIENTED_EDGE ( 'NONE', *, *, #155, .F. ) ;
#44 = AXIS2_PLACEMENT_3D ( 'NONE', #64, #42, #189 ) ;
#45 = EDGE_CURVE ( 'NONE', #266, #127, #278, .T. ) ;
#46 = ORIENTED_EDGE ( 'NONE', *, *, #32, .F. ) ;
#47 = DIRECTION ( 'NONE',  ( 1.000000000000000000, 0.0000000000000000000, -0.0000000000000000000 ) ) ;
#48 = EDGE_LOOP ( 'NONE', ( #238, #224, #213, #190 ) ) ;
#49 = CARTESIAN_POINT ( 'NONE',  ( 0.01248750000000000034, 1.529277690435257475E-18, 0.0000000000000000000 ) ) ;
#50 = CIRCLE ( 'NONE', #228, 0.06250000000000002776 ) ;
#51 = AXIS2_PLACEMENT_3D ( 'NONE', #120, #63, #41 ) ;
#52 = CARTESIAN_POINT ( 'NONE',  ( 0.0000000000000000000, 0.0000000000000000000, 1.485000000000000764 ) ) ;
#53 = EDGE_LOOP ( 'NONE', ( #18, #4 ) ) ;
#54 = CARTESIAN_POINT ( 'NONE',  ( -0.01248750000000000034, 0.0000000000000000000, 3.058555380870515720E-18 ) ) ;
#55 = DIRECTION ( 'NONE',  ( -1.224646799147353700E-16, -0.0000000000000000000, -1.000000000000000000 ) ) ;
#56 = EDGE_LOOP ( 'NONE', ( #216, #298 ) ) ;
#57 = CONICAL_SURFACE ( 'NONE', #229, 0.01248750000000000207, 0.1745329251994338915 ) ;
#58 =( NAMED_UNIT ( * ) PLANE_ANGLE_UNIT ( ) SI_UNIT ( $, .RADIAN. ) );
#59 =( NAMED_UNIT ( * ) SI_UNIT ( $, .STERADIAN. ) SOLID_ANGLE_UNIT ( ) );
#60 = ADVANCED_FACE ( 'NONE', ( #299 ), #69, .T. ) ;
#61 = CIRCLE ( 'NONE', #273, 0.06250000000000002776 ) ;
#62 = FILL_AREA_STYLE ('',( #16 ) ) ;
#63 = DIRECTION ( 'NONE',  ( 0.0000000000000000000, 0.0000000000000000000, 1.000000000000000000 ) ) ;
#64 = CARTESIAN_POINT ( 'NONE',  ( 1.872825028598996265E-34, 0.0000000000000000000, 1.529277690435257860E-18 ) ) ;
#65 = ORIENTED_EDGE ( 'NONE', *, *, #230, .T. ) ;
#66 = CARTESIAN_POINT ( 'NONE',  ( 0.0000000000000000000, 0.0000000000000000000, 1.500000000000000222 ) ) ;
#67 = ADVANCED_FACE ( 'NONE', ( #166 ), #86, .T. ) ;
#68 = DIRECTION ( 'NONE',  ( 0.0000000000000000000, 0.0000000000000000000, -1.000000000000000000 ) ) ;
#69 = CONICAL_SURFACE ( 'NONE', #222, 0.04750000000000064587, 0.7853981633974466137 ) ;
#70 = CARTESIAN_POINT ( 'NONE',  ( 0.04750000000000064587, 5.817072295950006528E-18, 1.500000000000000222 ) ) ;
#71 = DIRECTION ( 'NONE',  ( -1.000000000000000000, 0.0000000000000000000, 0.0000000000000000000 ) ) ;
#72 = CARTESIAN_POINT ( 'NONE',  ( -0.06250000000000002776, 0.0000000000000000000, 1.500000000000000222 ) ) ;
#73 = PRODUCT_DEFINITION_CONTEXT ( 'detailed design', #84, 'design' ) ;
#74 = ORIENTED_EDGE ( 'NONE', *, *, #2, .F. ) ;
#75 = DIRECTION ( 'NONE',  ( -1.000000000000000000, 0.0000000000000000000, 0.0000000000000000000 ) ) ;
#76 = DIRECTION ( 'NONE',  ( 0.0000000000000000000, 0.0000000000000000000, 1.000000000000000000 ) ) ;
#77 = EDGE_CURVE ( 'NONE', #108, #257, #114, .T. ) ;
#78 = FACE_OUTER_BOUND ( 'NONE', #27, .T. ) ;
#79 =( NAMED_UNIT ( * ) SI_UNIT ( $, .STERADIAN. ) SOLID_ANGLE_UNIT ( ) );
#80 = PRESENTATION_LAYER_ASSIGNMENT (  '', '', ( #214 ) ) ;
#81 =( GEOMETRIC_REPRESENTATION_CONTEXT ( 3 ) GLOBAL_UNCERTAINTY_ASSIGNED_CONTEXT ( ( #21 ) ) GLOBAL_UNIT_ASSIGNED_CONTEXT ( ( #31, #174, #136 ) ) REPRESENTATION_CONTEXT ( 'NONE', 'WORKASPACE' ) );
#82 = EDGE_CURVE ( 'NONE', #108, #235, #26, .T. ) ;
#83 = ADVANCED_BREP_SHAPE_REPRESENTATION ( 'Micro_SME-025-2X', ( #251, #103 ), #81 ) ;
#84 = APPLICATION_CONTEXT ( 'automotive_design' ) ;
#85 = SURFACE_STYLE_FILL_AREA ( #184 ) ;
#86 = CONICAL_SURFACE ( 'NONE', #256, 0.01248750000000000207, 0.1745329251994338915 ) ;
#87 = DIRECTION ( 'NONE',  ( 0.7071067811865462405, 8.659560562354916834E-17, -0.7071067811865486830 ) ) ;
#88 = CIRCLE ( 'NONE', #262, 0.04750000000000064587 ) ;
#89 = ORIENTED_EDGE ( 'NONE', *, *, #164, .F. ) ;
#90 = ORIENTED_EDGE ( 'NONE', *, *, #245, .T. ) ;
#91 = LINE ( 'NONE', #277, #126 ) ;
#92 = AXIS2_PLACEMENT_3D ( 'NONE', #158, #201, #219 ) ;
#93 = PRODUCT_DEFINITION ( 'UNKNOWN', '', #135, #73 ) ;
#94 = ORIENTED_EDGE ( 'NONE', *, *, #137, .T. ) ;
#95 = CARTESIAN_POINT ( 'NONE',  ( 4.531193156845208389E-18, 0.0000000000000000000, 0.03699999999999999817 ) ) ;
#96 = CARTESIAN_POINT ( 'NONE',  ( 0.0000000000000000000, 0.0000000000000000000, 1.500000000000000222 ) ) ;
#97 = ORIENTED_EDGE ( 'NONE', *, *, #269, .T. ) ;
#98 = CYLINDRICAL_SURFACE ( 'NONE', #1, 0.01248750000000000034 ) ;
#99 = ORIENTED_EDGE ( 'NONE', *, *, #226, .T. ) ;
#100 = PRODUCT_CONTEXT ( 'NONE', #291, 'mechanical' ) ;
#101 = CARTESIAN_POINT ( 'NONE',  ( 0.06250000000000002776, 7.654042494670959086E-18, 1.500000000000000222 ) ) ;
#102 = CIRCLE ( 'NONE', #92, 0.01248750000000000034 ) ;
#103 = AXIS2_PLACEMENT_3D ( 'NONE', #178, #161, #249 ) ;
#104 = EDGE_LOOP ( 'NONE', ( #116, #65, #29, #200 ) ) ;
#105 = DIRECTION ( 'NONE',  ( 1.000000000000000000, 0.0000000000000000000, 0.0000000000000000000 ) ) ;
#106 = DIMENSIONAL_EXPONENTS ( 1.000000000000000000, 0.0000000000000000000, 0.0000000000000000000, 0.0000000000000000000, 0.0000000000000000000, 0.0000000000000000000, 0.0000000000000000000 ) ;
#107 = ADVANCED_FACE ( 'NONE', ( #139 ), #233, .T. ) ;
#108 = VERTEX_POINT ( 'NONE', #255 ) ;
#109 = CARTESIAN_POINT ( 'NONE',  ( 0.01248750000000000727, 0.0000000000000000000, 0.03699999999999999817 ) ) ;
#110 = SURFACE_STYLE_USAGE ( .BOTH. , #248 ) ;
#111 = AXIS2_PLACEMENT_3D ( 'NONE', #258, #142, #167 ) ;
#112 = PRODUCT ( 'Micro_SME-025-2X', 'Micro_SME-025-2X', '', ( #100 ) ) ;
#113 = VERTEX_POINT ( 'NONE', #165 ) ;
#114 = CIRCLE ( 'NONE', #111, 0.04750000000000064587 ) ;
#115 = PRESENTATION_LAYER_ASSIGNMENT (  '', '', ( #25 ) ) ;
#116 = ORIENTED_EDGE ( 'NONE', *, *, #137, .F. ) ;
#117 = ADVANCED_FACE ( 'NONE', ( #187 ), #145, .F. ) ;
#118 = DIRECTION ( 'NONE',  ( -1.224646799147353700E-16, -0.0000000000000000000, -1.000000000000000000 ) ) ;
#119 = DIRECTION ( 'NONE',  ( -1.224646799147353700E-16, -0.0000000000000000000, -1.000000000000000000 ) ) ;
#120 = CARTESIAN_POINT ( 'NONE',  ( 0.0000000000000000000, 0.0000000000000000000, 0.0000000000000000000 ) ) ;
#121 = ADVANCED_FACE ( 'NONE', ( #141 ), #212, .T. ) ;
#122 = ORIENTED_EDGE ( 'NONE', *, *, #175, .F. ) ;
#123 = DIRECTION ( 'NONE',  ( -0.1736481776669311916, 2.126576849575783316E-17, 0.9848077530122080203 ) ) ;
#124 = EDGE_CURVE ( 'NONE', #148, #188, #102, .T. ) ;
#125 = CARTESIAN_POINT ( 'NONE',  ( 0.0000000000000000000, 0.0000000000000000000, 0.0000000000000000000 ) ) ;
#126 = VECTOR ( 'NONE', #119, 39.37007874015748143 ) ;
#127 = VERTEX_POINT ( 'NONE', #290 ) ;
#128 = CARTESIAN_POINT ( 'NONE',  ( 0.0000000000000000000, 0.0000000000000000000, 1.500000000000000222 ) ) ;
#129 =( LENGTH_UNIT ( ) NAMED_UNIT ( * ) SI_UNIT ( $, .METRE. ) );
#130 = EDGE_LOOP ( 'NONE', ( #176, #19, #276, #89 ) ) ;
#131 = FACE_OUTER_BOUND ( 'NONE', #196, .T. ) ;
#132 = VECTOR ( 'NONE', #87, 39.37007874015748854 ) ;
#133 = CARTESIAN_POINT ( 'NONE',  ( 0.0000000000000000000, 0.0000000000000000000, 1.500000000000000222 ) ) ;
#134 = SURFACE_SIDE_STYLE ('',( #85 ) ) ;
#135 = PRODUCT_DEFINITION_FORMATION_WITH_SPECIFIED_SOURCE ( 'ANY', '', #112, .NOT_KNOWN. ) ;
#136 =( NAMED_UNIT ( * ) SI_UNIT ( $, .STERADIAN. ) SOLID_ANGLE_UNIT ( ) );
#137 = EDGE_CURVE ( 'NONE', #235, #259, #264, .T. ) ;
#138 = AXIS2_PLACEMENT_3D ( 'NONE', #133, #15, #205 ) ;
#139 = FACE_OUTER_BOUND ( 'NONE', #143, .T. ) ;
#140 = CARTESIAN_POINT ( 'NONE',  ( 0.01248750000000000034, 1.529277690435257475E-18, -1.529277690435257860E-18 ) ) ;
#141 = FACE_OUTER_BOUND ( 'NONE', #53, .T. ) ;
#142 = DIRECTION ( 'NONE',  ( 0.0000000000000000000, 0.0000000000000000000, 1.000000000000000000 ) ) ;
#143 = EDGE_LOOP ( 'NONE', ( #220, #10, #170, #122 ) ) ;
#144 = VECTOR ( 'NONE', #28, 39.37007874015748143 ) ;
#145 = PLANE ( 'NONE',  #51 ) ;
#146 = UNCERTAINTY_MEASURE_WITH_UNIT (LENGTH_MEASURE( 1.000000000000000082E-05 ), #203, 'distance_accuracy_value', 'NONE');
#147 = CARTESIAN_POINT ( 'NONE',  ( 4.531193156845208389E-18, 0.0000000000000000000, 0.03699999999999999817 ) ) ;
#148 = VERTEX_POINT ( 'NONE', #49 ) ;
#149 = CARTESIAN_POINT ( 'NONE',  ( 0.06250000000000002776, 7.654042494670959086E-18, 1.485000000000000764 ) ) ;
#150 = EDGE_LOOP ( 'NONE', ( #281, #46, #195, #99 ) ) ;
#151 = DIRECTION ( 'NONE',  ( 1.000000000000000000, 0.0000000000000000000, 0.0000000000000000000 ) ) ;
#152 = VECTOR ( 'NONE', #123, 39.37007874015747433 ) ;
#153 = EDGE_LOOP ( 'NONE', ( #74, #297, #210, #243 ) ) ;
#154 = DIMENSIONAL_EXPONENTS ( 1.000000000000000000, 0.0000000000000000000, 0.0000000000000000000, 0.0000000000000000000, 0.0000000000000000000, 0.0000000000000000000, 0.0000000000000000000 ) ;
#155 = EDGE_CURVE ( 'NONE', #127, #259, #208, .T. ) ;
#156 = DIRECTION ( 'NONE',  ( 1.000000000000000000, 0.0000000000000000000, 0.0000000000000000000 ) ) ;
#157 = DIRECTION ( 'NONE',  ( 0.0000000000000000000, 0.0000000000000000000, 1.000000000000000000 ) ) ;
#158 = CARTESIAN_POINT ( 'NONE',  ( 1.872825028598996265E-34, 0.0000000000000000000, 1.529277690435257860E-18 ) ) ;
#159 = DIMENSIONAL_EXPONENTS ( 1.000000000000000000, 0.0000000000000000000, 0.0000000000000000000, 0.0000000000000000000, 0.0000000000000000000, 0.0000000000000000000, 0.0000000000000000000 ) ;
#160 = PRODUCT_DEFINITION_SHAPE ( 'NONE', 'NONE',  #93 ) ;
#161 = DIRECTION ( 'NONE',  ( 0.0000000000000000000, 0.0000000000000000000, 1.000000000000000000 ) ) ;
#162 = VECTOR ( 'NONE', #177, 39.37007874015748143 ) ;
#163 = PRESENTATION_STYLE_ASSIGNMENT (( #110 ) ) ;
#164 = EDGE_CURVE ( 'NONE', #113, #259, #241, .T. ) ;
#165 = CARTESIAN_POINT ( 'NONE',  ( 0.01248750000000000727, 0.0000000000000000000, 0.03699999999999999817 ) ) ;
#166 = FACE_OUTER_BOUND ( 'NONE', #130, .T. ) ;
#167 = DIRECTION ( 'NONE',  ( 1.000000000000000000, 0.0000000000000000000, 0.0000000000000000000 ) ) ;
#168 = AXIS2_PLACEMENT_3D ( 'NONE', #198, #244, #151 ) ;
#169 = DIRECTION ( 'NONE',  ( -1.000000000000000000, 0.0000000000000000000, 0.0000000000000000000 ) ) ;
#170 = ORIENTED_EDGE ( 'NONE', *, *, #269, .F. ) ;
#171 = FACE_OUTER_BOUND ( 'NONE', #104, .T. ) ;
#172 = CARTESIAN_POINT ( 'NONE',  ( 0.06250000000000006939, 7.654042494670963708E-18, 0.3206349820036292764 ) ) ;
#173 = DIRECTION ( 'NONE',  ( -1.224646799147353700E-16, -0.0000000000000000000, -1.000000000000000000 ) ) ;
#174 =( NAMED_UNIT ( * ) PLANE_ANGLE_UNIT ( ) SI_UNIT ( $, .RADIAN. ) );
#175 = EDGE_CURVE ( 'NONE', #257, #35, #218, .T. ) ;
#176 = ORIENTED_EDGE ( 'NONE', *, *, #245, .F. ) ;
#177 = DIRECTION ( 'NONE',  ( -0.0000000000000000000, -0.0000000000000000000, -1.000000000000000000 ) ) ;
#178 = CARTESIAN_POINT ( 'NONE',  ( 0.0000000000000000000, 0.0000000000000000000, 0.0000000000000000000 ) ) ;
#179 = DIRECTION ( 'NONE',  ( -1.000000000000000000, 0.0000000000000000000, 1.224646799147353700E-16 ) ) ;
#180 = LENGTH_MEASURE_WITH_UNIT ( LENGTH_MEASURE( 0.02539999999999999897 ), #206 );
#181 = DIRECTION ( 'NONE',  ( 1.000000000000000000, 0.0000000000000000000, 0.0000000000000000000 ) ) ;
#182 = PRESENTATION_STYLE_ASSIGNMENT (( #232 ) ) ;
#183 = VECTOR ( 'NONE', #39, 39.37007874015748143 ) ;
#184 = FILL_AREA_STYLE ('',( #294 ) ) ;
#185 = DIRECTION ( 'NONE',  ( 0.0000000000000000000, 0.0000000000000000000, -1.000000000000000000 ) ) ;
#186 =( GEOMETRIC_REPRESENTATION_CONTEXT ( 3 ) GLOBAL_UNCERTAINTY_ASSIGNED_CONTEXT ( ( #146 ) ) GLOBAL_UNIT_ASSIGNED_CONTEXT ( ( #203, #8, #79 ) ) REPRESENTATION_CONTEXT ( 'NONE', 'WORKASPACE' ) );
#187 = FACE_OUTER_BOUND ( 'NONE', #56, .T. ) ;
#188 = VERTEX_POINT ( 'NONE', #54 ) ;
#189 = DIRECTION ( 'NONE',  ( -1.000000000000000000, 0.0000000000000000000, 1.224646799147353700E-16 ) ) ;
#190 = ORIENTED_EDGE ( 'NONE', *, *, #230, .F. ) ;
#191 = EDGE_CURVE ( 'NONE', #35, #127, #194, .T. ) ;
#192 = AXIS2_PLACEMENT_3D ( 'NONE', #13, #76, #47 ) ;
#193 = ADVANCED_FACE ( 'NONE', ( #5 ), #98, .T. ) ;
#194 = LINE ( 'NONE', #72, #144 ) ;
#195 = ORIENTED_EDGE ( 'NONE', *, *, #164, .T. ) ;
#196 = EDGE_LOOP ( 'NONE', ( #97, #94, #43, #286 ) ) ;
#197 =( CONVERSION_BASED_UNIT ( 'INCH', #180 ) LENGTH_UNIT ( ) NAMED_UNIT ( #106 ) );
#198 = CARTESIAN_POINT ( 'NONE',  ( 3.926646044054139173E-17, 0.0000000000000000000, 0.3206349820036292764 ) ) ;
#199 = AXIS2_PLACEMENT_3D ( 'NONE', #128, #7, #75 ) ;
#200 = ORIENTED_EDGE ( 'NONE', *, *, #226, .F. ) ;
#201 = DIRECTION ( 'NONE',  ( -1.224646799147353700E-16, -0.0000000000000000000, -1.000000000000000000 ) ) ;
#202 = CYLINDRICAL_SURFACE ( 'NONE', #199, 0.06250000000000002776 ) ;
#203 =( CONVERSION_BASED_UNIT ( 'INCH', #250 ) LENGTH_UNIT ( ) NAMED_UNIT ( #154 ) );
#204 = AXIS2_PLACEMENT_3D ( 'NONE', #147, #118, #169 ) ;
#205 = DIRECTION ( 'NONE',  ( -1.000000000000000000, 0.0000000000000000000, 0.0000000000000000000 ) ) ;
#206 =( LENGTH_UNIT ( ) NAMED_UNIT ( * ) SI_UNIT ( $, .METRE. ) );
#207 = ADVANCED_FACE ( 'NONE', ( #36 ), #57, .T. ) ;
#208 = CIRCLE ( 'NONE', #168, 0.06250000000000002776 ) ;
#209 = UNCERTAINTY_MEASURE_WITH_UNIT (LENGTH_MEASURE( 1.000000000000000082E-05 ), #197, 'distance_accuracy_value', 'NONE');
#210 = ORIENTED_EDGE ( 'NONE', *, *, #23, .T. ) ;
#211 = DIRECTION ( 'NONE',  ( -1.000000000000000000, 0.0000000000000000000, 0.0000000000000000000 ) ) ;
#212 = PLANE ( 'NONE',  #192 ) ;
#213 = ORIENTED_EDGE ( 'NONE', *, *, #175, .T. ) ;
#214 = STYLED_ITEM ( 'NONE', ( #163 ), #251 ) ;
#215 = DIRECTION ( 'NONE',  ( 1.224646799147353700E-16, 0.0000000000000000000, 1.000000000000000000 ) ) ;
#216 = ORIENTED_EDGE ( 'NONE', *, *, #14, .T. ) ;
#217 = ADVANCED_FACE ( 'NONE', ( #131 ), #202, .T. ) ;
#218 = LINE ( 'NONE', #288, #37 ) ;
#219 = DIRECTION ( 'NONE',  ( -1.000000000000000000, 0.0000000000000000000, 1.224646799147353700E-16 ) ) ;
#220 = ORIENTED_EDGE ( 'NONE', *, *, #77, .F. ) ;
#221 = DIRECTION ( 'NONE',  ( -1.000000000000000000, 0.0000000000000000000, 1.224646799147353700E-16 ) ) ;
#222 = AXIS2_PLACEMENT_3D ( 'NONE', #66, #68, #211 ) ;
#223 = MECHANICAL_DESIGN_GEOMETRIC_PRESENTATION_REPRESENTATION (  '', ( #25 ), #265 ) ;
#224 = ORIENTED_EDGE ( 'NONE', *, *, #275, .F. ) ;
#225 = ADVANCED_FACE ( 'NONE', ( #78 ), #3, .T. ) ;
#226 = EDGE_CURVE ( 'NONE', #259, #127, #61, .T. ) ;
#227 = SURFACE_STYLE_FILL_AREA ( #62 ) ;
#228 = AXIS2_PLACEMENT_3D ( 'NONE', #52, #289, #181 ) ;
#229 = AXIS2_PLACEMENT_3D ( 'NONE', #33, #215, #156 ) ;
#230 = EDGE_CURVE ( 'NONE', #235, #35, #240, .T. ) ;
#231 = CARTESIAN_POINT ( 'NONE',  ( 0.0000000000000000000, 0.0000000000000000000, 1.500000000000000222 ) ) ;
#232 = SURFACE_STYLE_USAGE ( .BOTH. , #134 ) ;
#233 = CONICAL_SURFACE ( 'NONE', #285, 0.04750000000000064587, 0.7853981633974466137 ) ;
#234 = COLOUR_RGB ( '',0.7921568627450980005, 0.8196078431372548767, 0.9333333333333333481 ) ;
#235 = VERTEX_POINT ( 'NONE', #149 ) ;
#236 = CARTESIAN_POINT ( 'NONE',  ( -0.01248749999999999860, 1.529277690435257668E-18, 0.03699999999999999817 ) ) ;
#237 = LINE ( 'NONE', #140, #183 ) ;
#238 = ORIENTED_EDGE ( 'NONE', *, *, #82, .F. ) ;
#239 = DIRECTION ( 'NONE',  ( -1.224646799147353700E-16, -0.0000000000000000000, -1.000000000000000000 ) ) ;
#240 = CIRCLE ( 'NONE', #274, 0.06250000000000002776 ) ;
#241 = LINE ( 'NONE', #109, #279 ) ;
#242 = LENGTH_MEASURE_WITH_UNIT ( LENGTH_MEASURE( 0.02539999999999999897 ), #129 );
#243 = ORIENTED_EDGE ( 'NONE', *, *, #124, .F. ) ;
#244 = DIRECTION ( 'NONE',  ( -1.224646799147353700E-16, -0.0000000000000000000, -1.000000000000000000 ) ) ;
#245 = EDGE_CURVE ( 'NONE', #266, #113, #40, .T. ) ;
#246 = DIRECTION ( 'NONE',  ( 0.0000000000000000000, 0.0000000000000000000, -1.000000000000000000 ) ) ;
#247 = ADVANCED_FACE ( 'NONE', ( #171 ), #38, .T. ) ;
#248 = SURFACE_SIDE_STYLE ('',( #227 ) ) ;
#249 = DIRECTION ( 'NONE',  ( 1.000000000000000000, 0.0000000000000000000, 0.0000000000000000000 ) ) ;
#250 = LENGTH_MEASURE_WITH_UNIT ( LENGTH_MEASURE( 0.02539999999999999897 ), #272 );
#251 = MANIFOLD_SOLID_BREP ( 'Cut-Revolve1', #9 ) ;
#252 = AXIS2_PLACEMENT_3D ( 'NONE', #267, #55, #179 ) ;
#253 = CIRCLE ( 'NONE', #204, 0.01248750000000000207 ) ;
#254 = DIRECTION ( 'NONE',  ( 1.224646799147353700E-16, 0.0000000000000000000, 1.000000000000000000 ) ) ;
#255 = CARTESIAN_POINT ( 'NONE',  ( 0.04750000000000064587, 6.735557395310483192E-18, 1.500000000000000222 ) ) ;
#256 = AXIS2_PLACEMENT_3D ( 'NONE', #296, #254, #24 ) ;
#257 = VERTEX_POINT ( 'NONE', #34 ) ;
#258 = CARTESIAN_POINT ( 'NONE',  ( 0.0000000000000000000, 0.0000000000000000000, 1.500000000000000222 ) ) ;
#259 = VERTEX_POINT ( 'NONE', #172 ) ;
#260 = DIRECTION ( 'NONE',  ( 1.000000000000000000, 0.0000000000000000000, 0.0000000000000000000 ) ) ;
#261 = ORIENTED_EDGE ( 'NONE', *, *, #23, .F. ) ;
#262 = AXIS2_PLACEMENT_3D ( 'NONE', #96, #157, #6 ) ;
#263 = ORIENTED_EDGE ( 'NONE', *, *, #2, .T. ) ;
#264 = LINE ( 'NONE', #101, #162 ) ;
#265 =( GEOMETRIC_REPRESENTATION_CONTEXT ( 3 ) GLOBAL_UNCERTAINTY_ASSIGNED_CONTEXT ( ( #209 ) ) GLOBAL_UNIT_ASSIGNED_CONTEXT ( ( #197, #58, #59 ) ) REPRESENTATION_CONTEXT ( 'NONE', 'WORKASPACE' ) );
#266 = VERTEX_POINT ( 'NONE', #293 ) ;
#267 = CARTESIAN_POINT ( 'NONE',  ( 0.0000000000000000000, 0.0000000000000000000, 0.0000000000000000000 ) ) ;
#268 = PRODUCT_RELATED_PRODUCT_CATEGORY ( 'part', '', ( #112 ) ) ;
#269 = EDGE_CURVE ( 'NONE', #35, #235, #50, .T. ) ;
#270 = CARTESIAN_POINT ( 'NONE',  ( 0.0000000000000000000, 0.0000000000000000000, 1.485000000000000764 ) ) ;
#271 = COLOUR_RGB ( '',0.7921568627450980005, 0.8196078431372548767, 0.9333333333333333481 ) ;
#272 =( LENGTH_UNIT ( ) NAMED_UNIT ( * ) SI_UNIT ( $, .METRE. ) );
#273 = AXIS2_PLACEMENT_3D ( 'NONE', #12, #239, #105 ) ;
#274 = AXIS2_PLACEMENT_3D ( 'NONE', #270, #246, #260 ) ;
#275 = EDGE_CURVE ( 'NONE', #257, #108, #88, .T. ) ;
#276 = ORIENTED_EDGE ( 'NONE', *, *, #155, .T. ) ;
#277 = CARTESIAN_POINT ( 'NONE',  ( -0.01248750000000000034, 0.0000000000000000000, 1.529277690435257860E-18 ) ) ;
#278 = LINE ( 'NONE', #236, #152 ) ;
#279 = VECTOR ( 'NONE', #284, 39.37007874015748143 ) ;
#280 = CARTESIAN_POINT ( 'NONE',  ( -0.06250000000000002776, 0.0000000000000000000, 1.485000000000000764 ) ) ;
#281 = ORIENTED_EDGE ( 'NONE', *, *, #45, .F. ) ;
#282 = DIRECTION ( 'NONE',  ( -1.224646799147353700E-16, -0.0000000000000000000, -1.000000000000000000 ) ) ;
#283 = ORIENTED_EDGE ( 'NONE', *, *, #14, .F. ) ;
#284 = DIRECTION ( 'NONE',  ( 0.1736481776669313859, 0.0000000000000000000, 0.9848077530122077983 ) ) ;
#285 = AXIS2_PLACEMENT_3D ( 'NONE', #231, #185, #22 ) ;
#286 = ORIENTED_EDGE ( 'NONE', *, *, #191, .F. ) ;
#287 = SHAPE_DEFINITION_REPRESENTATION ( #160, #83 ) ;
#288 = CARTESIAN_POINT ( 'NONE',  ( -0.04750000000000064587, 0.0000000000000000000, 1.500000000000000222 ) ) ;
#289 = DIRECTION ( 'NONE',  ( 0.0000000000000000000, 0.0000000000000000000, -1.000000000000000000 ) ) ;
#290 = CARTESIAN_POINT ( 'NONE',  ( -0.06249999999999997918, 0.0000000000000000000, 0.3206349820036292764 ) ) ;
#291 = APPLICATION_CONTEXT ( 'automotive_design' ) ;
#292 = MECHANICAL_DESIGN_GEOMETRIC_PRESENTATION_REPRESENTATION (  '', ( #214 ), #186 ) ;
#293 = CARTESIAN_POINT ( 'NONE',  ( -0.01248749999999999860, 4.591660092553109051E-18, 0.03699999999999999817 ) ) ;
#294 = FILL_AREA_STYLE_COLOUR ( '', #234 ) ;
#295 = CIRCLE ( 'NONE', #44, 0.01248750000000000034 ) ;
#296 = CARTESIAN_POINT ( 'NONE',  ( 4.531193156845208389E-18, 0.0000000000000000000, 0.03699999999999999817 ) ) ;
#297 = ORIENTED_EDGE ( 'NONE', *, *, #32, .T. ) ;
#298 = ORIENTED_EDGE ( 'NONE', *, *, #124, .T. ) ;
#299 = FACE_OUTER_BOUND ( 'NONE', #48, .T. ) ;
ENDSEC;
END-ISO-10303-21;
