ISO-10303-21;
HEADER;
FILE_DESCRIPTION (( 'STEP AP214' ),
    '1' );
FILE_NAME ('56227.STEP',
    '2023-06-30T22:06:48',
    ( '' ),
    ( '' ),
    'SwSTEP 2.0',
    'SolidWorks 2023',
    '' );
FILE_SCHEMA (( 'AUTOMOTIVE_DESIGN' ));
ENDSEC;

DATA;
#1 = SURFACE_STYLE_FILL_AREA ( #123 ) ;
#2 = EDGE_CURVE ( 'NONE', #81, #41, #357, .T. ) ;
#3 = DIMENSIONAL_EXPONENTS ( 1.000000000000000000, 0.000000000000000000, 0.000000000000000000, 0.000000000000000000, 0.000000000000000000, 0.000000000000000000, 0.000000000000000000 ) ;
#4 = DIRECTION ( 'NONE',  ( -0.000000000000000000, -1.000000000000000000, -0.000000000000000000 ) ) ;
#5 = ORIENTED_EDGE ( 'NONE', *, *, #348, .T. ) ;
#6 =( LENGTH_UNIT ( ) NAMED_UNIT ( * ) SI_UNIT ( $, .METRE. ) );
#7 = EDGE_LOOP ( 'NONE', ( #305, #363, #196, #83, #198 ) ) ;
#8 = MECHANICAL_DESIGN_GEOMETRIC_PRESENTATION_REPRESENTATION (  '', ( #33 ), #201 ) ;
#9 = CARTESIAN_POINT ( 'NONE',  ( 0.000000000000000000, 0.5000000000000000000, 0.000000000000000000 ) ) ;
#10 = ADVANCED_FACE ( 'NONE', ( #300 ), #164, .T. ) ;
#11 = CARTESIAN_POINT ( 'NONE',  ( -1.913510623667739463E-17, 0.1562500000000000000, 0.000000000000000000 ) ) ;
#12 = PRESENTATION_STYLE_ASSIGNMENT (( #40 ) ) ;
#13 = DIRECTION ( 'NONE',  ( -1.233461347801864019E-16, 1.000000000000000000, -0.000000000000000000 ) ) ;
#14 = ORIENTED_EDGE ( 'NONE', *, *, #235, .F. ) ;
#15 = PRESENTATION_STYLE_ASSIGNMENT (( #273 ) ) ;
#16 = VECTOR ( 'NONE', #82, 39.37007874015748143 ) ;
#17 = SURFACE_SIDE_STYLE ('',( #163 ) ) ;
#18 = VERTEX_POINT ( 'NONE', #208 ) ;
#19 = DIRECTION ( 'NONE',  ( -1.233461347801864019E-16, 1.000000000000000000, -0.000000000000000000 ) ) ;
#20 = APPLICATION_PROTOCOL_DEFINITION ( 'draft international standard', 'automotive_design', 1998, #66 ) ;
#21 = SURFACE_STYLE_USAGE ( .BOTH. , #324 ) ;
#22 = CARTESIAN_POINT ( 'NONE',  ( 1.224646799147353700E-16, 2.000000000000000000, 0.000000000000000000 ) ) ;
#23 =( GEOMETRIC_REPRESENTATION_CONTEXT ( 3 ) GLOBAL_UNCERTAINTY_ASSIGNED_CONTEXT ( ( #179 ) ) GLOBAL_UNIT_ASSIGNED_CONTEXT ( ( #219, #173, #331 ) ) REPRESENTATION_CONTEXT ( 'NONE', 'WORKASPACE' ) );
#24 = AXIS2_PLACEMENT_3D ( 'NONE', #178, #335, #78 ) ;
#25 = ORIENTED_EDGE ( 'NONE', *, *, #228, .T. ) ;
#26 = DIRECTION ( 'NONE',  ( -1.000000000000000000, 0.000000000000000000, 0.000000000000000000 ) ) ;
#27 = SURFACE_STYLE_USAGE ( .BOTH. , #17 ) ;
#28 = DIRECTION ( 'NONE',  ( 0.000000000000000000, 0.000000000000000000, -1.000000000000000000 ) ) ;
#29 = UNCERTAINTY_MEASURE_WITH_UNIT (LENGTH_MEASURE( 1.000000000000000082E-05 ), #76, 'distance_accuracy_value', 'NONE');
#30 = LENGTH_MEASURE_WITH_UNIT ( LENGTH_MEASURE( 0.02539999999999999897 ), #61 );
#31 = EDGE_CURVE ( 'NONE', #189, #143, #34, .T. ) ;
#32 = DIRECTION ( 'NONE',  ( -0.000000000000000000, -1.000000000000000000, -0.000000000000000000 ) ) ;
#33 = STYLED_ITEM ( 'NONE', ( #359 ), #181 ) ;
#34 = LINE ( 'NONE', #37, #303 ) ;
#35 = VERTEX_POINT ( 'NONE', #186 ) ;
#36 = CARTESIAN_POINT ( 'NONE',  ( -1.913510623667739463E-17, 0.1562500000000000000, 0.000000000000000000 ) ) ;
#37 = CARTESIAN_POINT ( 'NONE',  ( 1.913510623667738539E-17, 0.000000000000000000, 0.1562499999999999445 ) ) ;
#38 =( LENGTH_UNIT ( ) NAMED_UNIT ( * ) SI_UNIT ( $, .METRE. ) );
#39 = AXIS2_PLACEMENT_3D ( 'NONE', #356, #50, #302 ) ;
#40 = SURFACE_STYLE_USAGE ( .BOTH. , #210 ) ;
#41 = VERTEX_POINT ( 'NONE', #156 ) ;
#42 = DIRECTION ( 'NONE',  ( 0.000000000000000000, 0.000000000000000000, 1.000000000000000000 ) ) ;
#43 =( NAMED_UNIT ( * ) SI_UNIT ( $, .STERADIAN. ) SOLID_ANGLE_UNIT ( ) );
#44 = ORIENTED_EDGE ( 'NONE', *, *, #31, .T. ) ;
#45 = DIRECTION ( 'NONE',  ( 1.000000000000000000, 0.000000000000000000, 0.000000000000000000 ) ) ;
#46 = EDGE_CURVE ( 'NONE', #51, #329, #312, .T. ) ;
#47 = DIRECTION ( 'NONE',  ( 0.000000000000000000, 0.000000000000000000, 1.000000000000000000 ) ) ;
#48 = AXIS2_PLACEMENT_3D ( 'NONE', #243, #242, #295 ) ;
#49 = CIRCLE ( 'NONE', #238, 0.1562499999999998057 ) ;
#50 = DIRECTION ( 'NONE',  ( -0.000000000000000000, -1.000000000000000000, -0.000000000000000000 ) ) ;
#51 = VERTEX_POINT ( 'NONE', #152 ) ;
#52 = LENGTH_MEASURE_WITH_UNIT ( LENGTH_MEASURE( 0.02539999999999999897 ), #172 );
#53 = CARTESIAN_POINT ( 'NONE',  ( 3.074838820850149482E-16, 0.5000000000000001110, 0.000000000000000000 ) ) ;
#54 = UNCERTAINTY_MEASURE_WITH_UNIT (LENGTH_MEASURE( 1.000000000000000082E-05 ), #261, 'distance_accuracy_value', 'NONE');
#55 = ORIENTED_EDGE ( 'NONE', *, *, #342, .T. ) ;
#56 = DIRECTION ( 'NONE',  ( -1.233461347801864019E-16, 1.000000000000000000, -0.000000000000000000 ) ) ;
#57 = EDGE_LOOP ( 'NONE', ( #25, #139, #134, #285 ) ) ;
#58 = DIRECTION ( 'NONE',  ( -0.000000000000000000, -1.000000000000000000, -0.000000000000000000 ) ) ;
#59 = MECHANICAL_DESIGN_GEOMETRIC_PRESENTATION_REPRESENTATION (  '', ( #296 ), #232 ) ;
#60 = AXIS2_PLACEMENT_3D ( 'NONE', #106, #58, #361 ) ;
#61 =( LENGTH_UNIT ( ) NAMED_UNIT ( * ) SI_UNIT ( $, .METRE. ) );
#62 = FILL_AREA_STYLE_COLOUR ( '', #258 ) ;
#63 = STYLED_ITEM ( 'NONE', ( #124 ), #248 ) ;
#64 = PRESENTATION_LAYER_ASSIGNMENT (  '', '', ( #215 ) ) ;
#65 = EDGE_CURVE ( 'NONE', #254, #41, #79, .T. ) ;
#66 = APPLICATION_CONTEXT ( 'automotive_design' ) ;
#67 = CARTESIAN_POINT ( 'NONE',  ( 0.1562499999999999445, 0.5000000000000001110, 1.913510623667736382E-17 ) ) ;
#68 = SURFACE_STYLE_USAGE ( .BOTH. , #102 ) ;
#69 =( CONVERSION_BASED_UNIT ( 'INCH', #318 ) LENGTH_UNIT ( ) NAMED_UNIT ( #157 ) );
#70 = SURFACE_STYLE_FILL_AREA ( #257 ) ;
#71 = CLOSED_SHELL ( 'NONE', ( #181, #10, #248, #271, #266 ) ) ;
#72 = FILL_AREA_STYLE ('',( #80 ) ) ;
#73 = EDGE_LOOP ( 'NONE', ( #14, #137 ) ) ;
#74 = SURFACE_STYLE_FILL_AREA ( #240 ) ;
#75 = ORIENTED_EDGE ( 'NONE', *, *, #327, .T. ) ;
#76 =( CONVERSION_BASED_UNIT ( 'INCH', #283 ) LENGTH_UNIT ( ) NAMED_UNIT ( #3 ) );
#77 = VERTEX_POINT ( 'NONE', #160 ) ;
#78 = DIRECTION ( 'NONE',  ( 0.000000000000000000, 0.000000000000000000, -1.000000000000000000 ) ) ;
#79 = CIRCLE ( 'NONE', #48, 0.1562499999999998057 ) ;
#80 = FILL_AREA_STYLE_COLOUR ( '', #259 ) ;
#81 = VERTEX_POINT ( 'NONE', #67 ) ;
#82 = DIRECTION ( 'NONE',  ( -0.000000000000000000, -1.000000000000000000, -0.000000000000000000 ) ) ;
#83 = ORIENTED_EDGE ( 'NONE', *, *, #234, .F. ) ;
#84 = DIRECTION ( 'NONE',  ( -0.000000000000000000, -1.000000000000000000, -0.000000000000000000 ) ) ;
#85 = ADVANCED_FACE ( 'NONE', ( #352 ), #314, .F. ) ;
#86 = DIRECTION ( 'NONE',  ( -1.233461347801864019E-16, 1.000000000000000000, -0.000000000000000000 ) ) ;
#87 = CIRCLE ( 'NONE', #267, 0.1562499999999996392 ) ;
#88 = CIRCLE ( 'NONE', #321, 0.1562499999999999445 ) ;
#89 = SURFACE_STYLE_FILL_AREA ( #120 ) ;
#90 = COLOUR_RGB ( '',0.7921568627450980005, 0.8196078431372548767, 0.9333333333333333481 ) ;
#91 = DIRECTION ( 'NONE',  ( 0.000000000000000000, 0.000000000000000000, -1.000000000000000000 ) ) ;
#92 = MANIFOLD_SOLID_BREP ( 'Revolve - Tool Body (Straight Shanked)', #93 ) ;
#93 = CLOSED_SHELL ( 'NONE', ( #370, #85, #115, #114 ) ) ;
#94 = STYLED_ITEM ( 'NONE', ( #184 ), #266 ) ;
#95 = ORIENTED_EDGE ( 'NONE', *, *, #293, .F. ) ;
#96 = COLOUR_RGB ( '',0.7921568627450980005, 0.8196078431372548767, 0.9333333333333333481 ) ;
#97 = CARTESIAN_POINT ( 'NONE',  ( 3.074838820850149482E-16, 0.5000000000000000000, 0.000000000000000000 ) ) ;
#98 = DIMENSIONAL_EXPONENTS ( 1.000000000000000000, 0.000000000000000000, 0.000000000000000000, 0.000000000000000000, 0.000000000000000000, 0.000000000000000000, 0.000000000000000000 ) ;
#99 = DIRECTION ( 'NONE',  ( -1.233461347801864019E-16, 1.000000000000000000, 0.000000000000000000 ) ) ;
#100 = FACE_OUTER_BOUND ( 'NONE', #7, .T. ) ;
#101 = LENGTH_MEASURE_WITH_UNIT ( LENGTH_MEASURE( 0.02539999999999999897 ), #206 );
#102 = SURFACE_SIDE_STYLE ('',( #89 ) ) ;
#103 = EDGE_CURVE ( 'NONE', #18, #329, #165, .T. ) ;
#104 = AXIS2_PLACEMENT_3D ( 'NONE', #278, #116, #28 ) ;
#105 = MECHANICAL_DESIGN_GEOMETRIC_PRESENTATION_REPRESENTATION (  '', ( #94 ), #260 ) ;
#106 = CARTESIAN_POINT ( 'NONE',  ( 0.000000000000000000, 0.1562500000000000278, 0.000000000000000000 ) ) ;
#107 = CARTESIAN_POINT ( 'NONE',  ( -0.1562499999999996669, 2.000000000000000000, 0.000000000000000000 ) ) ;
#108 = ORIENTED_EDGE ( 'NONE', *, *, #344, .F. ) ;
#109 = DIRECTION ( 'NONE',  ( 1.233461347801864019E-16, -1.000000000000000000, 0.000000000000000000 ) ) ;
#110 = PRESENTATION_LAYER_ASSIGNMENT (  '', '', ( #63 ) ) ;
#111 = DIRECTION ( 'NONE',  ( -1.000000000000000000, 0.000000000000000000, 0.000000000000000000 ) ) ;
#112 = ORIENTED_EDGE ( 'NONE', *, *, #2, .F. ) ;
#113 = CARTESIAN_POINT ( 'NONE',  ( -9.567553118338697316E-18, 0.000000000000000000, 0.000000000000000000 ) ) ;
#114 = ADVANCED_FACE ( 'NONE', ( #252 ), #212, .F. ) ;
#115 = ADVANCED_FACE ( 'NONE', ( #364 ), #354, .T. ) ;
#116 = DIRECTION ( 'NONE',  ( -0.000000000000000000, -1.000000000000000000, -0.000000000000000000 ) ) ;
#117 = PRODUCT_DEFINITION_FORMATION_WITH_SPECIFIED_SOURCE ( 'ANY', '', #239, .NOT_KNOWN. ) ;
#118 = FILL_AREA_STYLE ('',( #360 ) ) ;
#119 = PLANE ( 'NONE',  #369 ) ;
#120 = FILL_AREA_STYLE ('',( #62 ) ) ;
#121 = PRESENTATION_LAYER_ASSIGNMENT (  '', '', ( #187 ) ) ;
#122 = AXIS2_PLACEMENT_3D ( 'NONE', #136, #109, #191 ) ;
#123 = FILL_AREA_STYLE ('',( #130 ) ) ;
#124 = PRESENTATION_STYLE_ASSIGNMENT (( #315 ) ) ;
#125 = DIMENSIONAL_EXPONENTS ( 1.000000000000000000, 0.000000000000000000, 0.000000000000000000, 0.000000000000000000, 0.000000000000000000, 0.000000000000000000, 0.000000000000000000 ) ;
#126 = PRODUCT_DEFINITION_SHAPE ( 'NONE', 'NONE',  #170 ) ;
#127 = DIRECTION ( 'NONE',  ( -1.000000000000000000, 0.000000000000000000, 0.000000000000000000 ) ) ;
#128 = AXIS2_PLACEMENT_3D ( 'NONE', #11, #328, #195 ) ;
#129 = DIMENSIONAL_EXPONENTS ( 1.000000000000000000, 0.000000000000000000, 0.000000000000000000, 0.000000000000000000, 0.000000000000000000, 0.000000000000000000, 0.000000000000000000 ) ;
#130 = FILL_AREA_STYLE_COLOUR ( '', #96 ) ;
#131 = EDGE_CURVE ( 'NONE', #81, #275, #332, .T. ) ;
#132 = FILL_AREA_STYLE_COLOUR ( '', #146 ) ;
#133 = CARTESIAN_POINT ( 'NONE',  ( -1.913510623667739463E-17, 0.1562500000000000000, 0.000000000000000000 ) ) ;
#134 = ORIENTED_EDGE ( 'NONE', *, *, #46, .F. ) ;
#135 = DIRECTION ( 'NONE',  ( -1.233461347801864019E-16, 1.000000000000000000, -0.000000000000000000 ) ) ;
#136 = CARTESIAN_POINT ( 'NONE',  ( 0.1562499999999999445, 2.000000000000000000, 0.000000000000000000 ) ) ;
#137 = ORIENTED_EDGE ( 'NONE', *, *, #131, .F. ) ;
#138 = SHAPE_DEFINITION_REPRESENTATION ( #126, #346 ) ;
#139 = ORIENTED_EDGE ( 'NONE', *, *, #103, .T. ) ;
#140 = CARTESIAN_POINT ( 'NONE',  ( 0.000000000000000000, 0.5000000000000000000, 0.000000000000000000 ) ) ;
#141 = VECTOR ( 'NONE', #192, 39.37007874015748143 ) ;
#142 = CIRCLE ( 'NONE', #104, 0.1562499999999999722 ) ;
#143 = VERTEX_POINT ( 'NONE', #307 ) ;
#144 = DIRECTION ( 'NONE',  ( -0.000000000000000000, -1.000000000000000000, -0.000000000000000000 ) ) ;
#145 = CARTESIAN_POINT ( 'NONE',  ( 0.000000000000000000, 0.000000000000000000, 0.000000000000000000 ) ) ;
#146 = COLOUR_RGB ( '',1.000000000000000000, 0.000000000000000000, 0.000000000000000000 ) ;
#147 = CIRCLE ( 'NONE', #60, 0.1562499999999999722 ) ;
#148 =( LENGTH_UNIT ( ) NAMED_UNIT ( * ) SI_UNIT ( $, .METRE. ) );
#149 =( CONVERSION_BASED_UNIT ( 'INCH', #180 ) LENGTH_UNIT ( ) NAMED_UNIT ( #125 ) );
#150 =( NAMED_UNIT ( * ) PLANE_ANGLE_UNIT ( ) SI_UNIT ( $, .RADIAN. ) );
#151 = MECHANICAL_DESIGN_GEOMETRIC_PRESENTATION_REPRESENTATION (  '', ( #187 ), #350 ) ;
#152 = CARTESIAN_POINT ( 'NONE',  ( 0.1562499999999999722, 0.1562500000000000278, 0.000000000000000000 ) ) ;
#153 =( GEOMETRIC_REPRESENTATION_CONTEXT ( 3 ) GLOBAL_UNCERTAINTY_ASSIGNED_CONTEXT ( ( #155 ) ) GLOBAL_UNIT_ASSIGNED_CONTEXT ( ( #69, #306, #199 ) ) REPRESENTATION_CONTEXT ( 'NONE', 'WORKASPACE' ) );
#154 =( NAMED_UNIT ( * ) SI_UNIT ( $, .STERADIAN. ) SOLID_ANGLE_UNIT ( ) );
#155 = UNCERTAINTY_MEASURE_WITH_UNIT (LENGTH_MEASURE( 1.000000000000000082E-05 ), #69, 'distance_accuracy_value', 'NONE');
#156 = CARTESIAN_POINT ( 'NONE',  ( 0.1562499999999999445, 2.000000000000000000, 1.913510623667736382E-17 ) ) ;
#157 = DIMENSIONAL_EXPONENTS ( 1.000000000000000000, 0.000000000000000000, 0.000000000000000000, 0.000000000000000000, 0.000000000000000000, 0.000000000000000000, 0.000000000000000000 ) ;
#158 = DIMENSIONAL_EXPONENTS ( 1.000000000000000000, 0.000000000000000000, 0.000000000000000000, 0.000000000000000000, 0.000000000000000000, 0.000000000000000000, 0.000000000000000000 ) ;
#159 =( NAMED_UNIT ( * ) PLANE_ANGLE_UNIT ( ) SI_UNIT ( $, .RADIAN. ) );
#160 = CARTESIAN_POINT ( 'NONE',  ( 0.000000000000000000, 0.1562500000000000278, -0.1562499999999999722 ) ) ;
#161 = ORIENTED_EDGE ( 'NONE', *, *, #2, .T. ) ;
#162 = DIRECTION ( 'NONE',  ( 1.000000000000000000, 0.000000000000000000, 0.000000000000000000 ) ) ;
#163 = SURFACE_STYLE_FILL_AREA ( #251 ) ;
#164 = CYLINDRICAL_SURFACE ( 'NONE', #365, 0.1562499999999999445 ) ;
#165 = CIRCLE ( 'NONE', #128, 0.1562500000000000000 ) ;
#166 = CARTESIAN_POINT ( 'NONE',  ( 1.913510623667738539E-17, 0.5000000000000000000, 0.1562499999999999445 ) ) ;
#167 = UNCERTAINTY_MEASURE_WITH_UNIT (LENGTH_MEASURE( 1.000000000000000082E-05 ), #149, 'distance_accuracy_value', 'NONE');
#168 = ORIENTED_EDGE ( 'NONE', *, *, #327, .F. ) ;
#169 =( NAMED_UNIT ( * ) SI_UNIT ( $, .STERADIAN. ) SOLID_ANGLE_UNIT ( ) );
#170 = PRODUCT_DEFINITION ( 'UNKNOWN', '', #117, #220 ) ;
#171 = FACE_OUTER_BOUND ( 'NONE', #57, .T. ) ;
#172 =( LENGTH_UNIT ( ) NAMED_UNIT ( * ) SI_UNIT ( $, .METRE. ) );
#173 =( NAMED_UNIT ( * ) PLANE_ANGLE_UNIT ( ) SI_UNIT ( $, .RADIAN. ) );
#174 = EDGE_LOOP ( 'NONE', ( #75, #44, #249, #229, #108 ) ) ;
#175 = LINE ( 'NONE', #308, #16 ) ;
#176 = AXIS2_PLACEMENT_3D ( 'NONE', #205, #91, #127 ) ;
#177 = CARTESIAN_POINT ( 'NONE',  ( 0.000000000000000000, 0.1562500000000000278, 0.000000000000000000 ) ) ;
#178 = CARTESIAN_POINT ( 'NONE',  ( 0.000000000000000000, 0.000000000000000000, 0.000000000000000000 ) ) ;
#179 = UNCERTAINTY_MEASURE_WITH_UNIT (LENGTH_MEASURE( 1.000000000000000082E-05 ), #219, 'distance_accuracy_value', 'NONE');
#180 = LENGTH_MEASURE_WITH_UNIT ( LENGTH_MEASURE( 0.02539999999999999897 ), #237 );
#181 = ADVANCED_FACE ( 'NONE', ( #171 ), #336, .T. ) ;
#182 = MECHANICAL_DESIGN_GEOMETRIC_PRESENTATION_REPRESENTATION (  '', ( #215 ), #153 ) ;
#183 = DIMENSIONAL_EXPONENTS ( 1.000000000000000000, 0.000000000000000000, 0.000000000000000000, 0.000000000000000000, 0.000000000000000000, 0.000000000000000000, 0.000000000000000000 ) ;
#184 = PRESENTATION_STYLE_ASSIGNMENT (( #68 ) ) ;
#185 = EDGE_CURVE ( 'NONE', #51, #143, #265, .T. ) ;
#186 = CARTESIAN_POINT ( 'NONE',  ( 0.000000000000000000, 0.5000000000000000000, -0.1562499999999999445 ) ) ;
#187 = STYLED_ITEM ( 'NONE', ( #343 ), #10 ) ;
#188 = MECHANICAL_DESIGN_GEOMETRIC_PRESENTATION_REPRESENTATION (  '', ( #345 ), #23 ) ;
#189 = VERTEX_POINT ( 'NONE', #166 ) ;
#190 = EDGE_LOOP ( 'NONE', ( #244, #209 ) ) ;
#191 = DIRECTION ( 'NONE',  ( 1.000000000000000000, 1.233461347801864019E-16, 0.000000000000000000 ) ) ;
#192 = DIRECTION ( 'NONE',  ( -1.233461347801864019E-16, 1.000000000000000000, -0.000000000000000000 ) ) ;
#193 = ORIENTED_EDGE ( 'NONE', *, *, #65, .F. ) ;
#194 = CARTESIAN_POINT ( 'NONE',  ( 0.000000000000000000, 0.5000000000000000000, 0.000000000000000000 ) ) ;
#195 = DIRECTION ( 'NONE',  ( 1.000000000000000000, 0.000000000000000000, -1.224646799147353207E-16 ) ) ;
#196 = ORIENTED_EDGE ( 'NONE', *, *, #344, .T. ) ;
#197 = CARTESIAN_POINT ( 'NONE',  ( -0.1562499999999995837, 2.000000000000000000, 0.000000000000000000 ) ) ;
#198 = ORIENTED_EDGE ( 'NONE', *, *, #228, .F. ) ;
#199 =( NAMED_UNIT ( * ) SI_UNIT ( $, .STERADIAN. ) SOLID_ANGLE_UNIT ( ) );
#200 = PRODUCT_CONTEXT ( 'NONE', #216, 'mechanical' ) ;
#201 =( GEOMETRIC_REPRESENTATION_CONTEXT ( 3 ) GLOBAL_UNCERTAINTY_ASSIGNED_CONTEXT ( ( #29 ) ) GLOBAL_UNIT_ASSIGNED_CONTEXT ( ( #76, #299, #43 ) ) REPRESENTATION_CONTEXT ( 'NONE', 'WORKASPACE' ) );
#202 = DIRECTION ( 'NONE',  ( -1.000000000000000000, 0.000000000000000000, 0.000000000000000000 ) ) ;
#203 = SURFACE_SIDE_STYLE ('',( #341 ) ) ;
#204 =( NAMED_UNIT ( * ) PLANE_ANGLE_UNIT ( ) SI_UNIT ( $, .RADIAN. ) );
#205 = CARTESIAN_POINT ( 'NONE',  ( -1.913510623667739463E-17, 0.1562500000000000000, 0.000000000000000000 ) ) ;
#206 =( LENGTH_UNIT ( ) NAMED_UNIT ( * ) SI_UNIT ( $, .METRE. ) );
#207 = PRESENTATION_LAYER_ASSIGNMENT (  '', '', ( #33 ) ) ;
#208 = CARTESIAN_POINT ( 'NONE',  ( -0.1562500000000000000, 0.1562500000000000278, 1.913510623667738847E-17 ) ) ;
#209 = ORIENTED_EDGE ( 'NONE', *, *, #293, .T. ) ;
#210 = SURFACE_SIDE_STYLE ('',( #1 ) ) ;
#211 =( CONVERSION_BASED_UNIT ( 'INCH', #294 ) LENGTH_UNIT ( ) NAMED_UNIT ( #158 ) );
#212 = PLANE ( 'NONE',  #122 ) ;
#213 = PRESENTATION_LAYER_ASSIGNMENT (  '', '', ( #345 ) ) ;
#214 = MANIFOLD_SOLID_BREP ( 'Revolve - Cutting Edge', #71 ) ;
#215 = STYLED_ITEM ( 'NONE', ( #15 ), #271 ) ;
#216 = APPLICATION_CONTEXT ( 'automotive_design' ) ;
#217 = FILL_AREA_STYLE_COLOUR ( '', #90 ) ;
#218 = CARTESIAN_POINT ( 'NONE',  ( 0.1562499999999998612, 2.000000000000000000, 1.913510623667736074E-17 ) ) ;
#219 =( CONVERSION_BASED_UNIT ( 'INCH', #101 ) LENGTH_UNIT ( ) NAMED_UNIT ( #372 ) );
#220 = PRODUCT_DEFINITION_CONTEXT ( 'detailed design', #66, 'design' ) ;
#221 = EDGE_LOOP ( 'NONE', ( #279, #161, #193, #272 ) ) ;
#222 = LINE ( 'NONE', #197, #233 ) ;
#223 = ORIENTED_EDGE ( 'NONE', *, *, #333, .F. ) ;
#224 = DIRECTION ( 'NONE',  ( -1.000000000000000000, 0.000000000000000000, 0.000000000000000000 ) ) ;
#225 = CIRCLE ( 'NONE', #274, 0.1562499999999999722 ) ;
#226 = DIRECTION ( 'NONE',  ( -1.000000000000000000, 0.000000000000000000, 0.000000000000000000 ) ) ;
#227 = CARTESIAN_POINT ( 'NONE',  ( -0.1562499999999993339, 0.5000000000000001110, 0.000000000000000000 ) ) ;
#228 = EDGE_CURVE ( 'NONE', #143, #18, #142, .T. ) ;
#229 = ORIENTED_EDGE ( 'NONE', *, *, #342, .F. ) ;
#230 =( CONVERSION_BASED_UNIT ( 'INCH', #289 ) LENGTH_UNIT ( ) NAMED_UNIT ( #129 ) );
#231 = UNCERTAINTY_MEASURE_WITH_UNIT (LENGTH_MEASURE( 1.000000000000000082E-05 ), #282, 'distance_accuracy_value', 'NONE');
#232 =( GEOMETRIC_REPRESENTATION_CONTEXT ( 3 ) GLOBAL_UNCERTAINTY_ASSIGNED_CONTEXT ( ( #292 ) ) GLOBAL_UNIT_ASSIGNED_CONTEXT ( ( #230, #262, #339 ) ) REPRESENTATION_CONTEXT ( 'NONE', 'WORKASPACE' ) );
#233 = VECTOR ( 'NONE', #358, 39.37007874015748143 ) ;
#234 = EDGE_CURVE ( 'NONE', #18, #77, #225, .T. ) ;
#235 = EDGE_CURVE ( 'NONE', #275, #81, #87, .T. ) ;
#236 = AXIS2_PLACEMENT_3D ( 'NONE', #53, #13, #226 ) ;
#237 =( LENGTH_UNIT ( ) NAMED_UNIT ( * ) SI_UNIT ( $, .METRE. ) );
#238 = AXIS2_PLACEMENT_3D ( 'NONE', #22, #135, #224 ) ;
#239 = PRODUCT ( '56227', '56227', '', ( #200 ) ) ;
#240 = FILL_AREA_STYLE ('',( #132 ) ) ;
#241 = AXIS2_PLACEMENT_3D ( 'NONE', #322, #19, #111 ) ;
#242 = DIRECTION ( 'NONE',  ( -1.233461347801864019E-16, 1.000000000000000000, -0.000000000000000000 ) ) ;
#243 = CARTESIAN_POINT ( 'NONE',  ( 1.224646799147353700E-16, 2.000000000000000000, 0.000000000000000000 ) ) ;
#244 = ORIENTED_EDGE ( 'NONE', *, *, #65, .T. ) ;
#245 = DIRECTION ( 'NONE',  ( 0.000000000000000000, 0.000000000000000000, 1.000000000000000000 ) ) ;
#246 = CYLINDRICAL_SURFACE ( 'NONE', #247, 0.1562499999999997224 ) ;
#247 = AXIS2_PLACEMENT_3D ( 'NONE', #330, #56, #26 ) ;
#248 = ADVANCED_FACE ( 'NONE', ( #371 ), #119, .T. ) ;
#249 = ORIENTED_EDGE ( 'NONE', *, *, #185, .F. ) ;
#250 = DIRECTION ( 'NONE',  ( -0.000000000000000000, -1.000000000000000000, -0.000000000000000000 ) ) ;
#251 = FILL_AREA_STYLE ('',( #217 ) ) ;
#252 = FACE_OUTER_BOUND ( 'NONE', #190, .T. ) ;
#253 = AXIS2_PLACEMENT_3D ( 'NONE', #97, #99, #268 ) ;
#254 = VERTEX_POINT ( 'NONE', #107 ) ;
#255 = DIRECTION ( 'NONE',  ( 0.000000000000000000, 0.000000000000000000, -1.000000000000000000 ) ) ;
#256 = DIRECTION ( 'NONE',  ( 0.000000000000000000, 0.000000000000000000, -1.000000000000000000 ) ) ;
#257 = FILL_AREA_STYLE ('',( #311 ) ) ;
#258 = COLOUR_RGB ( '',1.000000000000000000, 0.000000000000000000, 0.000000000000000000 ) ;
#259 = COLOUR_RGB ( '',1.000000000000000000, 0.000000000000000000, 0.000000000000000000 ) ;
#260 =( GEOMETRIC_REPRESENTATION_CONTEXT ( 3 ) GLOBAL_UNCERTAINTY_ASSIGNED_CONTEXT ( ( #304 ) ) GLOBAL_UNIT_ASSIGNED_CONTEXT ( ( #211, #159, #269 ) ) REPRESENTATION_CONTEXT ( 'NONE', 'WORKASPACE' ) );
#261 =( CONVERSION_BASED_UNIT ( 'INCH', #30 ) LENGTH_UNIT ( ) NAMED_UNIT ( #98 ) );
#262 =( NAMED_UNIT ( * ) PLANE_ANGLE_UNIT ( ) SI_UNIT ( $, .RADIAN. ) );
#263 = DIRECTION ( 'NONE',  ( 0.000000000000000000, 1.000000000000000000, 0.000000000000000000 ) ) ;
#264 =( NAMED_UNIT ( * ) SI_UNIT ( $, .STERADIAN. ) SOLID_ANGLE_UNIT ( ) );
#265 = CIRCLE ( 'NONE', #39, 0.1562499999999999722 ) ;
#266 = ADVANCED_FACE ( 'NONE', ( #270 ), #353, .T. ) ;
#267 = AXIS2_PLACEMENT_3D ( 'NONE', #368, #86, #202 ) ;
#268 = DIRECTION ( 'NONE',  ( -1.000000000000000000, -1.233461347801864019E-16, 0.000000000000000000 ) ) ;
#269 =( NAMED_UNIT ( * ) SI_UNIT ( $, .STERADIAN. ) SOLID_ANGLE_UNIT ( ) );
#270 = FACE_OUTER_BOUND ( 'NONE', #297, .T. ) ;
#271 = ADVANCED_FACE ( 'NONE', ( #100 ), #347, .T. ) ;
#272 = ORIENTED_EDGE ( 'NONE', *, *, #348, .F. ) ;
#273 = SURFACE_STYLE_USAGE ( .BOTH. , #298 ) ;
#274 = AXIS2_PLACEMENT_3D ( 'NONE', #177, #144, #256 ) ;
#275 = VERTEX_POINT ( 'NONE', #227 ) ;
#276 = DIRECTION ( 'NONE',  ( 1.000000000000000000, 0.000000000000000000, 0.000000000000000000 ) ) ;
#277 = AXIS2_PLACEMENT_3D ( 'NONE', #309, #47, #276 ) ;
#278 = CARTESIAN_POINT ( 'NONE',  ( 0.000000000000000000, 0.1562500000000000278, 0.000000000000000000 ) ) ;
#279 = ORIENTED_EDGE ( 'NONE', *, *, #235, .T. ) ;
#280 = APPLICATION_PROTOCOL_DEFINITION ( 'draft international standard', 'automotive_design', 1998, #216 ) ;
#281 = SURFACE_STYLE_FILL_AREA ( #72 ) ;
#282 =( CONVERSION_BASED_UNIT ( 'INCH', #52 ) LENGTH_UNIT ( ) NAMED_UNIT ( #183 ) );
#283 = LENGTH_MEASURE_WITH_UNIT ( LENGTH_MEASURE( 0.02539999999999999897 ), #362 );
#284 = COLOUR_RGB ( '',1.000000000000000000, 0.000000000000000000, 0.000000000000000000 ) ;
#285 = ORIENTED_EDGE ( 'NONE', *, *, #185, .T. ) ;
#286 = AXIS2_PLACEMENT_3D ( 'NONE', #36, #42, #162 ) ;
#287 =( NAMED_UNIT ( * ) PLANE_ANGLE_UNIT ( ) SI_UNIT ( $, .RADIAN. ) );
#288 = PRESENTATION_STYLE_ASSIGNMENT (( #27 ) ) ;
#289 = LENGTH_MEASURE_WITH_UNIT ( LENGTH_MEASURE( 0.02539999999999999897 ), #148 );
#290 = SURFACE_STYLE_USAGE ( .BOTH. , #203 ) ;
#291 = COLOUR_RGB ( '',1.000000000000000000, 0.000000000000000000, 0.000000000000000000 ) ;
#292 = UNCERTAINTY_MEASURE_WITH_UNIT (LENGTH_MEASURE( 1.000000000000000082E-05 ), #230, 'distance_accuracy_value', 'NONE');
#293 = EDGE_CURVE ( 'NONE', #41, #254, #49, .T. ) ;
#294 = LENGTH_MEASURE_WITH_UNIT ( LENGTH_MEASURE( 0.02539999999999999897 ), #38 );
#295 = DIRECTION ( 'NONE',  ( -1.000000000000000000, 0.000000000000000000, 0.000000000000000000 ) ) ;
#296 = STYLED_ITEM ( 'NONE', ( #288 ), #214 ) ;
#297 = EDGE_LOOP ( 'NONE', ( #349, #325, #55, #366 ) ) ;
#298 = SURFACE_SIDE_STYLE ('',( #74 ) ) ;
#299 =( NAMED_UNIT ( * ) PLANE_ANGLE_UNIT ( ) SI_UNIT ( $, .RADIAN. ) );
#300 = FACE_OUTER_BOUND ( 'NONE', #174, .T. ) ;
#301 = DIRECTION ( 'NONE',  ( 0.000000000000000000, 0.000000000000000000, -1.000000000000000000 ) ) ;
#302 = DIRECTION ( 'NONE',  ( 0.000000000000000000, 0.000000000000000000, -1.000000000000000000 ) ) ;
#303 = VECTOR ( 'NONE', #32, 39.37007874015748143 ) ;
#304 = UNCERTAINTY_MEASURE_WITH_UNIT (LENGTH_MEASURE( 1.000000000000000082E-05 ), #211, 'distance_accuracy_value', 'NONE');
#305 = ORIENTED_EDGE ( 'NONE', *, *, #31, .F. ) ;
#306 =( NAMED_UNIT ( * ) PLANE_ANGLE_UNIT ( ) SI_UNIT ( $, .RADIAN. ) );
#307 = CARTESIAN_POINT ( 'NONE',  ( 1.913510623667738847E-17, 0.1562500000000000278, 0.1562499999999999722 ) ) ;
#308 = CARTESIAN_POINT ( 'NONE',  ( 0.000000000000000000, 0.000000000000000000, -0.1562499999999999445 ) ) ;
#309 = CARTESIAN_POINT ( 'NONE',  ( 0.000000000000000000, 0.000000000000000000, 0.000000000000000000 ) ) ;
#310 = MECHANICAL_DESIGN_GEOMETRIC_PRESENTATION_REPRESENTATION (  '', ( #63 ), #316 ) ;
#311 = FILL_AREA_STYLE_COLOUR ( '', #291 ) ;
#312 = CIRCLE ( 'NONE', #176, 0.1562500000000000000 ) ;
#313 =( GEOMETRIC_REPRESENTATION_CONTEXT ( 3 ) GLOBAL_UNCERTAINTY_ASSIGNED_CONTEXT ( ( #231 ) ) GLOBAL_UNIT_ASSIGNED_CONTEXT ( ( #282, #287, #169 ) ) REPRESENTATION_CONTEXT ( 'NONE', 'WORKASPACE' ) );
#314 = PLANE ( 'NONE',  #253 ) ;
#315 = SURFACE_STYLE_USAGE ( .BOTH. , #317 ) ;
#316 =( GEOMETRIC_REPRESENTATION_CONTEXT ( 3 ) GLOBAL_UNCERTAINTY_ASSIGNED_CONTEXT ( ( #167 ) ) GLOBAL_UNIT_ASSIGNED_CONTEXT ( ( #149, #150, #154 ) ) REPRESENTATION_CONTEXT ( 'NONE', 'WORKASPACE' ) );
#317 = SURFACE_SIDE_STYLE ('',( #70 ) ) ;
#318 = LENGTH_MEASURE_WITH_UNIT ( LENGTH_MEASURE( 0.02539999999999999897 ), #6 );
#319 = DIRECTION ( 'NONE',  ( 0.000000000000000000, 0.000000000000000000, -1.000000000000000000 ) ) ;
#320 = AXIS2_PLACEMENT_3D ( 'NONE', #133, #245, #45 ) ;
#321 = AXIS2_PLACEMENT_3D ( 'NONE', #140, #84, #301 ) ;
#322 = CARTESIAN_POINT ( 'NONE',  ( 1.224646799147353700E-16, 2.000000000000000000, 0.000000000000000000 ) ) ;
#323 = DIRECTION ( 'NONE',  ( 0.000000000000000000, -0.000000000000000000, 1.000000000000000000 ) ) ;
#324 = SURFACE_SIDE_STYLE ('',( #281 ) ) ;
#325 = ORIENTED_EDGE ( 'NONE', *, *, #234, .T. ) ;
#326 = FACE_OUTER_BOUND ( 'NONE', #221, .T. ) ;
#327 = EDGE_CURVE ( 'NONE', #35, #189, #351, .T. ) ;
#328 = DIRECTION ( 'NONE',  ( 1.224646799147353207E-16, -0.000000000000000000, 1.000000000000000000 ) ) ;
#329 = VERTEX_POINT ( 'NONE', #113 ) ;
#330 = CARTESIAN_POINT ( 'NONE',  ( 1.224646799147353700E-16, 2.000000000000000000, 0.000000000000000000 ) ) ;
#331 =( NAMED_UNIT ( * ) SI_UNIT ( $, .STERADIAN. ) SOLID_ANGLE_UNIT ( ) );
#332 = CIRCLE ( 'NONE', #236, 0.1562499999999996392 ) ;
#333 = EDGE_CURVE ( 'NONE', #189, #35, #88, .T. ) ;
#334 = EDGE_LOOP ( 'NONE', ( #168, #223 ) ) ;
#335 = DIRECTION ( 'NONE',  ( -0.000000000000000000, -1.000000000000000000, -0.000000000000000000 ) ) ;
#336 = SPHERICAL_SURFACE ( 'NONE', #320, 0.1562500000000000000 ) ;
#337 = ORIENTED_EDGE ( 'NONE', *, *, #131, .T. ) ;
#338 = PRODUCT_RELATED_PRODUCT_CATEGORY ( 'part', '', ( #239 ) ) ;
#339 =( NAMED_UNIT ( * ) SI_UNIT ( $, .STERADIAN. ) SOLID_ANGLE_UNIT ( ) );
#340 = PRESENTATION_LAYER_ASSIGNMENT (  '', '', ( #94 ) ) ;
#341 = SURFACE_STYLE_FILL_AREA ( #118 ) ;
#342 = EDGE_CURVE ( 'NONE', #77, #51, #147, .T. ) ;
#343 = PRESENTATION_STYLE_ASSIGNMENT (( #290 ) ) ;
#344 = EDGE_CURVE ( 'NONE', #35, #77, #175, .T. ) ;
#345 = STYLED_ITEM ( 'NONE', ( #12 ), #92 ) ;
#346 = ADVANCED_BREP_SHAPE_REPRESENTATION ( '56227', ( #214, #92, #277 ), #313 ) ;
#347 = CYLINDRICAL_SURFACE ( 'NONE', #24, 0.1562499999999999445 ) ;
#348 = EDGE_CURVE ( 'NONE', #275, #254, #222, .T. ) ;
#349 = ORIENTED_EDGE ( 'NONE', *, *, #103, .F. ) ;
#350 =( GEOMETRIC_REPRESENTATION_CONTEXT ( 3 ) GLOBAL_UNCERTAINTY_ASSIGNED_CONTEXT ( ( #54 ) ) GLOBAL_UNIT_ASSIGNED_CONTEXT ( ( #261, #204, #264 ) ) REPRESENTATION_CONTEXT ( 'NONE', 'WORKASPACE' ) );
#351 = CIRCLE ( 'NONE', #355, 0.1562499999999999445 ) ;
#352 = FACE_OUTER_BOUND ( 'NONE', #73, .T. ) ;
#353 = SPHERICAL_SURFACE ( 'NONE', #286, 0.1562500000000000000 ) ;
#354 = CYLINDRICAL_SURFACE ( 'NONE', #241, 0.1562499999999997224 ) ;
#355 = AXIS2_PLACEMENT_3D ( 'NONE', #194, #250, #255 ) ;
#356 = CARTESIAN_POINT ( 'NONE',  ( 0.000000000000000000, 0.1562500000000000278, 0.000000000000000000 ) ) ;
#357 = LINE ( 'NONE', #218, #141 ) ;
#358 = DIRECTION ( 'NONE',  ( -1.233461347801864019E-16, 1.000000000000000000, -0.000000000000000000 ) ) ;
#359 = PRESENTATION_STYLE_ASSIGNMENT (( #21 ) ) ;
#360 = FILL_AREA_STYLE_COLOUR ( '', #284 ) ;
#361 = DIRECTION ( 'NONE',  ( 0.000000000000000000, 0.000000000000000000, -1.000000000000000000 ) ) ;
#362 =( LENGTH_UNIT ( ) NAMED_UNIT ( * ) SI_UNIT ( $, .METRE. ) );
#363 = ORIENTED_EDGE ( 'NONE', *, *, #333, .T. ) ;
#364 = FACE_OUTER_BOUND ( 'NONE', #367, .T. ) ;
#365 = AXIS2_PLACEMENT_3D ( 'NONE', #145, #4, #319 ) ;
#366 = ORIENTED_EDGE ( 'NONE', *, *, #46, .T. ) ;
#367 = EDGE_LOOP ( 'NONE', ( #112, #337, #5, #95 ) ) ;
#368 = CARTESIAN_POINT ( 'NONE',  ( 3.074838820850149482E-16, 0.5000000000000001110, 0.000000000000000000 ) ) ;
#369 = AXIS2_PLACEMENT_3D ( 'NONE', #9, #263, #323 ) ;
#370 = ADVANCED_FACE ( 'NONE', ( #326 ), #246, .T. ) ;
#371 = FACE_OUTER_BOUND ( 'NONE', #334, .T. ) ;
#372 = DIMENSIONAL_EXPONENTS ( 1.000000000000000000, 0.000000000000000000, 0.000000000000000000, 0.000000000000000000, 0.000000000000000000, 0.000000000000000000, 0.000000000000000000 ) ;
#373 = PRESENTATION_LAYER_ASSIGNMENT (  '', '', ( #296 ) ) ;
ENDSEC;
END-ISO-10303-21;
