ISO-10303-21;
HEADER;
FILE_DESCRIPTION (( 'STEP AP214' ),
    '1' );
FILE_NAME ('Micro_SEM-328-02X.STEP',
    '2021-09-02T02:55:09',
    ( '' ),
    ( '' ),
    'SwSTEP 2.0',
    'SolidWorks 2020',
    '' );
FILE_SCHEMA (( 'AUTOMOTIVE_DESIGN' ));
ENDSEC;

DATA;
#1 = EDGE_LOOP ( 'NONE', ( #128, #53, #145, #168 ) ) ;
#2 = CYLINDRICAL_SURFACE ( 'NONE', #297, 0.1638859499999999469 ) ;
#3 = DIRECTION ( 'NONE',  ( -0.1736481776669311639, 2.126576849575783008E-17, 0.9848077530122080203 ) ) ;
#4 = EDGE_LOOP ( 'NONE', ( #63, #98 ) ) ;
#5 = DIRECTION ( 'NONE',  ( -0.0000000000000000000, -0.0000000000000000000, -1.000000000000000000 ) ) ;
#6 = ORIENTED_EDGE ( 'NONE', *, *, #134, .F. ) ;
#7 =( CONVERSION_BASED_UNIT ( 'INCH', #242 ) LENGTH_UNIT ( ) NAMED_UNIT ( #299 ) );
#8 = DIRECTION ( 'NONE',  ( -1.224646799147353207E-16, -0.0000000000000000000, -1.000000000000000000 ) ) ;
#9 = CARTESIAN_POINT ( 'NONE',  ( -0.1875000000000000278, 0.0000000000000000000, 2.000000000000000000 ) ) ;
#10 = UNCERTAINTY_MEASURE_WITH_UNIT (LENGTH_MEASURE( 1.000000000000000082E-05 ), #7, 'distance_accuracy_value', 'NONE');
#11 = DIRECTION ( 'NONE',  ( 0.7071067811865386910, 8.659560562354824390E-17, -0.7071067811865563435 ) ) ;
#12 = DIRECTION ( 'NONE',  ( -0.0000000000000000000, -0.0000000000000000000, -1.000000000000000000 ) ) ;
#13 =( CONVERSION_BASED_UNIT ( 'INCH', #158 ) LENGTH_UNIT ( ) NAMED_UNIT ( #169 ) );
#14 = AXIS2_PLACEMENT_3D ( 'NONE', #85, #12, #39 ) ;
#15 = CARTESIAN_POINT ( 'NONE',  ( 6.123233995736766036E-17, 0.0000000000000000000, 0.5000000000000000000 ) ) ;
#16 = ADVANCED_FACE ( 'NONE', ( #165 ), #81, .T. ) ;
#17 = ORIENTED_EDGE ( 'NONE', *, *, #232, .T. ) ;
#18 = DIMENSIONAL_EXPONENTS ( 1.000000000000000000, 0.0000000000000000000, 0.0000000000000000000, 0.0000000000000000000, 0.0000000000000000000, 0.0000000000000000000, 0.0000000000000000000 ) ;
#19 = CIRCLE ( 'NONE', #196, 0.1725000000000001532 ) ;
#20 = EDGE_CURVE ( 'NONE', #201, #221, #252, .T. ) ;
#21 =( NAMED_UNIT ( * ) SI_UNIT ( $, .STERADIAN. ) SOLID_ANGLE_UNIT ( ) );
#22 = PRODUCT_RELATED_PRODUCT_CATEGORY ( 'part', '', ( #211 ) ) ;
#23 = ORIENTED_EDGE ( 'NONE', *, *, #205, .T. ) ;
#24 = APPLICATION_CONTEXT ( 'automotive_design' ) ;
#25 = VERTEX_POINT ( 'NONE', #30 ) ;
#26 = AXIS2_PLACEMENT_3D ( 'NONE', #186, #254, #276 ) ;
#27 = CARTESIAN_POINT ( 'NONE',  ( 0.1638859499999999469, 2.007024040927231455E-17, -2.007024040927231455E-17 ) ) ;
#28 = ORIENTED_EDGE ( 'NONE', *, *, #170, .F. ) ;
#29 = FACE_OUTER_BOUND ( 'NONE', #50, .T. ) ;
#30 = CARTESIAN_POINT ( 'NONE',  ( -0.1638859499999998914, 2.151618394664259590E-17, 0.5000000000000000000 ) ) ;
#31 = ORIENTED_EDGE ( 'NONE', *, *, #141, .F. ) ;
#32 = ADVANCED_FACE ( 'NONE', ( #220 ), #2, .T. ) ;
#33 = FILL_AREA_STYLE ('',( #80 ) ) ;
#34 = DIRECTION ( 'NONE',  ( 0.0000000000000000000, 0.0000000000000000000, 1.000000000000000000 ) ) ;
#35 = CARTESIAN_POINT ( 'NONE',  ( 0.1725000000000001532, 2.112515728529185460E-17, 2.000000000000000000 ) ) ;
#36 = CARTESIAN_POINT ( 'NONE',  ( 0.1638859500000000302, 0.0000000000000000000, 0.5000000000000000000 ) ) ;
#37 = AXIS2_PLACEMENT_3D ( 'NONE', #298, #142, #278 ) ;
#38 = EDGE_LOOP ( 'NONE', ( #283, #238 ) ) ;
#39 = DIRECTION ( 'NONE',  ( -1.000000000000000000, 0.0000000000000000000, 0.0000000000000000000 ) ) ;
#40 = DIRECTION ( 'NONE',  ( -1.224646799147353207E-16, -0.0000000000000000000, -1.000000000000000000 ) ) ;
#41 = AXIS2_PLACEMENT_3D ( 'NONE', #117, #222, #284 ) ;
#42 = AXIS2_PLACEMENT_3D ( 'NONE', #268, #289, #248 ) ;
#43 = ORIENTED_EDGE ( 'NONE', *, *, #292, .T. ) ;
#44 = CARTESIAN_POINT ( 'NONE',  ( 0.0000000000000000000, 0.0000000000000000000, 2.000000000000000000 ) ) ;
#45 =( GEOMETRIC_REPRESENTATION_CONTEXT ( 3 ) GLOBAL_UNCERTAINTY_ASSIGNED_CONTEXT ( ( #10 ) ) GLOBAL_UNIT_ASSIGNED_CONTEXT ( ( #7, #83, #21 ) ) REPRESENTATION_CONTEXT ( 'NONE', 'WORKASPACE' ) );
#46 = EDGE_CURVE ( 'NONE', #118, #176, #247, .T. ) ;
#47 = VECTOR ( 'NONE', #64, 39.37007874015748143 ) ;
#48 = ORIENTED_EDGE ( 'NONE', *, *, #134, .T. ) ;
#49 = LINE ( 'NONE', #198, #273 ) ;
#50 = EDGE_LOOP ( 'NONE', ( #197, #187, #59, #77 ) ) ;
#51 = DIRECTION ( 'NONE',  ( -1.000000000000000000, 0.0000000000000000000, 1.224646799147353207E-16 ) ) ;
#52 = AXIS2_PLACEMENT_3D ( 'NONE', #133, #86, #204 ) ;
#53 = ORIENTED_EDGE ( 'NONE', *, *, #46, .F. ) ;
#54 = FACE_OUTER_BOUND ( 'NONE', #72, .T. ) ;
#55 = DIRECTION ( 'NONE',  ( 1.000000000000000000, 0.0000000000000000000, -0.0000000000000000000 ) ) ;
#56 = STYLED_ITEM ( 'NONE', ( #123 ), #97 ) ;
#57 = CIRCLE ( 'NONE', #82, 0.1875000000000000278 ) ;
#58 = FACE_OUTER_BOUND ( 'NONE', #38, .T. ) ;
#59 = ORIENTED_EDGE ( 'NONE', *, *, #108, .T. ) ;
#60 = DIRECTION ( 'NONE',  ( 1.000000000000000000, 0.0000000000000000000, 0.0000000000000000000 ) ) ;
#61 = DIRECTION ( 'NONE',  ( 0.0000000000000000000, 0.0000000000000000000, -1.000000000000000000 ) ) ;
#62 = DIRECTION ( 'NONE',  ( 0.1736481776669313581, 0.0000000000000000000, 0.9848077530122077983 ) ) ;
#63 = ORIENTED_EDGE ( 'NONE', *, *, #46, .T. ) ;
#64 = DIRECTION ( 'NONE',  ( -0.0000000000000000000, -0.0000000000000000000, -1.000000000000000000 ) ) ;
#65 = AXIS2_PLACEMENT_3D ( 'NONE', #15, #206, #227 ) ;
#66 = SURFACE_SIDE_STYLE ('',( #139 ) ) ;
#67 = DIRECTION ( 'NONE',  ( -1.000000000000000000, 0.0000000000000000000, 0.0000000000000000000 ) ) ;
#68 = PRODUCT_CONTEXT ( 'NONE', #179, 'mechanical' ) ;
#69 = EDGE_CURVE ( 'NONE', #221, #201, #279, .T. ) ;
#70 = FILL_AREA_STYLE_COLOUR ( '', #173 ) ;
#71 = CARTESIAN_POINT ( 'NONE',  ( 0.0000000000000000000, 0.0000000000000000000, 2.000000000000000000 ) ) ;
#72 = EDGE_LOOP ( 'NONE', ( #31, #244, #43, #249 ) ) ;
#73 = AXIS2_PLACEMENT_3D ( 'NONE', #285, #78, #178 ) ;
#74 = ORIENTED_EDGE ( 'NONE', *, *, #108, .F. ) ;
#75 = MECHANICAL_DESIGN_GEOMETRIC_PRESENTATION_REPRESENTATION (  '', ( #193 ), #109 ) ;
#76 = DIRECTION ( 'NONE',  ( 1.000000000000000000, 0.0000000000000000000, 0.0000000000000000000 ) ) ;
#77 = ORIENTED_EDGE ( 'NONE', *, *, #212, .F. ) ;
#78 = DIRECTION ( 'NONE',  ( 1.224646799147353207E-16, 0.0000000000000000000, 1.000000000000000000 ) ) ;
#79 = PRODUCT_DEFINITION ( 'UNKNOWN', '', #167, #100 ) ;
#80 = FILL_AREA_STYLE_COLOUR ( '', #225 ) ;
#81 = CONICAL_SURFACE ( 'NONE', #267, 0.1725000000000001532, 0.7853981633974357335 ) ;
#82 = AXIS2_PLACEMENT_3D ( 'NONE', #274, #183, #90 ) ;
#83 =( NAMED_UNIT ( * ) PLANE_ANGLE_UNIT ( ) SI_UNIT ( $, .RADIAN. ) );
#84 = DIRECTION ( 'NONE',  ( 0.0000000000000000000, 0.0000000000000000000, -1.000000000000000000 ) ) ;
#85 = CARTESIAN_POINT ( 'NONE',  ( 0.0000000000000000000, 0.0000000000000000000, 2.000000000000000000 ) ) ;
#86 = DIRECTION ( 'NONE',  ( -1.224646799147353207E-16, -0.0000000000000000000, -1.000000000000000000 ) ) ;
#87 = VECTOR ( 'NONE', #3, 39.37007874015747433 ) ;
#88 = CARTESIAN_POINT ( 'NONE',  ( 7.763304654873116999E-17, 0.0000000000000000000, 0.6339219324525432464 ) ) ;
#89 = ADVANCED_FACE ( 'NONE', ( #188 ), #171, .T. ) ;
#90 = DIRECTION ( 'NONE',  ( 1.000000000000000000, 0.0000000000000000000, 0.0000000000000000000 ) ) ;
#91 = DIRECTION ( 'NONE',  ( 1.000000000000000000, 0.0000000000000000000, 0.0000000000000000000 ) ) ;
#92 = ADVANCED_FACE ( 'NONE', ( #29 ), #239, .T. ) ;
#93 = SHAPE_DEFINITION_REPRESENTATION ( #231, #191 ) ;
#94 = VERTEX_POINT ( 'NONE', #263 ) ;
#95 = ORIENTED_EDGE ( 'NONE', *, *, #205, .F. ) ;
#96 =( CONVERSION_BASED_UNIT ( 'INCH', #185 ) LENGTH_UNIT ( ) NAMED_UNIT ( #18 ) );
#97 = MANIFOLD_SOLID_BREP ( 'Cut-Revolve1', #149 ) ;
#98 = ORIENTED_EDGE ( 'NONE', *, *, #122, .T. ) ;
#99 = PRESENTATION_LAYER_ASSIGNMENT (  '', '', ( #193 ) ) ;
#100 = PRODUCT_DEFINITION_CONTEXT ( 'detailed design', #24, 'design' ) ;
#101 = CARTESIAN_POINT ( 'NONE',  ( 0.0000000000000000000, 0.0000000000000000000, 1.984999999999999654 ) ) ;
#102 = UNCERTAINTY_MEASURE_WITH_UNIT (LENGTH_MEASURE( 1.000000000000000082E-05 ), #96, 'distance_accuracy_value', 'NONE');
#103 = ORIENTED_EDGE ( 'NONE', *, *, #292, .F. ) ;
#104 = ADVANCED_FACE ( 'NONE', ( #126 ), #177, .T. ) ;
#105 = DIRECTION ( 'NONE',  ( 1.000000000000000000, 0.0000000000000000000, 0.0000000000000000000 ) ) ;
#106 = CARTESIAN_POINT ( 'NONE',  ( -0.1725000000000001532, 0.0000000000000000000, 2.000000000000000000 ) ) ;
#107 = SURFACE_STYLE_USAGE ( .BOTH. , #235 ) ;
#108 = EDGE_CURVE ( 'NONE', #194, #217, #266, .T. ) ;
#109 =( GEOMETRIC_REPRESENTATION_CONTEXT ( 3 ) GLOBAL_UNCERTAINTY_ASSIGNED_CONTEXT ( ( #102 ) ) GLOBAL_UNIT_ASSIGNED_CONTEXT ( ( #96, #257, #166 ) ) REPRESENTATION_CONTEXT ( 'NONE', 'WORKASPACE' ) );
#110 = CYLINDRICAL_SURFACE ( 'NONE', #14, 0.1875000000000000278 ) ;
#111 =( LENGTH_UNIT ( ) NAMED_UNIT ( * ) SI_UNIT ( $, .METRE. ) );
#112 = CARTESIAN_POINT ( 'NONE',  ( -0.1638859499999999469, 0.0000000000000000000, 2.007024040927231455E-17 ) ) ;
#113 = DIRECTION ( 'NONE',  ( -1.000000000000000000, 0.0000000000000000000, 1.224646799147353454E-16 ) ) ;
#114 = DIRECTION ( 'NONE',  ( 0.0000000000000000000, 0.0000000000000000000, -1.000000000000000000 ) ) ;
#115 =( GEOMETRIC_REPRESENTATION_CONTEXT ( 3 ) GLOBAL_UNCERTAINTY_ASSIGNED_CONTEXT ( ( #265 ) ) GLOBAL_UNIT_ASSIGNED_CONTEXT ( ( #13, #291, #294 ) ) REPRESENTATION_CONTEXT ( 'NONE', 'WORKASPACE' ) );
#116 = ORIENTED_EDGE ( 'NONE', *, *, #209, .T. ) ;
#117 = CARTESIAN_POINT ( 'NONE',  ( 0.0000000000000000000, 0.0000000000000000000, 2.000000000000000000 ) ) ;
#118 = VERTEX_POINT ( 'NONE', #106 ) ;
#119 = EDGE_LOOP ( 'NONE', ( #23, #180, #163, #74 ) ) ;
#120 = VECTOR ( 'NONE', #11, 39.37007874015748143 ) ;
#121 =( LENGTH_UNIT ( ) NAMED_UNIT ( * ) SI_UNIT ( $, .METRE. ) );
#122 = EDGE_CURVE ( 'NONE', #176, #118, #19, .T. ) ;
#123 = PRESENTATION_STYLE_ASSIGNMENT (( #107 ) ) ;
#124 = VERTEX_POINT ( 'NONE', #258 ) ;
#125 = CIRCLE ( 'NONE', #293, 0.1875000000000000278 ) ;
#126 = FACE_OUTER_BOUND ( 'NONE', #4, .T. ) ;
#127 = CARTESIAN_POINT ( 'NONE',  ( 0.0000000000000000000, 0.0000000000000000000, 0.0000000000000000000 ) ) ;
#128 = ORIENTED_EDGE ( 'NONE', *, *, #241, .F. ) ;
#129 = CARTESIAN_POINT ( 'NONE',  ( -0.1638859500000000025, 0.0000000000000000000, 4.014048081854463527E-17 ) ) ;
#130 = EDGE_CURVE ( 'NONE', #118, #194, #49, .T. ) ;
#131 = ORIENTED_EDGE ( 'NONE', *, *, #122, .F. ) ;
#132 = DIRECTION ( 'NONE',  ( 1.000000000000000000, 0.0000000000000000000, -0.0000000000000000000 ) ) ;
#133 = CARTESIAN_POINT ( 'NONE',  ( 6.123233995736766036E-17, 0.0000000000000000000, 0.5000000000000000000 ) ) ;
#134 = EDGE_CURVE ( 'NONE', #124, #221, #237, .T. ) ;
#135 = AXIS2_PLACEMENT_3D ( 'NONE', #162, #136, #51 ) ;
#136 = DIRECTION ( 'NONE',  ( -1.224646799147353207E-16, -0.0000000000000000000, -1.000000000000000000 ) ) ;
#137 = CARTESIAN_POINT ( 'NONE',  ( -0.1875000000000000278, 0.0000000000000000000, 1.984999999999999654 ) ) ;
#138 = CONICAL_SURFACE ( 'NONE', #73, 0.1638859499999999469, 0.1745329251994338637 ) ;
#139 = SURFACE_STYLE_FILL_AREA ( #213 ) ;
#140 = DIRECTION ( 'NONE',  ( 0.0000000000000000000, 0.0000000000000000000, 1.000000000000000000 ) ) ;
#141 = EDGE_CURVE ( 'NONE', #25, #217, #200, .T. ) ;
#142 = DIRECTION ( 'NONE',  ( 0.0000000000000000000, 0.0000000000000000000, 1.000000000000000000 ) ) ;
#143 = EDGE_CURVE ( 'NONE', #175, #194, #125, .T. ) ;
#144 = PRESENTATION_STYLE_ASSIGNMENT (( #214 ) ) ;
#145 = ORIENTED_EDGE ( 'NONE', *, *, #130, .T. ) ;
#146 = CIRCLE ( 'NONE', #203, 0.1875000000000000278 ) ;
#147 = DIRECTION ( 'NONE',  ( -0.7071067811865386910, 0.0000000000000000000, -0.7071067811865563435 ) ) ;
#148 = ADVANCED_FACE ( 'NONE', ( #54 ), #138, .T. ) ;
#149 = CLOSED_SHELL ( 'NONE', ( #32, #189, #16, #269, #92, #104, #272, #148, #89, #154 ) ) ;
#150 = DIRECTION ( 'NONE',  ( -1.224646799147353207E-16, -0.0000000000000000000, -1.000000000000000000 ) ) ;
#151 = ORIENTED_EDGE ( 'NONE', *, *, #241, .T. ) ;
#152 = CARTESIAN_POINT ( 'NONE',  ( 0.0000000000000000000, 0.0000000000000000000, 0.0000000000000000000 ) ) ;
#153 = CIRCLE ( 'NONE', #52, 0.1638859499999999469 ) ;
#154 = ADVANCED_FACE ( 'NONE', ( #58 ), #264, .F. ) ;
#155 = DIRECTION ( 'NONE',  ( -1.224646799147353207E-16, -0.0000000000000000000, -1.000000000000000000 ) ) ;
#156 = EDGE_LOOP ( 'NONE', ( #259, #236, #116, #103 ) ) ;
#157 = DIRECTION ( 'NONE',  ( 1.000000000000000000, 0.0000000000000000000, 0.0000000000000000000 ) ) ;
#158 = LENGTH_MEASURE_WITH_UNIT ( LENGTH_MEASURE( 0.02539999999999999897 ), #111 );
#159 = ORIENTED_EDGE ( 'NONE', *, *, #130, .F. ) ;
#160 = EDGE_CURVE ( 'NONE', #25, #124, #253, .T. ) ;
#161 = CARTESIAN_POINT ( 'NONE',  ( -0.1874999999999999445, 0.0000000000000000000, 0.6339219324525432464 ) ) ;
#162 = CARTESIAN_POINT ( 'NONE',  ( 2.457895567533320651E-33, 0.0000000000000000000, 2.007024040927231763E-17 ) ) ;
#163 = ORIENTED_EDGE ( 'NONE', *, *, #209, .F. ) ;
#164 = AXIS2_PLACEMENT_3D ( 'NONE', #184, #275, #91 ) ;
#165 = FACE_OUTER_BOUND ( 'NONE', #190, .T. ) ;
#166 =( NAMED_UNIT ( * ) SI_UNIT ( $, .STERADIAN. ) SOLID_ANGLE_UNIT ( ) );
#167 = PRODUCT_DEFINITION_FORMATION_WITH_SPECIFIED_SOURCE ( 'ANY', '', #211, .NOT_KNOWN. ) ;
#168 = ORIENTED_EDGE ( 'NONE', *, *, #143, .F. ) ;
#169 = DIMENSIONAL_EXPONENTS ( 1.000000000000000000, 0.0000000000000000000, 0.0000000000000000000, 0.0000000000000000000, 0.0000000000000000000, 0.0000000000000000000, 0.0000000000000000000 ) ;
#170 = EDGE_CURVE ( 'NONE', #25, #201, #230, .T. ) ;
#171 = CYLINDRICAL_SURFACE ( 'NONE', #192, 0.1638859499999999469 ) ;
#172 = APPLICATION_PROTOCOL_DEFINITION ( 'draft international standard', 'automotive_design', 1998, #179 ) ;
#173 = COLOUR_RGB ( '',0.7921568627450980005, 0.8196078431372548767, 0.9333333333333333481 ) ;
#174 = DIRECTION ( 'NONE',  ( 0.0000000000000000000, 0.0000000000000000000, 1.000000000000000000 ) ) ;
#175 = VERTEX_POINT ( 'NONE', #245 ) ;
#176 = VERTEX_POINT ( 'NONE', #251 ) ;
#177 = PLANE ( 'NONE',  #282 ) ;
#178 = DIRECTION ( 'NONE',  ( 1.000000000000000000, 0.0000000000000000000, 0.0000000000000000000 ) ) ;
#179 = APPLICATION_CONTEXT ( 'automotive_design' ) ;
#180 = ORIENTED_EDGE ( 'NONE', *, *, #199, .T. ) ;
#181 = SURFACE_STYLE_FILL_AREA ( #33 ) ;
#182 = FACE_OUTER_BOUND ( 'NONE', #1, .T. ) ;
#183 = DIRECTION ( 'NONE',  ( -1.224646799147353207E-16, -0.0000000000000000000, -1.000000000000000000 ) ) ;
#184 = CARTESIAN_POINT ( 'NONE',  ( 0.0000000000000000000, 0.0000000000000000000, 2.000000000000000000 ) ) ;
#185 = LENGTH_MEASURE_WITH_UNIT ( LENGTH_MEASURE( 0.02539999999999999897 ), #296 );
#186 = CARTESIAN_POINT ( 'NONE',  ( 2.457895567533320651E-33, 0.0000000000000000000, 2.007024040927231763E-17 ) ) ;
#187 = ORIENTED_EDGE ( 'NONE', *, *, #143, .T. ) ;
#188 = FACE_OUTER_BOUND ( 'NONE', #288, .T. ) ;
#189 = ADVANCED_FACE ( 'NONE', ( #210 ), #262, .T. ) ;
#190 = EDGE_LOOP ( 'NONE', ( #131, #151, #95, #159 ) ) ;
#191 = ADVANCED_BREP_SHAPE_REPRESENTATION ( 'Micro_SEM-328-02X', ( #97, #37 ), #115 ) ;
#192 = AXIS2_PLACEMENT_3D ( 'NONE', #152, #150, #223 ) ;
#193 = STYLED_ITEM ( 'NONE', ( #144 ), #191 ) ;
#194 = VERTEX_POINT ( 'NONE', #137 ) ;
#195 = DIRECTION ( 'NONE',  ( 0.0000000000000000000, 0.0000000000000000000, -1.000000000000000000 ) ) ;
#196 = AXIS2_PLACEMENT_3D ( 'NONE', #71, #174, #105 ) ;
#197 = ORIENTED_EDGE ( 'NONE', *, *, #199, .F. ) ;
#198 = CARTESIAN_POINT ( 'NONE',  ( -0.1725000000000001532, 0.0000000000000000000, 2.000000000000000000 ) ) ;
#199 = EDGE_CURVE ( 'NONE', #175, #94, #271, .T. ) ;
#200 = LINE ( 'NONE', #286, #87 ) ;
#201 = VERTEX_POINT ( 'NONE', #129 ) ;
#202 = MECHANICAL_DESIGN_GEOMETRIC_PRESENTATION_REPRESENTATION (  '', ( #56 ), #45 ) ;
#203 = AXIS2_PLACEMENT_3D ( 'NONE', #88, #207, #60 ) ;
#204 = DIRECTION ( 'NONE',  ( -1.000000000000000000, 0.0000000000000000000, 0.0000000000000000000 ) ) ;
#205 = EDGE_CURVE ( 'NONE', #194, #175, #216, .T. ) ;
#206 = DIRECTION ( 'NONE',  ( 1.224646799147353207E-16, 0.0000000000000000000, 1.000000000000000000 ) ) ;
#207 = DIRECTION ( 'NONE',  ( -1.224646799147353207E-16, -0.0000000000000000000, -1.000000000000000000 ) ) ;
#208 = AXIS2_PLACEMENT_3D ( 'NONE', #243, #34, #132 ) ;
#209 = EDGE_CURVE ( 'NONE', #217, #94, #57, .T. ) ;
#210 = FACE_OUTER_BOUND ( 'NONE', #156, .T. ) ;
#211 = PRODUCT ( 'Micro_SEM-328-02X', 'Micro_SEM-328-02X', '', ( #68 ) ) ;
#212 = EDGE_CURVE ( 'NONE', #94, #217, #146, .T. ) ;
#213 = FILL_AREA_STYLE ('',( #70 ) ) ;
#214 = SURFACE_STYLE_USAGE ( .BOTH. , #66 ) ;
#215 = APPLICATION_PROTOCOL_DEFINITION ( 'draft international standard', 'automotive_design', 1998, #24 ) ;
#216 = CIRCLE ( 'NONE', #280, 0.1875000000000000278 ) ;
#217 = VERTEX_POINT ( 'NONE', #161 ) ;
#218 = ORIENTED_EDGE ( 'NONE', *, *, #160, .T. ) ;
#219 = VECTOR ( 'NONE', #155, 39.37007874015748143 ) ;
#220 = FACE_OUTER_BOUND ( 'NONE', #240, .T. ) ;
#221 = VERTEX_POINT ( 'NONE', #224 ) ;
#222 = DIRECTION ( 'NONE',  ( -0.0000000000000000000, -0.0000000000000000000, -1.000000000000000000 ) ) ;
#223 = DIRECTION ( 'NONE',  ( -1.000000000000000000, 0.0000000000000000000, 1.224646799147353454E-16 ) ) ;
#224 = CARTESIAN_POINT ( 'NONE',  ( 0.1638859500000000025, 2.007024040927231763E-17, 3.791200677927629740E-33 ) ) ;
#225 = COLOUR_RGB ( '',0.7921568627450980005, 0.8196078431372548767, 0.9333333333333333481 ) ;
#226 = VECTOR ( 'NONE', #40, 39.37007874015748143 ) ;
#227 = DIRECTION ( 'NONE',  ( 1.000000000000000000, 0.0000000000000000000, 0.0000000000000000000 ) ) ;
#228 = LINE ( 'NONE', #35, #120 ) ;
#229 = DIRECTION ( 'NONE',  ( -1.000000000000000000, 0.0000000000000000000, 0.0000000000000000000 ) ) ;
#230 = LINE ( 'NONE', #112, #226 ) ;
#231 = PRODUCT_DEFINITION_SHAPE ( 'NONE', 'NONE',  #79 ) ;
#232 = EDGE_CURVE ( 'NONE', #124, #25, #153, .T. ) ;
#233 = PRESENTATION_LAYER_ASSIGNMENT (  '', '', ( #56 ) ) ;
#234 = VECTOR ( 'NONE', #62, 39.37007874015748143 ) ;
#235 = SURFACE_SIDE_STYLE ('',( #181 ) ) ;
#236 = ORIENTED_EDGE ( 'NONE', *, *, #141, .T. ) ;
#237 = LINE ( 'NONE', #27, #219 ) ;
#238 = ORIENTED_EDGE ( 'NONE', *, *, #69, .T. ) ;
#239 = CYLINDRICAL_SURFACE ( 'NONE', #41, 0.1875000000000000278 ) ;
#240 = EDGE_LOOP ( 'NONE', ( #218, #48, #255, #28 ) ) ;
#241 = EDGE_CURVE ( 'NONE', #176, #175, #228, .T. ) ;
#242 = LENGTH_MEASURE_WITH_UNIT ( LENGTH_MEASURE( 0.02539999999999999897 ), #121 );
#243 = CARTESIAN_POINT ( 'NONE',  ( 0.0000000000000000000, 0.0000000000000000000, 0.0000000000000000000 ) ) ;
#244 = ORIENTED_EDGE ( 'NONE', *, *, #232, .F. ) ;
#245 = CARTESIAN_POINT ( 'NONE',  ( 0.1875000000000000278, 2.296212748401287726E-17, 1.984999999999999654 ) ) ;
#246 = LINE ( 'NONE', #36, #234 ) ;
#247 = CIRCLE ( 'NONE', #164, 0.1725000000000001532 ) ;
#248 = DIRECTION ( 'NONE',  ( -1.000000000000000000, 0.0000000000000000000, 0.0000000000000000000 ) ) ;
#249 = ORIENTED_EDGE ( 'NONE', *, *, #212, .T. ) ;
#250 = FACE_OUTER_BOUND ( 'NONE', #119, .T. ) ;
#251 = CARTESIAN_POINT ( 'NONE',  ( 0.1725000000000001532, 2.204364238465236130E-17, 2.000000000000000000 ) ) ;
#252 = CIRCLE ( 'NONE', #135, 0.1638859500000000025 ) ;
#253 = CIRCLE ( 'NONE', #42, 0.1638859499999999469 ) ;
#254 = DIRECTION ( 'NONE',  ( -1.224646799147353207E-16, -0.0000000000000000000, -1.000000000000000000 ) ) ;
#255 = ORIENTED_EDGE ( 'NONE', *, *, #20, .F. ) ;
#256 = CARTESIAN_POINT ( 'NONE',  ( 0.0000000000000000000, 0.0000000000000000000, 2.000000000000000000 ) ) ;
#257 =( NAMED_UNIT ( * ) PLANE_ANGLE_UNIT ( ) SI_UNIT ( $, .RADIAN. ) );
#258 = CARTESIAN_POINT ( 'NONE',  ( 0.1638859500000000302, 0.0000000000000000000, 0.5000000000000000000 ) ) ;
#259 = ORIENTED_EDGE ( 'NONE', *, *, #160, .F. ) ;
#260 = ORIENTED_EDGE ( 'NONE', *, *, #69, .F. ) ;
#261 = VECTOR ( 'NONE', #5, 39.37007874015748143 ) ;
#262 = CONICAL_SURFACE ( 'NONE', #65, 0.1638859499999999469, 0.1745329251994338637 ) ;
#263 = CARTESIAN_POINT ( 'NONE',  ( 0.1875000000000000833, 2.296212748401288650E-17, 0.6339219324525432464 ) ) ;
#264 = PLANE ( 'NONE',  #208 ) ;
#265 = UNCERTAINTY_MEASURE_WITH_UNIT (LENGTH_MEASURE( 1.000000000000000082E-05 ), #13, 'distance_accuracy_value', 'NONE');
#266 = LINE ( 'NONE', #9, #261 ) ;
#267 = AXIS2_PLACEMENT_3D ( 'NONE', #256, #114, #67 ) ;
#268 = CARTESIAN_POINT ( 'NONE',  ( 6.123233995736766036E-17, 0.0000000000000000000, 0.5000000000000000000 ) ) ;
#269 = ADVANCED_FACE ( 'NONE', ( #250 ), #110, .T. ) ;
#270 = CARTESIAN_POINT ( 'NONE',  ( 0.0000000000000000000, 0.0000000000000000000, 2.000000000000000000 ) ) ;
#271 = LINE ( 'NONE', #290, #47 ) ;
#272 = ADVANCED_FACE ( 'NONE', ( #182 ), #277, .T. ) ;
#273 = VECTOR ( 'NONE', #147, 39.37007874015748143 ) ;
#274 = CARTESIAN_POINT ( 'NONE',  ( 7.763304654873116999E-17, 0.0000000000000000000, 0.6339219324525432464 ) ) ;
#275 = DIRECTION ( 'NONE',  ( 0.0000000000000000000, 0.0000000000000000000, 1.000000000000000000 ) ) ;
#276 = DIRECTION ( 'NONE',  ( -1.000000000000000000, 0.0000000000000000000, 1.224646799147353207E-16 ) ) ;
#277 = CONICAL_SURFACE ( 'NONE', #287, 0.1725000000000001532, 0.7853981633974357335 ) ;
#278 = DIRECTION ( 'NONE',  ( 1.000000000000000000, 0.0000000000000000000, 0.0000000000000000000 ) ) ;
#279 = CIRCLE ( 'NONE', #26, 0.1638859500000000025 ) ;
#280 = AXIS2_PLACEMENT_3D ( 'NONE', #295, #84, #157 ) ;
#281 = ORIENTED_EDGE ( 'NONE', *, *, #170, .T. ) ;
#282 = AXIS2_PLACEMENT_3D ( 'NONE', #44, #140, #55 ) ;
#283 = ORIENTED_EDGE ( 'NONE', *, *, #20, .T. ) ;
#284 = DIRECTION ( 'NONE',  ( -1.000000000000000000, 0.0000000000000000000, 0.0000000000000000000 ) ) ;
#285 = CARTESIAN_POINT ( 'NONE',  ( 6.123233995736766036E-17, 0.0000000000000000000, 0.5000000000000000000 ) ) ;
#286 = CARTESIAN_POINT ( 'NONE',  ( -0.1638859499999998914, 2.007024040927231455E-17, 0.5000000000000000000 ) ) ;
#287 = AXIS2_PLACEMENT_3D ( 'NONE', #270, #61, #229 ) ;
#288 = EDGE_LOOP ( 'NONE', ( #6, #17, #281, #260 ) ) ;
#289 = DIRECTION ( 'NONE',  ( -1.224646799147353207E-16, -0.0000000000000000000, -1.000000000000000000 ) ) ;
#290 = CARTESIAN_POINT ( 'NONE',  ( 0.1875000000000000278, 2.296212748401287726E-17, 2.000000000000000000 ) ) ;
#291 =( NAMED_UNIT ( * ) PLANE_ANGLE_UNIT ( ) SI_UNIT ( $, .RADIAN. ) );
#292 = EDGE_CURVE ( 'NONE', #124, #94, #246, .T. ) ;
#293 = AXIS2_PLACEMENT_3D ( 'NONE', #101, #195, #76 ) ;
#294 =( NAMED_UNIT ( * ) SI_UNIT ( $, .STERADIAN. ) SOLID_ANGLE_UNIT ( ) );
#295 = CARTESIAN_POINT ( 'NONE',  ( 0.0000000000000000000, 0.0000000000000000000, 1.984999999999999654 ) ) ;
#296 =( LENGTH_UNIT ( ) NAMED_UNIT ( * ) SI_UNIT ( $, .METRE. ) );
#297 = AXIS2_PLACEMENT_3D ( 'NONE', #127, #8, #113 ) ;
#298 = CARTESIAN_POINT ( 'NONE',  ( 0.0000000000000000000, 0.0000000000000000000, 0.0000000000000000000 ) ) ;
#299 = DIMENSIONAL_EXPONENTS ( 1.000000000000000000, 0.0000000000000000000, 0.0000000000000000000, 0.0000000000000000000, 0.0000000000000000000, 0.0000000000000000000, 0.0000000000000000000 ) ;
ENDSEC;
END-ISO-10303-21;
