ISO-10303-21;
HEADER;
FILE_DESCRIPTION (( 'STEP AP214' ),
    '1' );
FILE_NAME ('83428.STEP',
    '2023-06-30T23:20:07',
    ( '' ),
    ( '' ),
    'SwSTEP 2.0',
    'SolidWorks 2023',
    '' );
FILE_SCHEMA (( 'AUTOMOTIVE_DESIGN' ));
ENDSEC;

DATA;
#1 = SURFACE_SIDE_STYLE ('',( #175 ) ) ;
#2 = UNCERTAINTY_MEASURE_WITH_UNIT (LENGTH_MEASURE( 1.000000000000000082E-05 ), #193, 'distance_accuracy_value', 'NONE');
#3 = DIRECTION ( 'NONE',  ( 0.000000000000000000, 0.000000000000000000, 1.000000000000000000 ) ) ;
#4 = CARTESIAN_POINT ( 'NONE',  ( 0.000000000000000000, 2.250000000000000000, -0.3749999999999998335 ) ) ;
#5 = FILL_AREA_STYLE_COLOUR ( '', #240 ) ;
#6 = DIRECTION ( 'NONE',  ( -1.000000000000000000, 0.000000000000000000, 0.000000000000000000 ) ) ;
#7 = FILL_AREA_STYLE ('',( #156 ) ) ;
#8 = DIRECTION ( 'NONE',  ( -1.000000000000000000, 0.000000000000000000, 0.000000000000000000 ) ) ;
#9 = CIRCLE ( 'NONE', #196, 0.3750000000000001110 ) ;
#10 = SURFACE_STYLE_FILL_AREA ( #7 ) ;
#11 = ADVANCED_FACE ( 'NONE', ( #207 ), #119, .T. ) ;
#12 = EDGE_LOOP ( 'NONE', ( #78, #109, #159, #87 ) ) ;
#13 = FACE_OUTER_BOUND ( 'NONE', #83, .T. ) ;
#14 = CARTESIAN_POINT ( 'NONE',  ( 0.000000000000000000, 2.250000000000000000, 0.000000000000000000 ) ) ;
#15 = DIRECTION ( 'NONE',  ( 0.000000000000000000, 0.000000000000000000, -1.000000000000000000 ) ) ;
#16 = DIRECTION ( 'NONE',  ( 1.000000000000000000, 0.000000000000000000, 0.000000000000000000 ) ) ;
#17 = ORIENTED_EDGE ( 'NONE', *, *, #191, .T. ) ;
#18 = CARTESIAN_POINT ( 'NONE',  ( 0.3749999999999998335, 5.000000000000000000, 4.592425496802572986E-17 ) ) ;
#19 = LENGTH_MEASURE_WITH_UNIT ( LENGTH_MEASURE( 0.02539999999999999897 ), #308 );
#20 = PRESENTATION_LAYER_ASSIGNMENT (  '', '', ( #97 ) ) ;
#21 = APPLICATION_CONTEXT ( 'automotive_design' ) ;
#22 = EDGE_CURVE ( 'NONE', #254, #233, #336, .T. ) ;
#23 =( CONVERSION_BASED_UNIT ( 'INCH', #19 ) LENGTH_UNIT ( ) NAMED_UNIT ( #209 ) );
#24 = SURFACE_STYLE_USAGE ( .BOTH. , #284 ) ;
#25 = CARTESIAN_POINT ( 'NONE',  ( -2.296212748401288034E-17, 0.000000000000000000, 0.000000000000000000 ) ) ;
#26 = EDGE_CURVE ( 'NONE', #167, #133, #146, .T. ) ;
#27 = ORIENTED_EDGE ( 'NONE', *, *, #241, .T. ) ;
#28 =( GEOMETRIC_REPRESENTATION_CONTEXT ( 3 ) GLOBAL_UNCERTAINTY_ASSIGNED_CONTEXT ( ( #211 ) ) GLOBAL_UNIT_ASSIGNED_CONTEXT ( ( #215, #157, #155 ) ) REPRESENTATION_CONTEXT ( 'NONE', 'WORKASPACE' ) );
#29 = ORIENTED_EDGE ( 'NONE', *, *, #22, .T. ) ;
#30 = PRODUCT_DEFINITION_SHAPE ( 'NONE', 'NONE',  #348 ) ;
#31 =( NAMED_UNIT ( * ) PLANE_ANGLE_UNIT ( ) SI_UNIT ( $, .RADIAN. ) );
#32 = AXIS2_PLACEMENT_3D ( 'NONE', #170, #309, #171 ) ;
#33 = VECTOR ( 'NONE', #269, 39.37007874015748143 ) ;
#34 = SURFACE_STYLE_FILL_AREA ( #92 ) ;
#35 =( CONVERSION_BASED_UNIT ( 'INCH', #243 ) LENGTH_UNIT ( ) NAMED_UNIT ( #93 ) );
#36 = EDGE_CURVE ( 'NONE', #167, #365, #89, .T. ) ;
#37 = COLOUR_RGB ( '',0.7921568627450980005, 0.8196078431372548767, 0.9333333333333333481 ) ;
#38 = DIRECTION ( 'NONE',  ( 1.000000000000000000, 1.273890871941106809E-16, 0.000000000000000000 ) ) ;
#39 = CIRCLE ( 'NONE', #154, 0.3750000000000001110 ) ;
#40 = DIRECTION ( 'NONE',  ( -0.000000000000000000, -1.000000000000000000, -0.000000000000000000 ) ) ;
#41 = DIRECTION ( 'NONE',  ( -1.273890871941106809E-16, 1.000000000000000000, -0.000000000000000000 ) ) ;
#42 = CARTESIAN_POINT ( 'NONE',  ( 2.278553098690690333E-16, 2.250000000000000444, 0.000000000000000000 ) ) ;
#43 = LENGTH_MEASURE_WITH_UNIT ( LENGTH_MEASURE( 0.02539999999999999897 ), #129 );
#44 =( NAMED_UNIT ( * ) PLANE_ANGLE_UNIT ( ) SI_UNIT ( $, .RADIAN. ) );
#45 = AXIS2_PLACEMENT_3D ( 'NONE', #94, #73, #38 ) ;
#46 = ORIENTED_EDGE ( 'NONE', *, *, #343, .T. ) ;
#47 = SPHERICAL_SURFACE ( 'NONE', #136, 0.3750000000000001110 ) ;
#48 = ORIENTED_EDGE ( 'NONE', *, *, #26, .F. ) ;
#49 = PRODUCT_CONTEXT ( 'NONE', #112, 'mechanical' ) ;
#50 = DIRECTION ( 'NONE',  ( 0.000000000000000000, 0.000000000000000000, -1.000000000000000000 ) ) ;
#51 = ADVANCED_FACE ( 'NONE', ( #150 ), #47, .T. ) ;
#52 = APPLICATION_PROTOCOL_DEFINITION ( 'draft international standard', 'automotive_design', 1998, #112 ) ;
#53 = COLOUR_RGB ( '',1.000000000000000000, 0.000000000000000000, 0.000000000000000000 ) ;
#54 = MECHANICAL_DESIGN_GEOMETRIC_PRESENTATION_REPRESENTATION (  '', ( #272 ), #356 ) ;
#55 = CARTESIAN_POINT ( 'NONE',  ( 0.000000000000000000, 0.000000000000000000, 0.000000000000000000 ) ) ;
#56 = EDGE_LOOP ( 'NONE', ( #130, #134, #179, #173 ) ) ;
#57 = EDGE_CURVE ( 'NONE', #177, #103, #148, .T. ) ;
#58 = EDGE_LOOP ( 'NONE', ( #360, #252, #286, #362, #222 ) ) ;
#59 = MECHANICAL_DESIGN_GEOMETRIC_PRESENTATION_REPRESENTATION (  '', ( #107 ), #261 ) ;
#60 = DIRECTION ( 'NONE',  ( -1.273890871941106809E-16, 1.000000000000000000, -0.000000000000000000 ) ) ;
#61 = PRESENTATION_STYLE_ASSIGNMENT (( #147 ) ) ;
#62 = EDGE_CURVE ( 'NONE', #347, #254, #271, .T. ) ;
#63 = MANIFOLD_SOLID_BREP ( 'Revolve - Cutting Edge', #227 ) ;
#64 = VECTOR ( 'NONE', #324, 39.37007874015748143 ) ;
#65 = CARTESIAN_POINT ( 'NONE',  ( 0.000000000000000000, 0.3750000000000001665, 0.000000000000000000 ) ) ;
#66 = LINE ( 'NONE', #182, #33 ) ;
#67 = CARTESIAN_POINT ( 'NONE',  ( -4.592425496802576068E-17, 0.3750000000000001110, 0.000000000000000000 ) ) ;
#68 = MECHANICAL_DESIGN_GEOMETRIC_PRESENTATION_REPRESENTATION (  '', ( #292 ), #282 ) ;
#69 =( NAMED_UNIT ( * ) SI_UNIT ( $, .STERADIAN. ) SOLID_ANGLE_UNIT ( ) );
#70 = DIMENSIONAL_EXPONENTS ( 1.000000000000000000, 0.000000000000000000, 0.000000000000000000, 0.000000000000000000, 0.000000000000000000, 0.000000000000000000, 0.000000000000000000 ) ;
#71 = CARTESIAN_POINT ( 'NONE',  ( 2.278553098690689840E-16, 2.250000000000000000, 0.000000000000000000 ) ) ;
#72 = SURFACE_STYLE_FILL_AREA ( #364 ) ;
#73 = DIRECTION ( 'NONE',  ( 1.273890871941106809E-16, -1.000000000000000000, 0.000000000000000000 ) ) ;
#74 = LENGTH_MEASURE_WITH_UNIT ( LENGTH_MEASURE( 0.02539999999999999897 ), #246 );
#75 = DIRECTION ( 'NONE',  ( 1.000000000000000000, 0.000000000000000000, -1.224646799147353207E-16 ) ) ;
#76 = CIRCLE ( 'NONE', #288, 0.3749999999999998335 ) ;
#77 = STYLED_ITEM ( 'NONE', ( #81 ), #359 ) ;
#78 = ORIENTED_EDGE ( 'NONE', *, *, #205, .F. ) ;
#79 = CYLINDRICAL_SURFACE ( 'NONE', #372, 0.3749999999999999445 ) ;
#80 = DIRECTION ( 'NONE',  ( -0.000000000000000000, -1.000000000000000000, -0.000000000000000000 ) ) ;
#81 = PRESENTATION_STYLE_ASSIGNMENT (( #24 ) ) ;
#82 = ADVANCED_FACE ( 'NONE', ( #164 ), #276, .T. ) ;
#83 = EDGE_LOOP ( 'NONE', ( #114, #218 ) ) ;
#84 = EDGE_CURVE ( 'NONE', #365, #167, #126, .T. ) ;
#85 =( NAMED_UNIT ( * ) PLANE_ANGLE_UNIT ( ) SI_UNIT ( $, .RADIAN. ) );
#86 = SURFACE_STYLE_USAGE ( .BOTH. , #257 ) ;
#87 = ORIENTED_EDGE ( 'NONE', *, *, #260, .T. ) ;
#88 = UNCERTAINTY_MEASURE_WITH_UNIT (LENGTH_MEASURE( 1.000000000000000082E-05 ), #35, 'distance_accuracy_value', 'NONE');
#89 = CIRCLE ( 'NONE', #169, 0.3749999999999996114 ) ;
#90 =( CONVERSION_BASED_UNIT ( 'INCH', #206 ) LENGTH_UNIT ( ) NAMED_UNIT ( #70 ) );
#91 = PRODUCT_DEFINITION_CONTEXT ( 'detailed design', #21, 'design' ) ;
#92 = FILL_AREA_STYLE ('',( #321 ) ) ;
#93 = DIMENSIONAL_EXPONENTS ( 1.000000000000000000, 0.000000000000000000, 0.000000000000000000, 0.000000000000000000, 0.000000000000000000, 0.000000000000000000, 0.000000000000000000 ) ;
#94 = CARTESIAN_POINT ( 'NONE',  ( 0.3749999999999998335, 5.000000000000000000, 0.000000000000000000 ) ) ;
#95 = DIRECTION ( 'NONE',  ( 0.000000000000000000, 0.000000000000000000, -1.000000000000000000 ) ) ;
#96 = CARTESIAN_POINT ( 'NONE',  ( -4.592425496802576068E-17, 0.3750000000000001110, 0.000000000000000000 ) ) ;
#97 = STYLED_ITEM ( 'NONE', ( #195 ), #163 ) ;
#98 = CIRCLE ( 'NONE', #208, 0.3750000000000001110 ) ;
#99 = DIRECTION ( 'NONE',  ( -1.000000000000000000, 0.000000000000000000, 0.000000000000000000 ) ) ;
#100 =( GEOMETRIC_REPRESENTATION_CONTEXT ( 3 ) GLOBAL_UNCERTAINTY_ASSIGNED_CONTEXT ( ( #2 ) ) GLOBAL_UNIT_ASSIGNED_CONTEXT ( ( #193, #85, #194 ) ) REPRESENTATION_CONTEXT ( 'NONE', 'WORKASPACE' ) );
#101 = DIRECTION ( 'NONE',  ( -1.273890871941106809E-16, 1.000000000000000000, -0.000000000000000000 ) ) ;
#102 = SURFACE_SIDE_STYLE ('',( #361 ) ) ;
#103 = VERTEX_POINT ( 'NONE', #232 ) ;
#104 = CARTESIAN_POINT ( 'NONE',  ( -1.224646799147353207E-16, 5.000000000000000000, 0.000000000000000000 ) ) ;
#105 =( NAMED_UNIT ( * ) SI_UNIT ( $, .STERADIAN. ) SOLID_ANGLE_UNIT ( ) );
#106 = ORIENTED_EDGE ( 'NONE', *, *, #260, .F. ) ;
#107 = STYLED_ITEM ( 'NONE', ( #176 ), #51 ) ;
#108 = DIRECTION ( 'NONE',  ( -1.273890871941106809E-16, 1.000000000000000000, -0.000000000000000000 ) ) ;
#109 = ORIENTED_EDGE ( 'NONE', *, *, #149, .T. ) ;
#110 = DIRECTION ( 'NONE',  ( -0.000000000000000000, -1.000000000000000000, -0.000000000000000000 ) ) ;
#111 = EDGE_CURVE ( 'NONE', #289, #347, #184, .T. ) ;
#112 = APPLICATION_CONTEXT ( 'automotive_design' ) ;
#113 = PRESENTATION_LAYER_ASSIGNMENT (  '', '', ( #107 ) ) ;
#114 = ORIENTED_EDGE ( 'NONE', *, *, #36, .F. ) ;
#115 = ORIENTED_EDGE ( 'NONE', *, *, #205, .T. ) ;
#116 = DIRECTION ( 'NONE',  ( -1.000000000000000000, 0.000000000000000000, 0.000000000000000000 ) ) ;
#117 = EDGE_LOOP ( 'NONE', ( #145, #17 ) ) ;
#118 = AXIS2_PLACEMENT_3D ( 'NONE', #322, #352, #95 ) ;
#119 = SPHERICAL_SURFACE ( 'NONE', #287, 0.3750000000000001110 ) ;
#120 =( NAMED_UNIT ( * ) SI_UNIT ( $, .STERADIAN. ) SOLID_ANGLE_UNIT ( ) );
#121 = CARTESIAN_POINT ( 'NONE',  ( -4.592425496802576068E-17, 0.3750000000000001110, 0.000000000000000000 ) ) ;
#122 = SURFACE_STYLE_USAGE ( .BOTH. , #102 ) ;
#123 = DIRECTION ( 'NONE',  ( -1.000000000000000000, 0.000000000000000000, 0.000000000000000000 ) ) ;
#124 = FACE_OUTER_BOUND ( 'NONE', #117, .T. ) ;
#125 = PRESENTATION_STYLE_ASSIGNMENT (( #217 ) ) ;
#126 = CIRCLE ( 'NONE', #344, 0.3749999999999996114 ) ;
#127 = PRODUCT_DEFINITION_FORMATION_WITH_SPECIFIED_SOURCE ( 'ANY', '', #373, .NOT_KNOWN. ) ;
#128 = LINE ( 'NONE', #187, #64 ) ;
#129 =( LENGTH_UNIT ( ) NAMED_UNIT ( * ) SI_UNIT ( $, .METRE. ) );
#130 = ORIENTED_EDGE ( 'NONE', *, *, #241, .F. ) ;
#131 = DIRECTION ( 'NONE',  ( -1.273890871941106809E-16, 1.000000000000000000, 0.000000000000000000 ) ) ;
#132 = DIRECTION ( 'NONE',  ( -1.000000000000000000, 0.000000000000000000, 0.000000000000000000 ) ) ;
#133 = VERTEX_POINT ( 'NONE', #144 ) ;
#134 = ORIENTED_EDGE ( 'NONE', *, *, #84, .T. ) ;
#135 = FILL_AREA_STYLE_COLOUR ( '', #236 ) ;
#136 = AXIS2_PLACEMENT_3D ( 'NONE', #67, #166, #16 ) ;
#137 = SURFACE_STYLE_FILL_AREA ( #281 ) ;
#138 = AXIS2_PLACEMENT_3D ( 'NONE', #305, #270, #8 ) ;
#139 =( LENGTH_UNIT ( ) NAMED_UNIT ( * ) SI_UNIT ( $, .METRE. ) );
#140 = CARTESIAN_POINT ( 'NONE',  ( -0.3749999999999993894, 2.250000000000000444, 0.000000000000000000 ) ) ;
#141 = COLOUR_RGB ( '',1.000000000000000000, 0.000000000000000000, 0.000000000000000000 ) ;
#142 = AXIS2_PLACEMENT_3D ( 'NONE', #342, #108, #116 ) ;
#143 = AXIS2_PLACEMENT_3D ( 'NONE', #280, #283, #223 ) ;
#144 = CARTESIAN_POINT ( 'NONE',  ( -0.3750000000000001110, 5.000000000000000000, 0.000000000000000000 ) ) ;
#145 = ORIENTED_EDGE ( 'NONE', *, *, #188, .T. ) ;
#146 = LINE ( 'NONE', #237, #268 ) ;
#147 = SURFACE_STYLE_USAGE ( .BOTH. , #266 ) ;
#148 = CIRCLE ( 'NONE', #174, 0.3750000000000001110 ) ;
#149 = EDGE_CURVE ( 'NONE', #233, #177, #9, .T. ) ;
#150 = FACE_OUTER_BOUND ( 'NONE', #12, .T. ) ;
#151 = UNCERTAINTY_MEASURE_WITH_UNIT (LENGTH_MEASURE( 1.000000000000000082E-05 ), #189, 'distance_accuracy_value', 'NONE');
#152 = DIRECTION ( 'NONE',  ( -1.273890871941106809E-16, 1.000000000000000000, -0.000000000000000000 ) ) ;
#153 = PRESENTATION_LAYER_ASSIGNMENT (  '', '', ( #292 ) ) ;
#154 = AXIS2_PLACEMENT_3D ( 'NONE', #323, #330, #251 ) ;
#155 =( NAMED_UNIT ( * ) SI_UNIT ( $, .STERADIAN. ) SOLID_ANGLE_UNIT ( ) );
#156 = FILL_AREA_STYLE_COLOUR ( '', #37 ) ;
#157 =( NAMED_UNIT ( * ) PLANE_ANGLE_UNIT ( ) SI_UNIT ( $, .RADIAN. ) );
#158 = CARTESIAN_POINT ( 'NONE',  ( -0.3750000000000001110, 0.3750000000000001665, 4.592425496802575451E-17 ) ) ;
#159 = ORIENTED_EDGE ( 'NONE', *, *, #57, .T. ) ;
#160 = MECHANICAL_DESIGN_GEOMETRIC_PRESENTATION_REPRESENTATION (  '', ( #178 ), #28 ) ;
#161 = DIMENSIONAL_EXPONENTS ( 1.000000000000000000, 0.000000000000000000, 0.000000000000000000, 0.000000000000000000, 0.000000000000000000, 0.000000000000000000, 0.000000000000000000 ) ;
#162 = FILL_AREA_STYLE_COLOUR ( '', #350 ) ;
#163 = ADVANCED_FACE ( 'NONE', ( #225 ), #340, .T. ) ;
#164 = FACE_OUTER_BOUND ( 'NONE', #307, .T. ) ;
#165 = VERTEX_POINT ( 'NONE', #25 ) ;
#166 = DIRECTION ( 'NONE',  ( 0.000000000000000000, 0.000000000000000000, 1.000000000000000000 ) ) ;
#167 = VERTEX_POINT ( 'NONE', #140 ) ;
#168 = DIRECTION ( 'NONE',  ( 0.000000000000000000, 0.000000000000000000, -1.000000000000000000 ) ) ;
#169 = AXIS2_PLACEMENT_3D ( 'NONE', #318, #60, #123 ) ;
#170 = CARTESIAN_POINT ( 'NONE',  ( 0.000000000000000000, 0.000000000000000000, 0.000000000000000000 ) ) ;
#171 = DIRECTION ( 'NONE',  ( 0.000000000000000000, 0.000000000000000000, -1.000000000000000000 ) ) ;
#172 = DIRECTION ( 'NONE',  ( -1.000000000000000000, 0.000000000000000000, 0.000000000000000000 ) ) ;
#173 = ORIENTED_EDGE ( 'NONE', *, *, #191, .F. ) ;
#174 = AXIS2_PLACEMENT_3D ( 'NONE', #65, #40, #331 ) ;
#175 = SURFACE_STYLE_FILL_AREA ( #295 ) ;
#176 = PRESENTATION_STYLE_ASSIGNMENT (( #238 ) ) ;
#177 = VERTEX_POINT ( 'NONE', #230 ) ;
#178 = STYLED_ITEM ( 'NONE', ( #242 ), #197 ) ;
#179 = ORIENTED_EDGE ( 'NONE', *, *, #26, .T. ) ;
#180 = DIMENSIONAL_EXPONENTS ( 1.000000000000000000, 0.000000000000000000, 0.000000000000000000, 0.000000000000000000, 0.000000000000000000, 0.000000000000000000, 0.000000000000000000 ) ;
#181 = FILL_AREA_STYLE_COLOUR ( '', #53 ) ;
#182 = CARTESIAN_POINT ( 'NONE',  ( 0.000000000000000000, 0.000000000000000000, -0.3749999999999999445 ) ) ;
#183 = DIRECTION ( 'NONE',  ( -0.000000000000000000, -1.000000000000000000, -0.000000000000000000 ) ) ;
#184 = CIRCLE ( 'NONE', #255, 0.3749999999999998335 ) ;
#185 = AXIS2_PLACEMENT_3D ( 'NONE', #71, #131, #357 ) ;
#186 = DIRECTION ( 'NONE',  ( -0.000000000000000000, -1.000000000000000000, -0.000000000000000000 ) ) ;
#187 = CARTESIAN_POINT ( 'NONE',  ( 0.3749999999999996669, 5.000000000000000000, 4.592425496802572370E-17 ) ) ;
#188 = EDGE_CURVE ( 'NONE', #133, #371, #247, .T. ) ;
#189 =( CONVERSION_BASED_UNIT ( 'INCH', #43 ) LENGTH_UNIT ( ) NAMED_UNIT ( #180 ) );
#190 = CARTESIAN_POINT ( 'NONE',  ( 4.592425496802576068E-17, 0.3750000000000001665, 0.3750000000000001110 ) ) ;
#191 = EDGE_CURVE ( 'NONE', #371, #133, #303, .T. ) ;
#192 = ORIENTED_EDGE ( 'NONE', *, *, #111, .F. ) ;
#193 =( CONVERSION_BASED_UNIT ( 'INCH', #231 ) LENGTH_UNIT ( ) NAMED_UNIT ( #333 ) );
#194 =( NAMED_UNIT ( * ) SI_UNIT ( $, .STERADIAN. ) SOLID_ANGLE_UNIT ( ) );
#195 = PRESENTATION_STYLE_ASSIGNMENT (( #86 ) ) ;
#196 = AXIS2_PLACEMENT_3D ( 'NONE', #259, #80, #50 ) ;
#197 = MANIFOLD_SOLID_BREP ( 'Revolve - Tool Body (Straight Shanked)', #320 ) ;
#198 = CARTESIAN_POINT ( 'NONE',  ( -1.224646799147353207E-16, 5.000000000000000000, 0.000000000000000000 ) ) ;
#199 =( CONVERSION_BASED_UNIT ( 'INCH', #258 ) LENGTH_UNIT ( ) NAMED_UNIT ( #325 ) );
#200 =( NAMED_UNIT ( * ) PLANE_ANGLE_UNIT ( ) SI_UNIT ( $, .RADIAN. ) );
#201 = EDGE_CURVE ( 'NONE', #347, #289, #76, .T. ) ;
#202 = AXIS2_PLACEMENT_3D ( 'NONE', #14, #301, #358 ) ;
#203 =( GEOMETRIC_REPRESENTATION_CONTEXT ( 3 ) GLOBAL_UNCERTAINTY_ASSIGNED_CONTEXT ( ( #297 ) ) GLOBAL_UNIT_ASSIGNED_CONTEXT ( ( #199, #366, #229 ) ) REPRESENTATION_CONTEXT ( 'NONE', 'WORKASPACE' ) );
#204 = ORIENTED_EDGE ( 'NONE', *, *, #201, .F. ) ;
#205 = EDGE_CURVE ( 'NONE', #233, #165, #337, .T. ) ;
#206 = LENGTH_MEASURE_WITH_UNIT ( LENGTH_MEASURE( 0.02539999999999999897 ), #264 );
#207 = FACE_OUTER_BOUND ( 'NONE', #234, .T. ) ;
#208 = AXIS2_PLACEMENT_3D ( 'NONE', #275, #334, #6 ) ;
#209 = DIMENSIONAL_EXPONENTS ( 1.000000000000000000, 0.000000000000000000, 0.000000000000000000, 0.000000000000000000, 0.000000000000000000, 0.000000000000000000, 0.000000000000000000 ) ;
#210 = DIRECTION ( 'NONE',  ( 1.224646799147353207E-16, -0.000000000000000000, 1.000000000000000000 ) ) ;
#211 = UNCERTAINTY_MEASURE_WITH_UNIT (LENGTH_MEASURE( 1.000000000000000082E-05 ), #215, 'distance_accuracy_value', 'NONE');
#212 =( CONVERSION_BASED_UNIT ( 'INCH', #74 ) LENGTH_UNIT ( ) NAMED_UNIT ( #161 ) );
#213 = LENGTH_MEASURE_WITH_UNIT ( LENGTH_MEASURE( 0.02539999999999999897 ), #355 );
#214 =( GEOMETRIC_REPRESENTATION_CONTEXT ( 3 ) GLOBAL_UNCERTAINTY_ASSIGNED_CONTEXT ( ( #345 ) ) GLOBAL_UNIT_ASSIGNED_CONTEXT ( ( #23, #200, #285 ) ) REPRESENTATION_CONTEXT ( 'NONE', 'WORKASPACE' ) );
#215 =( CONVERSION_BASED_UNIT ( 'INCH', #213 ) LENGTH_UNIT ( ) NAMED_UNIT ( #250 ) );
#216 = SURFACE_SIDE_STYLE ('',( #10 ) ) ;
#217 = SURFACE_STYLE_USAGE ( .BOTH. , #326 ) ;
#218 = ORIENTED_EDGE ( 'NONE', *, *, #84, .F. ) ;
#219 = CYLINDRICAL_SURFACE ( 'NONE', #138, 0.3749999999999998335 ) ;
#220 = PRESENTATION_STYLE_ASSIGNMENT (( #335 ) ) ;
#221 = STYLED_ITEM ( 'NONE', ( #61 ), #11 ) ;
#222 = ORIENTED_EDGE ( 'NONE', *, *, #22, .F. ) ;
#223 = DIRECTION ( 'NONE',  ( 1.000000000000000000, 0.000000000000000000, 0.000000000000000000 ) ) ;
#224 = ORIENTED_EDGE ( 'NONE', *, *, #343, .F. ) ;
#225 = FACE_OUTER_BOUND ( 'NONE', #58, .T. ) ;
#226 = PRODUCT_RELATED_PRODUCT_CATEGORY ( 'part', '', ( #373 ) ) ;
#227 = CLOSED_SHELL ( 'NONE', ( #11, #359, #82, #163, #51 ) ) ;
#228 = PRESENTATION_LAYER_ASSIGNMENT (  '', '', ( #178 ) ) ;
#229 =( NAMED_UNIT ( * ) SI_UNIT ( $, .STERADIAN. ) SOLID_ANGLE_UNIT ( ) );
#230 = CARTESIAN_POINT ( 'NONE',  ( 0.000000000000000000, 0.3750000000000001665, -0.3750000000000001110 ) ) ;
#231 = LENGTH_MEASURE_WITH_UNIT ( LENGTH_MEASURE( 0.02539999999999999897 ), #310 );
#232 = CARTESIAN_POINT ( 'NONE',  ( 0.3750000000000001110, 0.3750000000000001665, 0.000000000000000000 ) ) ;
#233 = VERTEX_POINT ( 'NONE', #158 ) ;
#234 = EDGE_LOOP ( 'NONE', ( #29, #115, #106, #46 ) ) ;
#235 = CARTESIAN_POINT ( 'NONE',  ( 0.000000000000000000, 2.250000000000000000, 0.000000000000000000 ) ) ;
#236 = COLOUR_RGB ( '',1.000000000000000000, 0.000000000000000000, 0.000000000000000000 ) ;
#237 = CARTESIAN_POINT ( 'NONE',  ( -0.3749999999999999445, 5.000000000000000000, 0.000000000000000000 ) ) ;
#238 = SURFACE_STYLE_USAGE ( .BOTH. , #1 ) ;
#239 =( GEOMETRIC_REPRESENTATION_CONTEXT ( 3 ) GLOBAL_UNCERTAINTY_ASSIGNED_CONTEXT ( ( #88 ) ) GLOBAL_UNIT_ASSIGNED_CONTEXT ( ( #35, #31, #267 ) ) REPRESENTATION_CONTEXT ( 'NONE', 'WORKASPACE' ) );
#240 = COLOUR_RGB ( '',1.000000000000000000, 0.000000000000000000, 0.000000000000000000 ) ;
#241 = EDGE_CURVE ( 'NONE', #365, #371, #128, .T. ) ;
#242 = PRESENTATION_STYLE_ASSIGNMENT (( #122 ) ) ;
#243 = LENGTH_MEASURE_WITH_UNIT ( LENGTH_MEASURE( 0.02539999999999999897 ), #294 );
#244 = CARTESIAN_POINT ( 'NONE',  ( 4.592425496802572986E-17, 2.250000000000000000, 0.3749999999999998335 ) ) ;
#245 = PLANE ( 'NONE',  #45 ) ;
#246 =( LENGTH_UNIT ( ) NAMED_UNIT ( * ) SI_UNIT ( $, .METRE. ) );
#247 = CIRCLE ( 'NONE', #341, 0.3749999999999999445 ) ;
#248 = MECHANICAL_DESIGN_GEOMETRIC_PRESENTATION_REPRESENTATION (  '', ( #77 ), #203 ) ;
#249 = EDGE_LOOP ( 'NONE', ( #332, #27, #312, #48 ) ) ;
#250 = DIMENSIONAL_EXPONENTS ( 1.000000000000000000, 0.000000000000000000, 0.000000000000000000, 0.000000000000000000, 0.000000000000000000, 0.000000000000000000, 0.000000000000000000 ) ;
#251 = DIRECTION ( 'NONE',  ( 0.000000000000000000, 0.000000000000000000, -1.000000000000000000 ) ) ;
#252 = ORIENTED_EDGE ( 'NONE', *, *, #201, .T. ) ;
#253 = SURFACE_STYLE_FILL_AREA ( #363 ) ;
#254 = VERTEX_POINT ( 'NONE', #190 ) ;
#255 = AXIS2_PLACEMENT_3D ( 'NONE', #367, #110, #168 ) ;
#256 = SHAPE_DEFINITION_REPRESENTATION ( #30, #263 ) ;
#257 = SURFACE_SIDE_STYLE ('',( #137 ) ) ;
#258 = LENGTH_MEASURE_WITH_UNIT ( LENGTH_MEASURE( 0.02539999999999999897 ), #139 );
#259 = CARTESIAN_POINT ( 'NONE',  ( 0.000000000000000000, 0.3750000000000001665, 0.000000000000000000 ) ) ;
#260 = EDGE_CURVE ( 'NONE', #103, #165, #98, .T. ) ;
#261 =( GEOMETRIC_REPRESENTATION_CONTEXT ( 3 ) GLOBAL_UNCERTAINTY_ASSIGNED_CONTEXT ( ( #293 ) ) GLOBAL_UNIT_ASSIGNED_CONTEXT ( ( #90, #291, #120 ) ) REPRESENTATION_CONTEXT ( 'NONE', 'WORKASPACE' ) );
#262 = AXIS2_PLACEMENT_3D ( 'NONE', #104, #41, #99 ) ;
#263 = ADVANCED_BREP_SHAPE_REPRESENTATION ( '83428', ( #63, #197, #143 ), #100 ) ;
#264 =( LENGTH_UNIT ( ) NAMED_UNIT ( * ) SI_UNIT ( $, .METRE. ) );
#265 = VECTOR ( 'NONE', #183, 39.37007874015748143 ) ;
#266 = SURFACE_SIDE_STYLE ('',( #34 ) ) ;
#267 =( NAMED_UNIT ( * ) SI_UNIT ( $, .STERADIAN. ) SOLID_ANGLE_UNIT ( ) );
#268 = VECTOR ( 'NONE', #152, 39.37007874015748143 ) ;
#269 = DIRECTION ( 'NONE',  ( -0.000000000000000000, -1.000000000000000000, -0.000000000000000000 ) ) ;
#270 = DIRECTION ( 'NONE',  ( -1.273890871941106809E-16, 1.000000000000000000, -0.000000000000000000 ) ) ;
#271 = LINE ( 'NONE', #306, #265 ) ;
#272 = STYLED_ITEM ( 'NONE', ( #220 ), #63 ) ;
#273 = PRESENTATION_LAYER_ASSIGNMENT (  '', '', ( #77 ) ) ;
#274 = ORIENTED_EDGE ( 'NONE', *, *, #57, .F. ) ;
#275 = CARTESIAN_POINT ( 'NONE',  ( -4.592425496802576068E-17, 0.3750000000000001110, 0.000000000000000000 ) ) ;
#276 = PLANE ( 'NONE',  #202 ) ;
#277 = EDGE_LOOP ( 'NONE', ( #304, #314, #224, #274, #279 ) ) ;
#278 = ADVANCED_FACE ( 'NONE', ( #300 ), #299, .T. ) ;
#279 = ORIENTED_EDGE ( 'NONE', *, *, #346, .F. ) ;
#280 = CARTESIAN_POINT ( 'NONE',  ( 0.000000000000000000, 0.000000000000000000, 0.000000000000000000 ) ) ;
#281 = FILL_AREA_STYLE ('',( #338 ) ) ;
#282 =( GEOMETRIC_REPRESENTATION_CONTEXT ( 3 ) GLOBAL_UNCERTAINTY_ASSIGNED_CONTEXT ( ( #317 ) ) GLOBAL_UNIT_ASSIGNED_CONTEXT ( ( #212, #354, #69 ) ) REPRESENTATION_CONTEXT ( 'NONE', 'WORKASPACE' ) );
#283 = DIRECTION ( 'NONE',  ( 0.000000000000000000, 0.000000000000000000, 1.000000000000000000 ) ) ;
#284 = SURFACE_SIDE_STYLE ('',( #253 ) ) ;
#285 =( NAMED_UNIT ( * ) SI_UNIT ( $, .STERADIAN. ) SOLID_ANGLE_UNIT ( ) );
#286 = ORIENTED_EDGE ( 'NONE', *, *, #346, .T. ) ;
#287 = AXIS2_PLACEMENT_3D ( 'NONE', #121, #3, #351 ) ;
#288 = AXIS2_PLACEMENT_3D ( 'NONE', #235, #186, #302 ) ;
#289 = VERTEX_POINT ( 'NONE', #4 ) ;
#290 = ADVANCED_FACE ( 'NONE', ( #124 ), #245, .F. ) ;
#291 =( NAMED_UNIT ( * ) PLANE_ANGLE_UNIT ( ) SI_UNIT ( $, .RADIAN. ) );
#292 = STYLED_ITEM ( 'NONE', ( #125 ), #82 ) ;
#293 = UNCERTAINTY_MEASURE_WITH_UNIT (LENGTH_MEASURE( 1.000000000000000082E-05 ), #90, 'distance_accuracy_value', 'NONE');
#294 =( LENGTH_UNIT ( ) NAMED_UNIT ( * ) SI_UNIT ( $, .METRE. ) );
#295 = FILL_AREA_STYLE ('',( #181 ) ) ;
#296 = PLANE ( 'NONE',  #185 ) ;
#297 = UNCERTAINTY_MEASURE_WITH_UNIT (LENGTH_MEASURE( 1.000000000000000082E-05 ), #199, 'distance_accuracy_value', 'NONE');
#298 = MECHANICAL_DESIGN_GEOMETRIC_PRESENTATION_REPRESENTATION (  '', ( #97 ), #214 ) ;
#299 = CYLINDRICAL_SURFACE ( 'NONE', #262, 0.3749999999999998335 ) ;
#300 = FACE_OUTER_BOUND ( 'NONE', #249, .T. ) ;
#301 = DIRECTION ( 'NONE',  ( 0.000000000000000000, 1.000000000000000000, 0.000000000000000000 ) ) ;
#302 = DIRECTION ( 'NONE',  ( 0.000000000000000000, 0.000000000000000000, -1.000000000000000000 ) ) ;
#303 = CIRCLE ( 'NONE', #142, 0.3749999999999999445 ) ;
#304 = ORIENTED_EDGE ( 'NONE', *, *, #111, .T. ) ;
#305 = CARTESIAN_POINT ( 'NONE',  ( -1.224646799147353207E-16, 5.000000000000000000, 0.000000000000000000 ) ) ;
#306 = CARTESIAN_POINT ( 'NONE',  ( 4.592425496802573602E-17, 0.000000000000000000, 0.3749999999999999445 ) ) ;
#307 = EDGE_LOOP ( 'NONE', ( #192, #204 ) ) ;
#308 =( LENGTH_UNIT ( ) NAMED_UNIT ( * ) SI_UNIT ( $, .METRE. ) );
#309 = DIRECTION ( 'NONE',  ( -0.000000000000000000, -1.000000000000000000, -0.000000000000000000 ) ) ;
#310 =( LENGTH_UNIT ( ) NAMED_UNIT ( * ) SI_UNIT ( $, .METRE. ) );
#311 = DIRECTION ( 'NONE',  ( -1.273890871941106809E-16, 1.000000000000000000, -0.000000000000000000 ) ) ;
#312 = ORIENTED_EDGE ( 'NONE', *, *, #188, .F. ) ;
#313 = CARTESIAN_POINT ( 'NONE',  ( 0.3749999999999998335, 2.250000000000000444, 4.592425496802572986E-17 ) ) ;
#314 = ORIENTED_EDGE ( 'NONE', *, *, #62, .T. ) ;
#315 = MECHANICAL_DESIGN_GEOMETRIC_PRESENTATION_REPRESENTATION (  '', ( #221 ), #239 ) ;
#316 = PRESENTATION_LAYER_ASSIGNMENT (  '', '', ( #272 ) ) ;
#317 = UNCERTAINTY_MEASURE_WITH_UNIT (LENGTH_MEASURE( 1.000000000000000082E-05 ), #212, 'distance_accuracy_value', 'NONE');
#318 = CARTESIAN_POINT ( 'NONE',  ( 2.278553098690690333E-16, 2.250000000000000444, 0.000000000000000000 ) ) ;
#319 = ADVANCED_FACE ( 'NONE', ( #353 ), #219, .T. ) ;
#320 = CLOSED_SHELL ( 'NONE', ( #278, #328, #319, #290 ) ) ;
#321 = FILL_AREA_STYLE_COLOUR ( '', #141 ) ;
#322 = CARTESIAN_POINT ( 'NONE',  ( 0.000000000000000000, 0.3750000000000001665, 0.000000000000000000 ) ) ;
#323 = CARTESIAN_POINT ( 'NONE',  ( 0.000000000000000000, 0.3750000000000001665, 0.000000000000000000 ) ) ;
#324 = DIRECTION ( 'NONE',  ( -1.273890871941106809E-16, 1.000000000000000000, -0.000000000000000000 ) ) ;
#325 = DIMENSIONAL_EXPONENTS ( 1.000000000000000000, 0.000000000000000000, 0.000000000000000000, 0.000000000000000000, 0.000000000000000000, 0.000000000000000000, 0.000000000000000000 ) ;
#326 = SURFACE_SIDE_STYLE ('',( #72 ) ) ;
#327 = COLOUR_RGB ( '',1.000000000000000000, 0.000000000000000000, 0.000000000000000000 ) ;
#328 = ADVANCED_FACE ( 'NONE', ( #13 ), #296, .F. ) ;
#329 = FILL_AREA_STYLE ('',( #162 ) ) ;
#330 = DIRECTION ( 'NONE',  ( -0.000000000000000000, -1.000000000000000000, -0.000000000000000000 ) ) ;
#331 = DIRECTION ( 'NONE',  ( 0.000000000000000000, 0.000000000000000000, -1.000000000000000000 ) ) ;
#332 = ORIENTED_EDGE ( 'NONE', *, *, #36, .T. ) ;
#333 = DIMENSIONAL_EXPONENTS ( 1.000000000000000000, 0.000000000000000000, 0.000000000000000000, 0.000000000000000000, 0.000000000000000000, 0.000000000000000000, 0.000000000000000000 ) ;
#334 = DIRECTION ( 'NONE',  ( 0.000000000000000000, 0.000000000000000000, -1.000000000000000000 ) ) ;
#335 = SURFACE_STYLE_USAGE ( .BOTH. , #216 ) ;
#336 = CIRCLE ( 'NONE', #118, 0.3750000000000001110 ) ;
#337 = CIRCLE ( 'NONE', #369, 0.3750000000000001110 ) ;
#338 = FILL_AREA_STYLE_COLOUR ( '', #327 ) ;
#339 = APPLICATION_PROTOCOL_DEFINITION ( 'draft international standard', 'automotive_design', 1998, #21 ) ;
#340 = CYLINDRICAL_SURFACE ( 'NONE', #32, 0.3749999999999999445 ) ;
#341 = AXIS2_PLACEMENT_3D ( 'NONE', #198, #311, #172 ) ;
#342 = CARTESIAN_POINT ( 'NONE',  ( -1.224646799147353207E-16, 5.000000000000000000, 0.000000000000000000 ) ) ;
#343 = EDGE_CURVE ( 'NONE', #103, #254, #39, .T. ) ;
#344 = AXIS2_PLACEMENT_3D ( 'NONE', #42, #101, #132 ) ;
#345 = UNCERTAINTY_MEASURE_WITH_UNIT (LENGTH_MEASURE( 1.000000000000000082E-05 ), #23, 'distance_accuracy_value', 'NONE');
#346 = EDGE_CURVE ( 'NONE', #289, #177, #66, .T. ) ;
#347 = VERTEX_POINT ( 'NONE', #244 ) ;
#348 = PRODUCT_DEFINITION ( 'UNKNOWN', '', #127, #91 ) ;
#349 = PRESENTATION_LAYER_ASSIGNMENT (  '', '', ( #221 ) ) ;
#350 = COLOUR_RGB ( '',0.7921568627450980005, 0.8196078431372548767, 0.9333333333333333481 ) ;
#351 = DIRECTION ( 'NONE',  ( 1.000000000000000000, 0.000000000000000000, 0.000000000000000000 ) ) ;
#352 = DIRECTION ( 'NONE',  ( -0.000000000000000000, -1.000000000000000000, -0.000000000000000000 ) ) ;
#353 = FACE_OUTER_BOUND ( 'NONE', #56, .T. ) ;
#354 =( NAMED_UNIT ( * ) PLANE_ANGLE_UNIT ( ) SI_UNIT ( $, .RADIAN. ) );
#355 =( LENGTH_UNIT ( ) NAMED_UNIT ( * ) SI_UNIT ( $, .METRE. ) );
#356 =( GEOMETRIC_REPRESENTATION_CONTEXT ( 3 ) GLOBAL_UNCERTAINTY_ASSIGNED_CONTEXT ( ( #151 ) ) GLOBAL_UNIT_ASSIGNED_CONTEXT ( ( #189, #44, #105 ) ) REPRESENTATION_CONTEXT ( 'NONE', 'WORKASPACE' ) );
#357 = DIRECTION ( 'NONE',  ( -1.000000000000000000, -1.273890871941106809E-16, 0.000000000000000000 ) ) ;
#358 = DIRECTION ( 'NONE',  ( 0.000000000000000000, -0.000000000000000000, 1.000000000000000000 ) ) ;
#359 = ADVANCED_FACE ( 'NONE', ( #368 ), #79, .T. ) ;
#360 = ORIENTED_EDGE ( 'NONE', *, *, #62, .F. ) ;
#361 = SURFACE_STYLE_FILL_AREA ( #329 ) ;
#362 = ORIENTED_EDGE ( 'NONE', *, *, #149, .F. ) ;
#363 = FILL_AREA_STYLE ('',( #135 ) ) ;
#364 = FILL_AREA_STYLE ('',( #5 ) ) ;
#365 = VERTEX_POINT ( 'NONE', #313 ) ;
#366 =( NAMED_UNIT ( * ) PLANE_ANGLE_UNIT ( ) SI_UNIT ( $, .RADIAN. ) );
#367 = CARTESIAN_POINT ( 'NONE',  ( 0.000000000000000000, 2.250000000000000000, 0.000000000000000000 ) ) ;
#368 = FACE_OUTER_BOUND ( 'NONE', #277, .T. ) ;
#369 = AXIS2_PLACEMENT_3D ( 'NONE', #96, #210, #75 ) ;
#370 = DIRECTION ( 'NONE',  ( -0.000000000000000000, -1.000000000000000000, -0.000000000000000000 ) ) ;
#371 = VERTEX_POINT ( 'NONE', #18 ) ;
#372 = AXIS2_PLACEMENT_3D ( 'NONE', #55, #370, #15 ) ;
#373 = PRODUCT ( '83428', '83428', '', ( #49 ) ) ;
ENDSEC;
END-ISO-10303-21;
