ISO-10303-21;
HEADER;
FILE_DESCRIPTION (( 'STEP AP214' ),
    '1' );
FILE_NAME ('59463.STEP',
    '2023-07-24T15:06:59',
    ( '' ),
    ( '' ),
    'SwSTEP 2.0',
    'SolidWorks 2023',
    '' );
FILE_SCHEMA (( 'AUTOMOTIVE_DESIGN' ));
ENDSEC;

DATA;
#1 = PRESENTATION_STYLE_ASSIGNMENT (( #35 ) ) ;
#2 = EDGE_CURVE ( 'NONE', #322, #141, #87, .T. ) ;
#3 = DIRECTION ( 'NONE',  ( 0.000000000000000000, 0.000000000000000000, -1.000000000000000000 ) ) ;
#4 = DIRECTION ( 'NONE',  ( -0.000000000000000000, -1.000000000000000000, -0.000000000000000000 ) ) ;
#5 = ORIENTED_EDGE ( 'NONE', *, *, #219, .T. ) ;
#6 = PRESENTATION_LAYER_ASSIGNMENT (  '', '', ( #307 ) ) ;
#7 = SURFACE_STYLE_USAGE ( .BOTH. , #366 ) ;
#8 = ADVANCED_FACE ( 'NONE', ( #298 ), #110, .F. ) ;
#9 = DIRECTION ( 'NONE',  ( -2.697787857885250373E-16, 1.000000000000000000, -0.000000000000000000 ) ) ;
#10 = CARTESIAN_POINT ( 'NONE',  ( 0.000000000000000000, 12.00000000000000000, 0.000000000000000000 ) ) ;
#11 = DIRECTION ( 'NONE',  ( -0.000000000000000000, -1.000000000000000000, -0.000000000000000000 ) ) ;
#12 = STYLED_ITEM ( 'NONE', ( #66 ), #135 ) ;
#13 = AXIS2_PLACEMENT_3D ( 'NONE', #294, #57, #3 ) ;
#14 = ADVANCED_FACE ( 'NONE', ( #263 ), #223, .T. ) ;
#15 =( NAMED_UNIT ( * ) SI_UNIT ( $, .STERADIAN. ) SOLID_ANGLE_UNIT ( ) );
#16 = DIRECTION ( 'NONE',  ( 0.000000000000000000, 0.000000000000000000, -1.000000000000000000 ) ) ;
#17 = CIRCLE ( 'NONE', #47, 4.000000000000000000 ) ;
#18 = ORIENTED_EDGE ( 'NONE', *, *, #158, .T. ) ;
#19 = AXIS2_PLACEMENT_3D ( 'NONE', #346, #168, #45 ) ;
#20 = PRODUCT_RELATED_PRODUCT_CATEGORY ( 'part', '', ( #119 ) ) ;
#21 = FILL_AREA_STYLE ('',( #287 ) ) ;
#22 = ORIENTED_EDGE ( 'NONE', *, *, #272, .F. ) ;
#23 = ADVANCED_FACE ( 'NONE', ( #225 ), #146, .T. ) ;
#24 = AXIS2_PLACEMENT_3D ( 'NONE', #107, #79, #345 ) ;
#25 = TOROIDAL_SURFACE ( 'NONE', #52, 3.000000000000000000, 1.000000000000000000 ) ;
#26 =( LENGTH_UNIT ( ) NAMED_UNIT ( * ) SI_UNIT ( .MILLI., .METRE. ) );
#27 = CARTESIAN_POINT ( 'NONE',  ( 0.000000000000000000, 1.000000000000000000, 0.000000000000000000 ) ) ;
#28 = ORIENTED_EDGE ( 'NONE', *, *, #172, .T. ) ;
#29 = PRESENTATION_LAYER_ASSIGNMENT (  '', '', ( #150 ) ) ;
#30 = VECTOR ( 'NONE', #290, 1000.000000000000000 ) ;
#31 =( NAMED_UNIT ( * ) SI_UNIT ( $, .STERADIAN. ) SOLID_ANGLE_UNIT ( ) );
#32 = SURFACE_STYLE_FILL_AREA ( #260 ) ;
#33 = DIRECTION ( 'NONE',  ( 0.000000000000000000, 0.000000000000000000, -1.000000000000000000 ) ) ;
#34 = FILL_AREA_STYLE ('',( #191 ) ) ;
#35 = SURFACE_STYLE_USAGE ( .BOTH. , #343 ) ;
#36 = STYLED_ITEM ( 'NONE', ( #299 ), #261 ) ;
#37 = EDGE_LOOP ( 'NONE', ( #195, #94 ) ) ;
#38 = MECHANICAL_DESIGN_GEOMETRIC_PRESENTATION_REPRESENTATION (  '', ( #344 ), #56 ) ;
#39 = DIRECTION ( 'NONE',  ( 0.000000000000000000, 0.000000000000000000, -1.000000000000000000 ) ) ;
#40 = CARTESIAN_POINT ( 'NONE',  ( 4.898587196589412829E-16, 0.000000000000000000, 4.000000000000000000 ) ) ;
#41 = FILL_AREA_STYLE_COLOUR ( '', #335 ) ;
#42 = PRODUCT_DEFINITION_CONTEXT ( 'detailed design', #164, 'design' ) ;
#43 = AXIS2_PLACEMENT_3D ( 'NONE', #73, #185, #46 ) ;
#44 =( NAMED_UNIT ( * ) SI_UNIT ( $, .STERADIAN. ) SOLID_ANGLE_UNIT ( ) );
#45 = DIRECTION ( 'NONE',  ( 0.000000000000000000, 0.000000000000000000, -1.000000000000000000 ) ) ;
#46 = DIRECTION ( 'NONE',  ( 0.000000000000000000, 0.000000000000000000, -1.000000000000000000 ) ) ;
#47 = AXIS2_PLACEMENT_3D ( 'NONE', #10, #72, #16 ) ;
#48 = SURFACE_STYLE_USAGE ( .BOTH. , #192 ) ;
#49 = CYLINDRICAL_SURFACE ( 'NONE', #162, 4.000000000000000000 ) ;
#50 = CARTESIAN_POINT ( 'NONE',  ( -7.470345474798853504E-15, 63.00000000000000000, 0.000000000000000000 ) ) ;
#51 = SURFACE_STYLE_FILL_AREA ( #34 ) ;
#52 = AXIS2_PLACEMENT_3D ( 'NONE', #297, #4, #33 ) ;
#53 = FILL_AREA_STYLE_COLOUR ( '', #69 ) ;
#54 = ORIENTED_EDGE ( 'NONE', *, *, #210, .T. ) ;
#55 = PRESENTATION_STYLE_ASSIGNMENT (( #228 ) ) ;
#56 =( GEOMETRIC_REPRESENTATION_CONTEXT ( 3 ) GLOBAL_UNCERTAINTY_ASSIGNED_CONTEXT ( ( #239 ) ) GLOBAL_UNIT_ASSIGNED_CONTEXT ( ( #114, #347, #349 ) ) REPRESENTATION_CONTEXT ( 'NONE', 'WORKASPACE' ) );
#57 = DIRECTION ( 'NONE',  ( -0.000000000000000000, -1.000000000000000000, -0.000000000000000000 ) ) ;
#58 = ORIENTED_EDGE ( 'NONE', *, *, #237, .F. ) ;
#59 = EDGE_CURVE ( 'NONE', #322, #77, #120, .T. ) ;
#60 = FILL_AREA_STYLE_COLOUR ( '', #75 ) ;
#61 = ORIENTED_EDGE ( 'NONE', *, *, #203, .F. ) ;
#62 = FACE_OUTER_BOUND ( 'NONE', #37, .T. ) ;
#63 = CARTESIAN_POINT ( 'NONE',  ( 0.000000000000000000, 0.000000000000000000, -4.000000000000000000 ) ) ;
#64 = CARTESIAN_POINT ( 'NONE',  ( -7.470345474798853504E-15, 63.00000000000000000, 0.000000000000000000 ) ) ;
#65 = UNCERTAINTY_MEASURE_WITH_UNIT (LENGTH_MEASURE( 1.000000000000000082E-05 ), #139, 'distance_accuracy_value', 'NONE');
#66 = PRESENTATION_STYLE_ASSIGNMENT (( #243 ) ) ;
#67 = APPLICATION_PROTOCOL_DEFINITION ( 'draft international standard', 'automotive_design', 1998, #164 ) ;
#68 = LINE ( 'NONE', #63, #166 ) ;
#69 = COLOUR_RGB ( '',1.000000000000000000, 0.000000000000000000, 0.000000000000000000 ) ;
#70 =( GEOMETRIC_REPRESENTATION_CONTEXT ( 3 ) GLOBAL_UNCERTAINTY_ASSIGNED_CONTEXT ( ( #234 ) ) GLOBAL_UNIT_ASSIGNED_CONTEXT ( ( #93, #302, #71 ) ) REPRESENTATION_CONTEXT ( 'NONE', 'WORKASPACE' ) );
#71 =( NAMED_UNIT ( * ) SI_UNIT ( $, .STERADIAN. ) SOLID_ANGLE_UNIT ( ) );
#72 = DIRECTION ( 'NONE',  ( -0.000000000000000000, -1.000000000000000000, -0.000000000000000000 ) ) ;
#73 = CARTESIAN_POINT ( 'NONE',  ( 0.000000000000000000, 0.000000000000000000, 0.000000000000000000 ) ) ;
#74 = AXIS2_PLACEMENT_3D ( 'NONE', #330, #310, #357 ) ;
#75 = COLOUR_RGB ( '',0.7921568627450980005, 0.8196078431372548767, 0.9333333333333333481 ) ;
#76 = DIRECTION ( 'NONE',  ( 0.000000000000000000, -1.000000000000000000, -0.000000000000000000 ) ) ;
#77 = VERTEX_POINT ( 'NONE', #282 ) ;
#78 = CARTESIAN_POINT ( 'NONE',  ( -4.000000000000008882, 63.00000000000000000, 0.000000000000000000 ) ) ;
#79 = DIRECTION ( 'NONE',  ( 2.697787857885250373E-16, -1.000000000000000000, 0.000000000000000000 ) ) ;
#80 =( LENGTH_UNIT ( ) NAMED_UNIT ( * ) SI_UNIT ( .MILLI., .METRE. ) );
#81 = ORIENTED_EDGE ( 'NONE', *, *, #219, .F. ) ;
#82 = CIRCLE ( 'NONE', #331, 3.999999999999994227 ) ;
#83 = FACE_OUTER_BOUND ( 'NONE', #280, .T. ) ;
#84 = ADVANCED_FACE ( 'NONE', ( #362 ), #208, .F. ) ;
#85 = DIRECTION ( 'NONE',  ( 0.000000000000000000, 0.000000000000000000, -1.000000000000000000 ) ) ;
#86 = ORIENTED_EDGE ( 'NONE', *, *, #355, .T. ) ;
#87 = LINE ( 'NONE', #368, #184 ) ;
#88 = CYLINDRICAL_SURFACE ( 'NONE', #224, 4.000000000000000888 ) ;
#89 = CIRCLE ( 'NONE', #365, 3.000000000000000000 ) ;
#90 = CARTESIAN_POINT ( 'NONE',  ( 4.286263797015736595E-16, 0.000000000000000000, 3.000000000000000000 ) ) ;
#91 = UNCERTAINTY_MEASURE_WITH_UNIT (LENGTH_MEASURE( 1.000000000000000082E-05 ), #204, 'distance_accuracy_value', 'NONE');
#92 = DIRECTION ( 'NONE',  ( -0.000000000000000000, -1.000000000000000000, -0.000000000000000000 ) ) ;
#93 =( LENGTH_UNIT ( ) NAMED_UNIT ( * ) SI_UNIT ( .MILLI., .METRE. ) );
#94 = ORIENTED_EDGE ( 'NONE', *, *, #96, .F. ) ;
#95 = SURFACE_STYLE_USAGE ( .BOTH. , #351 ) ;
#96 = EDGE_CURVE ( 'NONE', #165, #222, #17, .T. ) ;
#97 =( NAMED_UNIT ( * ) PLANE_ANGLE_UNIT ( ) SI_UNIT ( $, .RADIAN. ) );
#98 = PRESENTATION_LAYER_ASSIGNMENT (  '', '', ( #12 ) ) ;
#99 = DIRECTION ( 'NONE',  ( -0.000000000000000000, -1.000000000000000000, -0.000000000000000000 ) ) ;
#100 = SURFACE_SIDE_STYLE ('',( #183 ) ) ;
#101 = CYLINDRICAL_SURFACE ( 'NONE', #43, 4.000000000000000000 ) ;
#102 = PRESENTATION_LAYER_ASSIGNMENT (  '', '', ( #140 ) ) ;
#103 = EDGE_CURVE ( 'NONE', #222, #277, #68, .T. ) ;
#104 = COLOUR_RGB ( '',1.000000000000000000, 0.000000000000000000, 0.000000000000000000 ) ;
#105 = ORIENTED_EDGE ( 'NONE', *, *, #329, .F. ) ;
#106 = FACE_OUTER_BOUND ( 'NONE', #341, .T. ) ;
#107 = CARTESIAN_POINT ( 'NONE',  ( 4.000000000000000000, 63.00000000000000000, 0.000000000000000000 ) ) ;
#108 = FILL_AREA_STYLE_COLOUR ( '', #128 ) ;
#109 = EDGE_CURVE ( 'NONE', #300, #160, #89, .T. ) ;
#110 = PLANE ( 'NONE',  #24 ) ;
#111 = PRESENTATION_LAYER_ASSIGNMENT (  '', '', ( #311 ) ) ;
#112 = COLOUR_RGB ( '',1.000000000000000000, 0.000000000000000000, 0.000000000000000000 ) ;
#113 =( LENGTH_UNIT ( ) NAMED_UNIT ( * ) SI_UNIT ( .MILLI., .METRE. ) );
#114 =( LENGTH_UNIT ( ) NAMED_UNIT ( * ) SI_UNIT ( .MILLI., .METRE. ) );
#115 = AXIS2_PLACEMENT_3D ( 'NONE', #64, #177, #303 ) ;
#116 = DIRECTION ( 'NONE',  ( -0.000000000000000000, -1.000000000000000000, -0.000000000000000000 ) ) ;
#117 = ORIENTED_EDGE ( 'NONE', *, *, #329, .T. ) ;
#118 =( NAMED_UNIT ( * ) PLANE_ANGLE_UNIT ( ) SI_UNIT ( $, .RADIAN. ) );
#119 = PRODUCT ( '59463', '59463', '', ( #328 ) ) ;
#120 = CIRCLE ( 'NONE', #253, 3.999999999999994227 ) ;
#121 = CARTESIAN_POINT ( 'NONE',  ( 0.000000000000000000, 1.000000000000000000, 0.000000000000000000 ) ) ;
#122 = DIRECTION ( 'NONE',  ( -2.697787857885250373E-16, 1.000000000000000000, 0.000000000000000000 ) ) ;
#123 = AXIS2_PLACEMENT_3D ( 'NONE', #236, #99, #354 ) ;
#124 =( GEOMETRIC_REPRESENTATION_CONTEXT ( 3 ) GLOBAL_UNCERTAINTY_ASSIGNED_CONTEXT ( ( #91 ) ) GLOBAL_UNIT_ASSIGNED_CONTEXT ( ( #204, #332, #142 ) ) REPRESENTATION_CONTEXT ( 'NONE', 'WORKASPACE' ) );
#125 = ORIENTED_EDGE ( 'NONE', *, *, #143, .T. ) ;
#126 = LINE ( 'NONE', #78, #30 ) ;
#127 = SURFACE_STYLE_FILL_AREA ( #21 ) ;
#128 = COLOUR_RGB ( '',1.000000000000000000, 0.000000000000000000, 0.000000000000000000 ) ;
#129 = ORIENTED_EDGE ( 'NONE', *, *, #109, .F. ) ;
#130 =( GEOMETRIC_REPRESENTATION_CONTEXT ( 3 ) GLOBAL_UNCERTAINTY_ASSIGNED_CONTEXT ( ( #148 ) ) GLOBAL_UNIT_ASSIGNED_CONTEXT ( ( #295, #196, #194 ) ) REPRESENTATION_CONTEXT ( 'NONE', 'WORKASPACE' ) );
#131 =( NAMED_UNIT ( * ) SI_UNIT ( $, .STERADIAN. ) SOLID_ANGLE_UNIT ( ) );
#132 = ORIENTED_EDGE ( 'NONE', *, *, #355, .F. ) ;
#133 = PRODUCT_DEFINITION ( 'UNKNOWN', '', #167, #42 ) ;
#134 = PRESENTATION_STYLE_ASSIGNMENT (( #48 ) ) ;
#135 = MANIFOLD_SOLID_BREP ( 'Revolve - Cutting Edge', #353 ) ;
#136 = ORIENTED_EDGE ( 'NONE', *, *, #2, .F. ) ;
#137 = PRESENTATION_LAYER_ASSIGNMENT (  '', '', ( #36 ) ) ;
#138 = SURFACE_STYLE_FILL_AREA ( #170 ) ;
#139 =( LENGTH_UNIT ( ) NAMED_UNIT ( * ) SI_UNIT ( .MILLI., .METRE. ) );
#140 = STYLED_ITEM ( 'NONE', ( #256 ), #190 ) ;
#141 = VERTEX_POINT ( 'NONE', #233 ) ;
#142 =( NAMED_UNIT ( * ) SI_UNIT ( $, .STERADIAN. ) SOLID_ANGLE_UNIT ( ) );
#143 = EDGE_CURVE ( 'NONE', #277, #367, #315, .T. ) ;
#144 = ADVANCED_BREP_SHAPE_REPRESENTATION ( '59463', ( #135, #267, #254 ), #124 ) ;
#145 = DIRECTION ( 'NONE',  ( 0.000000000000000000, -0.000000000000000000, 1.000000000000000000 ) ) ;
#146 = CYLINDRICAL_SURFACE ( 'NONE', #74, 4.000000000000000888 ) ;
#147 = DIRECTION ( 'NONE',  ( 0.000000000000000000, 0.000000000000000000, 1.000000000000000000 ) ) ;
#148 = UNCERTAINTY_MEASURE_WITH_UNIT (LENGTH_MEASURE( 1.000000000000000082E-05 ), #295, 'distance_accuracy_value', 'NONE');
#149 = PRESENTATION_LAYER_ASSIGNMENT (  '', '', ( #320 ) ) ;
#150 = STYLED_ITEM ( 'NONE', ( #291 ), #14 ) ;
#151 = DIRECTION ( 'NONE',  ( -1.000000000000000000, 0.000000000000000000, 0.000000000000000000 ) ) ;
#152 = DIRECTION ( 'NONE',  ( -2.697787857885250373E-16, 1.000000000000000000, -0.000000000000000000 ) ) ;
#153 = SURFACE_STYLE_FILL_AREA ( #176 ) ;
#154 = DIRECTION ( 'NONE',  ( -1.000000000000000000, -4.336808689942024146E-16, 0.000000000000000000 ) ) ;
#155 = VERTEX_POINT ( 'NONE', #269 ) ;
#156 =( NAMED_UNIT ( * ) SI_UNIT ( $, .STERADIAN. ) SOLID_ANGLE_UNIT ( ) );
#157 = MECHANICAL_DESIGN_GEOMETRIC_PRESENTATION_REPRESENTATION (  '', ( #36 ), #130 ) ;
#158 = EDGE_CURVE ( 'NONE', #367, #160, #306, .T. ) ;
#159 =( NAMED_UNIT ( * ) PLANE_ANGLE_UNIT ( ) SI_UNIT ( $, .RADIAN. ) );
#160 = VERTEX_POINT ( 'NONE', #90 ) ;
#161 = DIRECTION ( 'NONE',  ( -0.000000000000000000, -1.000000000000000000, -0.000000000000000000 ) ) ;
#162 = AXIS2_PLACEMENT_3D ( 'NONE', #197, #116, #85 ) ;
#163 = ORIENTED_EDGE ( 'NONE', *, *, #2, .T. ) ;
#164 = APPLICATION_CONTEXT ( 'automotive_design' ) ;
#165 = VERTEX_POINT ( 'NONE', #325 ) ;
#166 = VECTOR ( 'NONE', #211, 1000.000000000000000 ) ;
#167 = PRODUCT_DEFINITION_FORMATION_WITH_SPECIFIED_SOURCE ( 'ANY', '', #119, .NOT_KNOWN. ) ;
#168 = DIRECTION ( 'NONE',  ( -0.000000000000000000, -1.000000000000000000, -0.000000000000000000 ) ) ;
#169 = EDGE_LOOP ( 'NONE', ( #241, #288, #117, #22 ) ) ;
#170 = FILL_AREA_STYLE ('',( #262 ) ) ;
#171 = SURFACE_STYLE_USAGE ( .BOTH. , #231 ) ;
#172 = EDGE_CURVE ( 'NONE', #155, #141, #173, .T. ) ;
#173 = CIRCLE ( 'NONE', #115, 4.000000000000007994 ) ;
#174 = LINE ( 'NONE', #40, #227 ) ;
#175 = CARTESIAN_POINT ( 'NONE',  ( 0.000000000000000000, 0.000000000000000000, 0.000000000000000000 ) ) ;
#176 = FILL_AREA_STYLE ('',( #308 ) ) ;
#177 = DIRECTION ( 'NONE',  ( -2.697787857885250373E-16, 1.000000000000000000, -0.000000000000000000 ) ) ;
#178 = SURFACE_SIDE_STYLE ('',( #181 ) ) ;
#179 = CARTESIAN_POINT ( 'NONE',  ( 0.000000000000000000, 0.000000000000000000, -3.000000000000000000 ) ) ;
#180 = CIRCLE ( 'NONE', #226, 4.000000000000000000 ) ;
#181 = SURFACE_STYLE_FILL_AREA ( #276 ) ;
#182 = CARTESIAN_POINT ( 'NONE',  ( 6.288372600415924140E-15, 11.99999999999999645, 0.000000000000000000 ) ) ;
#183 = SURFACE_STYLE_FILL_AREA ( #314 ) ;
#184 = VECTOR ( 'NONE', #370, 1000.000000000000000 ) ;
#185 = DIRECTION ( 'NONE',  ( -0.000000000000000000, -1.000000000000000000, -0.000000000000000000 ) ) ;
#186 = AXIS2_PLACEMENT_3D ( 'NONE', #230, #350, #145 ) ;
#187 = DIRECTION ( 'NONE',  ( 0.000000000000000000, 0.000000000000000000, -1.000000000000000000 ) ) ;
#188 = ORIENTED_EDGE ( 'NONE', *, *, #59, .T. ) ;
#189 = CARTESIAN_POINT ( 'NONE',  ( 6.288372600415924140E-15, 11.99999999999999645, 0.000000000000000000 ) ) ;
#190 = ADVANCED_FACE ( 'NONE', ( #271 ), #101, .T. ) ;
#191 = FILL_AREA_STYLE_COLOUR ( '', #104 ) ;
#192 = SURFACE_SIDE_STYLE ('',( #312 ) ) ;
#193 = ORIENTED_EDGE ( 'NONE', *, *, #109, .T. ) ;
#194 =( NAMED_UNIT ( * ) SI_UNIT ( $, .STERADIAN. ) SOLID_ANGLE_UNIT ( ) );
#195 = ORIENTED_EDGE ( 'NONE', *, *, #293, .F. ) ;
#196 =( NAMED_UNIT ( * ) PLANE_ANGLE_UNIT ( ) SI_UNIT ( $, .RADIAN. ) );
#197 = CARTESIAN_POINT ( 'NONE',  ( 0.000000000000000000, 0.000000000000000000, 0.000000000000000000 ) ) ;
#198 = MECHANICAL_DESIGN_GEOMETRIC_PRESENTATION_REPRESENTATION (  '', ( #140 ), #348 ) ;
#199 =( GEOMETRIC_REPRESENTATION_CONTEXT ( 3 ) GLOBAL_UNCERTAINTY_ASSIGNED_CONTEXT ( ( #301 ) ) GLOBAL_UNIT_ASSIGNED_CONTEXT ( ( #113, #201, #31 ) ) REPRESENTATION_CONTEXT ( 'NONE', 'WORKASPACE' ) );
#200 = CARTESIAN_POINT ( 'NONE',  ( 0.000000000000000000, 1.000000000000000000, -4.000000000000000000 ) ) ;
#201 =( NAMED_UNIT ( * ) PLANE_ANGLE_UNIT ( ) SI_UNIT ( $, .RADIAN. ) );
#202 = EDGE_LOOP ( 'NONE', ( #255, #86, #292, #283 ) ) ;
#203 = EDGE_CURVE ( 'NONE', #77, #322, #82, .T. ) ;
#204 =( LENGTH_UNIT ( ) NAMED_UNIT ( * ) SI_UNIT ( .MILLI., .METRE. ) );
#205 = EDGE_LOOP ( 'NONE', ( #257, #163, #321, #81 ) ) ;
#206 =( GEOMETRIC_REPRESENTATION_CONTEXT ( 3 ) GLOBAL_UNCERTAINTY_ASSIGNED_CONTEXT ( ( #209 ) ) GLOBAL_UNIT_ASSIGNED_CONTEXT ( ( #249, #97, #44 ) ) REPRESENTATION_CONTEXT ( 'NONE', 'WORKASPACE' ) );
#207 = PRESENTATION_STYLE_ASSIGNMENT (( #95 ) ) ;
#208 = PLANE ( 'NONE',  #284 ) ;
#209 = UNCERTAINTY_MEASURE_WITH_UNIT (LENGTH_MEASURE( 1.000000000000000082E-05 ), #249, 'distance_accuracy_value', 'NONE');
#210 = EDGE_CURVE ( 'NONE', #141, #155, #319, .T. ) ;
#211 = DIRECTION ( 'NONE',  ( -0.000000000000000000, -1.000000000000000000, -0.000000000000000000 ) ) ;
#212 =( GEOMETRIC_REPRESENTATION_CONTEXT ( 3 ) GLOBAL_UNCERTAINTY_ASSIGNED_CONTEXT ( ( #305 ) ) GLOBAL_UNIT_ASSIGNED_CONTEXT ( ( #26, #159, #131 ) ) REPRESENTATION_CONTEXT ( 'NONE', 'WORKASPACE' ) );
#213 = DIRECTION ( 'NONE',  ( 1.000000000000000000, 0.000000000000000000, -1.224646799147353207E-16 ) ) ;
#214 = DIRECTION ( 'NONE',  ( -1.000000000000000000, -2.697787857885250373E-16, 0.000000000000000000 ) ) ;
#215 =( NAMED_UNIT ( * ) PLANE_ANGLE_UNIT ( ) SI_UNIT ( $, .RADIAN. ) );
#216 = PLANE ( 'NONE',  #264 ) ;
#217 = AXIS2_PLACEMENT_3D ( 'NONE', #352, #213, #333 ) ;
#218 = CIRCLE ( 'NONE', #19, 4.000000000000000000 ) ;
#219 = EDGE_CURVE ( 'NONE', #77, #155, #126, .T. ) ;
#220 = DIRECTION ( 'NONE',  ( -1.000000000000000000, -4.336808689942024146E-16, 0.000000000000000000 ) ) ;
#221 = ORIENTED_EDGE ( 'NONE', *, *, #210, .F. ) ;
#222 = VERTEX_POINT ( 'NONE', #334 ) ;
#223 = TOROIDAL_SURFACE ( 'NONE', #123, 3.000000000000000000, 1.000000000000000000 ) ;
#224 = AXIS2_PLACEMENT_3D ( 'NONE', #358, #9, #270 ) ;
#225 = FACE_OUTER_BOUND ( 'NONE', #323, .T. ) ;
#226 = AXIS2_PLACEMENT_3D ( 'NONE', #27, #161, #286 ) ;
#227 = VECTOR ( 'NONE', #11, 1000.000000000000000 ) ;
#228 = SURFACE_STYLE_USAGE ( .BOTH. , #318 ) ;
#229 = ORIENTED_EDGE ( 'NONE', *, *, #272, .T. ) ;
#230 = CARTESIAN_POINT ( 'NONE',  ( 0.000000000000000000, 12.00000000000000000, 0.000000000000000000 ) ) ;
#231 = SURFACE_SIDE_STYLE ('',( #51 ) ) ;
#232 = CARTESIAN_POINT ( 'NONE',  ( 4.000000000000000000, 11.99999999999999822, 4.898587196589418745E-16 ) ) ;
#233 = CARTESIAN_POINT ( 'NONE',  ( 4.000000000000000000, 63.00000000000000000, 4.898587196589418745E-16 ) ) ;
#234 = UNCERTAINTY_MEASURE_WITH_UNIT (LENGTH_MEASURE( 1.000000000000000082E-05 ), #93, 'distance_accuracy_value', 'NONE');
#235 = AXIS2_PLACEMENT_3D ( 'NONE', #50, #339, #252 ) ;
#236 = CARTESIAN_POINT ( 'NONE',  ( 0.000000000000000000, 1.000000000000000000, 0.000000000000000000 ) ) ;
#237 = EDGE_CURVE ( 'NONE', #367, #277, #180, .T. ) ;
#238 = DIRECTION ( 'NONE',  ( 0.000000000000000000, 0.000000000000000000, 1.000000000000000000 ) ) ;
#239 = UNCERTAINTY_MEASURE_WITH_UNIT (LENGTH_MEASURE( 1.000000000000000082E-05 ), #114, 'distance_accuracy_value', 'NONE');
#240 = DIRECTION ( 'NONE',  ( -0.000000000000000000, -1.000000000000000000, -0.000000000000000000 ) ) ;
#241 = ORIENTED_EDGE ( 'NONE', *, *, #158, .F. ) ;
#242 = PLANE ( 'NONE',  #186 ) ;
#243 = SURFACE_STYLE_USAGE ( .BOTH. , #178 ) ;
#244 = EDGE_LOOP ( 'NONE', ( #28, #54 ) ) ;
#245 =( GEOMETRIC_REPRESENTATION_CONTEXT ( 3 ) GLOBAL_UNCERTAINTY_ASSIGNED_CONTEXT ( ( #65 ) ) GLOBAL_UNIT_ASSIGNED_CONTEXT ( ( #139, #118, #15 ) ) REPRESENTATION_CONTEXT ( 'NONE', 'WORKASPACE' ) );
#246 = PRESENTATION_LAYER_ASSIGNMENT (  '', '', ( #344 ) ) ;
#247 = APPLICATION_CONTEXT ( 'automotive_design' ) ;
#248 = ADVANCED_FACE ( 'NONE', ( #106 ), #216, .T. ) ;
#249 =( LENGTH_UNIT ( ) NAMED_UNIT ( * ) SI_UNIT ( .MILLI., .METRE. ) );
#250 = DIRECTION ( 'NONE',  ( -2.697787857885250373E-16, 1.000000000000000000, -0.000000000000000000 ) ) ;
#251 = CLOSED_SHELL ( 'NONE', ( #296, #84, #23, #8 ) ) ;
#252 = DIRECTION ( 'NONE',  ( -1.000000000000000000, 0.000000000000000000, 0.000000000000000000 ) ) ;
#253 = AXIS2_PLACEMENT_3D ( 'NONE', #182, #152, #154 ) ;
#254 = AXIS2_PLACEMENT_3D ( 'NONE', #304, #147, #275 ) ;
#255 = ORIENTED_EDGE ( 'NONE', *, *, #293, .T. ) ;
#256 = PRESENTATION_STYLE_ASSIGNMENT (( #364 ) ) ;
#257 = ORIENTED_EDGE ( 'NONE', *, *, #203, .T. ) ;
#258 = ORIENTED_EDGE ( 'NONE', *, *, #59, .F. ) ;
#259 = MECHANICAL_DESIGN_GEOMETRIC_PRESENTATION_REPRESENTATION (  '', ( #150 ), #245 ) ;
#260 = FILL_AREA_STYLE ('',( #60 ) ) ;
#261 = ADVANCED_FACE ( 'NONE', ( #313 ), #49, .T. ) ;
#262 = FILL_AREA_STYLE_COLOUR ( '', #361 ) ;
#263 = FACE_OUTER_BOUND ( 'NONE', #169, .T. ) ;
#264 = AXIS2_PLACEMENT_3D ( 'NONE', #337, #76, #187 ) ;
#265 = MECHANICAL_DESIGN_GEOMETRIC_PRESENTATION_REPRESENTATION (  '', ( #320 ), #70 ) ;
#266 = EDGE_LOOP ( 'NONE', ( #61, #258 ) ) ;
#267 = MANIFOLD_SOLID_BREP ( 'Revolve - Tool Body (Straight Shanked)', #251 ) ;
#268 = CARTESIAN_POINT ( 'NONE',  ( 0.000000000000000000, 1.000000000000000000, -3.000000000000000000 ) ) ;
#269 = CARTESIAN_POINT ( 'NONE',  ( -4.000000000000015987, 63.00000000000000000, 0.000000000000000000 ) ) ;
#270 = DIRECTION ( 'NONE',  ( -1.000000000000000000, 0.000000000000000000, 0.000000000000000000 ) ) ;
#271 = FACE_OUTER_BOUND ( 'NONE', #202, .T. ) ;
#272 = EDGE_CURVE ( 'NONE', #160, #300, #316, .T. ) ;
#273 = AXIS2_PLACEMENT_3D ( 'NONE', #121, #240, #39 ) ;
#274 = AXIS2_PLACEMENT_3D ( 'NONE', #268, #151, #238 ) ;
#275 = DIRECTION ( 'NONE',  ( 1.000000000000000000, 0.000000000000000000, 0.000000000000000000 ) ) ;
#276 = FILL_AREA_STYLE ('',( #41 ) ) ;
#277 = VERTEX_POINT ( 'NONE', #200 ) ;
#278 = SHAPE_DEFINITION_REPRESENTATION ( #369, #144 ) ;
#279 = UNCERTAINTY_MEASURE_WITH_UNIT (LENGTH_MEASURE( 1.000000000000000082E-05 ), #80, 'distance_accuracy_value', 'NONE');
#280 = EDGE_LOOP ( 'NONE', ( #125, #18, #129, #105 ) ) ;
#281 = ADVANCED_FACE ( 'NONE', ( #83 ), #25, .T. ) ;
#282 = CARTESIAN_POINT ( 'NONE',  ( -3.999999999999988010, 11.99999999999999467, 0.000000000000000000 ) ) ;
#283 = ORIENTED_EDGE ( 'NONE', *, *, #103, .F. ) ;
#284 = AXIS2_PLACEMENT_3D ( 'NONE', #359, #122, #214 ) ;
#285 = MECHANICAL_DESIGN_GEOMETRIC_PRESENTATION_REPRESENTATION (  '', ( #307 ), #199 ) ;
#286 = DIRECTION ( 'NONE',  ( 0.000000000000000000, 0.000000000000000000, -1.000000000000000000 ) ) ;
#287 = FILL_AREA_STYLE_COLOUR ( '', #360 ) ;
#288 = ORIENTED_EDGE ( 'NONE', *, *, #237, .T. ) ;
#289 = MECHANICAL_DESIGN_GEOMETRIC_PRESENTATION_REPRESENTATION (  '', ( #311 ), #212 ) ;
#290 = DIRECTION ( 'NONE',  ( -2.697787857885250373E-16, 1.000000000000000000, -0.000000000000000000 ) ) ;
#291 = PRESENTATION_STYLE_ASSIGNMENT (( #171 ) ) ;
#292 = ORIENTED_EDGE ( 'NONE', *, *, #143, .F. ) ;
#293 = EDGE_CURVE ( 'NONE', #222, #165, #218, .T. ) ;
#294 = CARTESIAN_POINT ( 'NONE',  ( 0.000000000000000000, 0.000000000000000000, 0.000000000000000000 ) ) ;
#295 =( LENGTH_UNIT ( ) NAMED_UNIT ( * ) SI_UNIT ( .MILLI., .METRE. ) );
#296 = ADVANCED_FACE ( 'NONE', ( #356 ), #88, .T. ) ;
#297 = CARTESIAN_POINT ( 'NONE',  ( 0.000000000000000000, 1.000000000000000000, 0.000000000000000000 ) ) ;
#298 = FACE_OUTER_BOUND ( 'NONE', #244, .T. ) ;
#299 = PRESENTATION_STYLE_ASSIGNMENT (( #7 ) ) ;
#300 = VERTEX_POINT ( 'NONE', #179 ) ;
#301 = UNCERTAINTY_MEASURE_WITH_UNIT (LENGTH_MEASURE( 1.000000000000000082E-05 ), #113, 'distance_accuracy_value', 'NONE');
#302 =( NAMED_UNIT ( * ) PLANE_ANGLE_UNIT ( ) SI_UNIT ( $, .RADIAN. ) );
#303 = DIRECTION ( 'NONE',  ( -1.000000000000000000, 0.000000000000000000, 0.000000000000000000 ) ) ;
#304 = CARTESIAN_POINT ( 'NONE',  ( 0.000000000000000000, 0.000000000000000000, 0.000000000000000000 ) ) ;
#305 = UNCERTAINTY_MEASURE_WITH_UNIT (LENGTH_MEASURE( 1.000000000000000082E-05 ), #26, 'distance_accuracy_value', 'NONE');
#306 = CIRCLE ( 'NONE', #217, 1.000000000000000000 ) ;
#307 = STYLED_ITEM ( 'NONE', ( #55 ), #281 ) ;
#308 = FILL_AREA_STYLE_COLOUR ( '', #112 ) ;
#309 = ORIENTED_EDGE ( 'NONE', *, *, #103, .T. ) ;
#310 = DIRECTION ( 'NONE',  ( -2.697787857885250373E-16, 1.000000000000000000, -0.000000000000000000 ) ) ;
#311 = STYLED_ITEM ( 'NONE', ( #134 ), #248 ) ;
#312 = SURFACE_STYLE_FILL_AREA ( #363 ) ;
#313 = FACE_OUTER_BOUND ( 'NONE', #338, .T. ) ;
#314 = FILL_AREA_STYLE ('',( #108 ) ) ;
#315 = CIRCLE ( 'NONE', #273, 4.000000000000000000 ) ;
#316 = CIRCLE ( 'NONE', #13, 3.000000000000000000 ) ;
#317 = ORIENTED_EDGE ( 'NONE', *, *, #96, .T. ) ;
#318 = SURFACE_SIDE_STYLE ('',( #138 ) ) ;
#319 = CIRCLE ( 'NONE', #235, 4.000000000000007994 ) ;
#320 = STYLED_ITEM ( 'NONE', ( #207 ), #340 ) ;
#321 = ORIENTED_EDGE ( 'NONE', *, *, #172, .F. ) ;
#322 = VERTEX_POINT ( 'NONE', #232 ) ;
#323 = EDGE_LOOP ( 'NONE', ( #136, #188, #5, #221 ) ) ;
#324 = CARTESIAN_POINT ( 'NONE',  ( 4.898587196589412829E-16, 1.000000000000000000, 4.000000000000000000 ) ) ;
#325 = CARTESIAN_POINT ( 'NONE',  ( 4.898587196589412829E-16, 12.00000000000000000, 4.000000000000000000 ) ) ;
#326 = APPLICATION_PROTOCOL_DEFINITION ( 'draft international standard', 'automotive_design', 1998, #247 ) ;
#327 = DIRECTION ( 'NONE',  ( 0.000000000000000000, 0.000000000000000000, -1.000000000000000000 ) ) ;
#328 = PRODUCT_CONTEXT ( 'NONE', #247, 'mechanical' ) ;
#329 = EDGE_CURVE ( 'NONE', #277, #300, #336, .T. ) ;
#330 = CARTESIAN_POINT ( 'NONE',  ( -7.470345474798853504E-15, 63.00000000000000000, 0.000000000000000000 ) ) ;
#331 = AXIS2_PLACEMENT_3D ( 'NONE', #189, #250, #220 ) ;
#332 =( NAMED_UNIT ( * ) PLANE_ANGLE_UNIT ( ) SI_UNIT ( $, .RADIAN. ) );
#333 = DIRECTION ( 'NONE',  ( -1.224646799147352961E-16, 0.000000000000000000, -1.000000000000000000 ) ) ;
#334 = CARTESIAN_POINT ( 'NONE',  ( 0.000000000000000000, 12.00000000000000000, -4.000000000000000000 ) ) ;
#335 = COLOUR_RGB ( '',0.7921568627450980005, 0.8196078431372548767, 0.9333333333333333481 ) ;
#336 = CIRCLE ( 'NONE', #274, 1.000000000000000000 ) ;
#337 = CARTESIAN_POINT ( 'NONE',  ( 0.000000000000000000, 0.000000000000000000, 0.000000000000000000 ) ) ;
#338 = EDGE_LOOP ( 'NONE', ( #132, #317, #309, #58 ) ) ;
#339 = DIRECTION ( 'NONE',  ( -2.697787857885250373E-16, 1.000000000000000000, -0.000000000000000000 ) ) ;
#340 = ADVANCED_FACE ( 'NONE', ( #62 ), #242, .T. ) ;
#341 = EDGE_LOOP ( 'NONE', ( #193, #229 ) ) ;
#342 = MECHANICAL_DESIGN_GEOMETRIC_PRESENTATION_REPRESENTATION (  '', ( #12 ), #206 ) ;
#343 = SURFACE_SIDE_STYLE ('',( #32 ) ) ;
#344 = STYLED_ITEM ( 'NONE', ( #1 ), #267 ) ;
#345 = DIRECTION ( 'NONE',  ( 1.000000000000000000, 2.697787857885250373E-16, 0.000000000000000000 ) ) ;
#346 = CARTESIAN_POINT ( 'NONE',  ( 0.000000000000000000, 12.00000000000000000, 0.000000000000000000 ) ) ;
#347 =( NAMED_UNIT ( * ) PLANE_ANGLE_UNIT ( ) SI_UNIT ( $, .RADIAN. ) );
#348 =( GEOMETRIC_REPRESENTATION_CONTEXT ( 3 ) GLOBAL_UNCERTAINTY_ASSIGNED_CONTEXT ( ( #279 ) ) GLOBAL_UNIT_ASSIGNED_CONTEXT ( ( #80, #215, #156 ) ) REPRESENTATION_CONTEXT ( 'NONE', 'WORKASPACE' ) );
#349 =( NAMED_UNIT ( * ) SI_UNIT ( $, .STERADIAN. ) SOLID_ANGLE_UNIT ( ) );
#350 = DIRECTION ( 'NONE',  ( 0.000000000000000000, 1.000000000000000000, 0.000000000000000000 ) ) ;
#351 = SURFACE_SIDE_STYLE ('',( #153 ) ) ;
#352 = CARTESIAN_POINT ( 'NONE',  ( 3.673940397442059868E-16, 1.000000000000000000, 3.000000000000000000 ) ) ;
#353 = CLOSED_SHELL ( 'NONE', ( #190, #281, #248, #14, #261, #340 ) ) ;
#354 = DIRECTION ( 'NONE',  ( 0.000000000000000000, 0.000000000000000000, -1.000000000000000000 ) ) ;
#355 = EDGE_CURVE ( 'NONE', #165, #367, #174, .T. ) ;
#356 = FACE_OUTER_BOUND ( 'NONE', #205, .T. ) ;
#357 = DIRECTION ( 'NONE',  ( -1.000000000000000000, 0.000000000000000000, 0.000000000000000000 ) ) ;
#358 = CARTESIAN_POINT ( 'NONE',  ( -7.470345474798853504E-15, 63.00000000000000000, 0.000000000000000000 ) ) ;
#359 = CARTESIAN_POINT ( 'NONE',  ( 6.288372600415925717E-15, 12.00000000000000000, 0.000000000000000000 ) ) ;
#360 = COLOUR_RGB ( '',1.000000000000000000, 0.000000000000000000, 0.000000000000000000 ) ;
#361 = COLOUR_RGB ( '',1.000000000000000000, 0.000000000000000000, 0.000000000000000000 ) ;
#362 = FACE_OUTER_BOUND ( 'NONE', #266, .T. ) ;
#363 = FILL_AREA_STYLE ('',( #53 ) ) ;
#364 = SURFACE_STYLE_USAGE ( .BOTH. , #100 ) ;
#365 = AXIS2_PLACEMENT_3D ( 'NONE', #175, #92, #327 ) ;
#366 = SURFACE_SIDE_STYLE ('',( #127 ) ) ;
#367 = VERTEX_POINT ( 'NONE', #324 ) ;
#368 = CARTESIAN_POINT ( 'NONE',  ( 3.999999999999993339, 63.00000000000000000, 4.898587196589413815E-16 ) ) ;
#369 = PRODUCT_DEFINITION_SHAPE ( 'NONE', 'NONE',  #133 ) ;
#370 = DIRECTION ( 'NONE',  ( -2.697787857885250373E-16, 1.000000000000000000, -0.000000000000000000 ) ) ;
ENDSEC;
END-ISO-10303-21;
