ISO-10303-21;
HEADER;
FILE_DESCRIPTION (( 'STEP AP214' ),
    '1' );
FILE_NAME ('Micro_RNCM-050-1X.STEP',
    '2021-09-03T17:41:04',
    ( '' ),
    ( '' ),
    'SwSTEP 2.0',
    'SolidWorks 2020',
    '' );
FILE_SCHEMA (( 'AUTOMOTIVE_DESIGN' ));
ENDSEC;

DATA;
#1 = DIRECTION ( 'NONE',  ( -0.0000000000000000000, -0.0000000000000000000, -1.000000000000000000 ) ) ;
#2 =( LENGTH_UNIT ( ) NAMED_UNIT ( * ) SI_UNIT ( $, .METRE. ) );
#3 = ADVANCED_FACE ( 'NONE', ( #193 ), #14, .T. ) ;
#4 = MANIFOLD_SOLID_BREP ( 'Cut-Revolve1', #111 ) ;
#5 = DIRECTION ( 'NONE',  ( 1.000000000000000000, 0.0000000000000000000, 0.0000000000000000000 ) ) ;
#6 = PRODUCT_DEFINITION_CONTEXT ( 'detailed design', #32, 'design' ) ;
#7 = SHAPE_DEFINITION_REPRESENTATION ( #83, #109 ) ;
#8 =( NAMED_UNIT ( * ) SI_UNIT ( $, .STERADIAN. ) SOLID_ANGLE_UNIT ( ) );
#9 = VECTOR ( 'NONE', #136, 39.37007874015748854 ) ;
#10 = DIRECTION ( 'NONE',  ( 0.0000000000000000000, 0.0000000000000000000, -1.000000000000000000 ) ) ;
#11 = EDGE_CURVE ( 'NONE', #217, #137, #168, .T. ) ;
#12 = ORIENTED_EDGE ( 'NONE', *, *, #114, .F. ) ;
#13 = FACE_OUTER_BOUND ( 'NONE', #50, .T. ) ;
#14 = CONICAL_SURFACE ( 'NONE', #66, 0.003936999999999995191, 0.7853981633974504994 ) ;
#15 = EDGE_CURVE ( 'NONE', #217, #181, #35, .T. ) ;
#16 = EDGE_LOOP ( 'NONE', ( #183, #175 ) ) ;
#17 = DIRECTION ( 'NONE',  ( 0.7071067811865490160, 0.0000000000000000000, 0.7071067811865459074 ) ) ;
#18 = CARTESIAN_POINT ( 'NONE',  ( -0.003936999999999995191, 4.821434448243123477E-19, 0.0000000000000000000 ) ) ;
#19 = VECTOR ( 'NONE', #17, 39.37007874015748854 ) ;
#20 = ADVANCED_FACE ( 'NONE', ( #73 ), #85, .T. ) ;
#21 = ORIENTED_EDGE ( 'NONE', *, *, #70, .T. ) ;
#22 = CARTESIAN_POINT ( 'NONE',  ( -0.003936999999999995191, 6.267864782716068801E-18, 0.0000000000000000000 ) ) ;
#23 = PRODUCT ( 'Micro_RNCM-050-1X', 'Micro_RNCM-050-1X', '', ( #164 ) ) ;
#24 = AXIS2_PLACEMENT_3D ( 'NONE', #123, #141, #78 ) ;
#25 = CARTESIAN_POINT ( 'NONE',  ( 0.003936999999999995191, 0.0000000000000000000, 0.0000000000000000000 ) ) ;
#26 = LINE ( 'NONE', #81, #60 ) ;
#27 = CARTESIAN_POINT ( 'NONE',  ( 0.0000000000000000000, 0.0000000000000000000, 1.953503999999999685 ) ) ;
#28 = AXIS2_PLACEMENT_3D ( 'NONE', #93, #155, #92 ) ;
#29 = ADVANCED_FACE ( 'NONE', ( #190 ), #113, .F. ) ;
#30 = AXIS2_PLACEMENT_3D ( 'NONE', #231, #39, #151 ) ;
#31 = DIRECTION ( 'NONE',  ( 0.0000000000000000000, 0.0000000000000000000, 1.000000000000000000 ) ) ;
#32 = APPLICATION_CONTEXT ( 'automotive_design' ) ;
#33 = ORIENTED_EDGE ( 'NONE', *, *, #15, .F. ) ;
#34 = DIRECTION ( 'NONE',  ( 1.000000000000000000, 0.0000000000000000000, 0.0000000000000000000 ) ) ;
#35 = CIRCLE ( 'NONE', #84, 0.09842500000000001248 ) ;
#36 = CARTESIAN_POINT ( 'NONE',  ( 0.08342499999999994365, 1.021661592188678507E-17, 1.968503999999999809 ) ) ;
#37 = CARTESIAN_POINT ( 'NONE',  ( 0.0000000000000000000, 0.0000000000000000000, 1.968503999999999809 ) ) ;
#38 = ORIENTED_EDGE ( 'NONE', *, *, #226, .T. ) ;
#39 = DIRECTION ( 'NONE',  ( 0.0000000000000000000, 0.0000000000000000000, 1.000000000000000000 ) ) ;
#40 =( GEOMETRIC_REPRESENTATION_CONTEXT ( 3 ) GLOBAL_UNCERTAINTY_ASSIGNED_CONTEXT ( ( #216 ) ) GLOBAL_UNIT_ASSIGNED_CONTEXT ( ( #235, #218, #194 ) ) REPRESENTATION_CONTEXT ( 'NONE', 'WORKASPACE' ) );
#41 = CARTESIAN_POINT ( 'NONE',  ( 0.0000000000000000000, 0.0000000000000000000, 0.0000000000000000000 ) ) ;
#42 = AXIS2_PLACEMENT_3D ( 'NONE', #247, #54, #94 ) ;
#43 = DIRECTION ( 'NONE',  ( -0.7071067811865430208, 0.0000000000000000000, -0.7071067811865517916 ) ) ;
#44 = STYLED_ITEM ( 'NONE', ( #205 ), #4 ) ;
#45 = CIRCLE ( 'NONE', #238, 0.003936999999999995191 ) ;
#46 =( NAMED_UNIT ( * ) PLANE_ANGLE_UNIT ( ) SI_UNIT ( $, .RADIAN. ) );
#47 = UNCERTAINTY_MEASURE_WITH_UNIT (LENGTH_MEASURE( 1.000000000000000082E-05 ), #185, 'distance_accuracy_value', 'NONE');
#48 = ORIENTED_EDGE ( 'NONE', *, *, #64, .T. ) ;
#49 = CYLINDRICAL_SURFACE ( 'NONE', #245, 0.09842500000000001248 ) ;
#50 = EDGE_LOOP ( 'NONE', ( #38, #192, #130, #142 ) ) ;
#51 = CARTESIAN_POINT ( 'NONE',  ( 0.0000000000000000000, 0.0000000000000000000, 0.09448799999999960009 ) ) ;
#52 = LINE ( 'NONE', #134, #161 ) ;
#53 = ADVANCED_FACE ( 'NONE', ( #117 ), #115, .T. ) ;
#54 = DIRECTION ( 'NONE',  ( 0.0000000000000000000, 0.0000000000000000000, 1.000000000000000000 ) ) ;
#55 = ORIENTED_EDGE ( 'NONE', *, *, #127, .T. ) ;
#56 = DIRECTION ( 'NONE',  ( -1.000000000000000000, 0.0000000000000000000, 0.0000000000000000000 ) ) ;
#57 = CIRCLE ( 'NONE', #180, 0.08342499999999994365 ) ;
#58 = DIMENSIONAL_EXPONENTS ( 1.000000000000000000, 0.0000000000000000000, 0.0000000000000000000, 0.0000000000000000000, 0.0000000000000000000, 0.0000000000000000000, 0.0000000000000000000 ) ;
#59 = LENGTH_MEASURE_WITH_UNIT ( LENGTH_MEASURE( 0.02539999999999999897 ), #103 );
#60 = VECTOR ( 'NONE', #43, 39.37007874015748854 ) ;
#61 = ORIENTED_EDGE ( 'NONE', *, *, #64, .F. ) ;
#62 = EDGE_CURVE ( 'NONE', #137, #110, #225, .T. ) ;
#63 = APPLICATION_PROTOCOL_DEFINITION ( 'draft international standard', 'automotive_design', 1998, #32 ) ;
#64 = EDGE_CURVE ( 'NONE', #249, #137, #184, .T. ) ;
#65 = CARTESIAN_POINT ( 'NONE',  ( 0.0000000000000000000, 0.0000000000000000000, 1.953503999999999685 ) ) ;
#66 = AXIS2_PLACEMENT_3D ( 'NONE', #99, #177, #86 ) ;
#67 = ORIENTED_EDGE ( 'NONE', *, *, #187, .F. ) ;
#68 = DIRECTION ( 'NONE',  ( -1.000000000000000000, 0.0000000000000000000, 0.0000000000000000000 ) ) ;
#69 = DIRECTION ( 'NONE',  ( 0.0000000000000000000, 0.0000000000000000000, -1.000000000000000000 ) ) ;
#70 = EDGE_CURVE ( 'NONE', #110, #137, #195, .T. ) ;
#71 = CARTESIAN_POINT ( 'NONE',  ( 0.0000000000000000000, 0.0000000000000000000, 0.0000000000000000000 ) ) ;
#72 = AXIS2_PLACEMENT_3D ( 'NONE', #71, #1, #153 ) ;
#73 = FACE_OUTER_BOUND ( 'NONE', #199, .T. ) ;
#74 = DIRECTION ( 'NONE',  ( -0.0000000000000000000, -0.0000000000000000000, -1.000000000000000000 ) ) ;
#75 = ORIENTED_EDGE ( 'NONE', *, *, #228, .T. ) ;
#76 = SURFACE_STYLE_FILL_AREA ( #105 ) ;
#77 =( NAMED_UNIT ( * ) SI_UNIT ( $, .STERADIAN. ) SOLID_ANGLE_UNIT ( ) );
#78 = DIRECTION ( 'NONE',  ( 1.000000000000000000, 0.0000000000000000000, 0.0000000000000000000 ) ) ;
#79 = VERTEX_POINT ( 'NONE', #171 ) ;
#80 = ADVANCED_FACE ( 'NONE', ( #186 ), #152, .T. ) ;
#81 = CARTESIAN_POINT ( 'NONE',  ( -0.08342499999999994365, 0.0000000000000000000, 1.968503999999999809 ) ) ;
#82 = PRESENTATION_STYLE_ASSIGNMENT (( #101 ) ) ;
#83 = PRODUCT_DEFINITION_SHAPE ( 'NONE', 'NONE',  #179 ) ;
#84 = AXIS2_PLACEMENT_3D ( 'NONE', #65, #10, #34 ) ;
#85 = CONICAL_SURFACE ( 'NONE', #28, 0.08342499999999994365, 0.7853981633974420618 ) ;
#86 = DIRECTION ( 'NONE',  ( 1.000000000000000000, 0.0000000000000000000, 0.0000000000000000000 ) ) ;
#87 = EDGE_CURVE ( 'NONE', #135, #249, #158, .T. ) ;
#88 =( GEOMETRIC_REPRESENTATION_CONTEXT ( 3 ) GLOBAL_UNCERTAINTY_ASSIGNED_CONTEXT ( ( #236 ) ) GLOBAL_UNIT_ASSIGNED_CONTEXT ( ( #240, #145, #77 ) ) REPRESENTATION_CONTEXT ( 'NONE', 'WORKASPACE' ) );
#89 = CYLINDRICAL_SURFACE ( 'NONE', #139, 0.09842500000000001248 ) ;
#90 = FILL_AREA_STYLE_COLOUR ( '', #210 ) ;
#91 = ORIENTED_EDGE ( 'NONE', *, *, #11, .F. ) ;
#92 = DIRECTION ( 'NONE',  ( -1.000000000000000000, 0.0000000000000000000, 0.0000000000000000000 ) ) ;
#93 = CARTESIAN_POINT ( 'NONE',  ( 0.0000000000000000000, 0.0000000000000000000, 1.968503999999999809 ) ) ;
#94 = DIRECTION ( 'NONE',  ( 1.000000000000000000, 0.0000000000000000000, -0.0000000000000000000 ) ) ;
#95 = CONICAL_SURFACE ( 'NONE', #24, 0.003936999999999995191, 0.7853981633974504994 ) ;
#96 = VERTEX_POINT ( 'NONE', #207 ) ;
#97 = CARTESIAN_POINT ( 'NONE',  ( 0.0000000000000000000, 0.0000000000000000000, 1.968503999999999809 ) ) ;
#98 = EDGE_LOOP ( 'NONE', ( #189, #55, #132, #102 ) ) ;
#99 = CARTESIAN_POINT ( 'NONE',  ( 0.0000000000000000000, 0.0000000000000000000, 0.0000000000000000000 ) ) ;
#100 = LENGTH_MEASURE_WITH_UNIT ( LENGTH_MEASURE( 0.02539999999999999897 ), #2 );
#101 = SURFACE_STYLE_USAGE ( .BOTH. , #157 ) ;
#102 = ORIENTED_EDGE ( 'NONE', *, *, #228, .F. ) ;
#103 =( LENGTH_UNIT ( ) NAMED_UNIT ( * ) SI_UNIT ( $, .METRE. ) );
#104 = ORIENTED_EDGE ( 'NONE', *, *, #62, .T. ) ;
#105 = FILL_AREA_STYLE ('',( #215 ) ) ;
#106 = PRESENTATION_LAYER_ASSIGNMENT (  '', '', ( #44 ) ) ;
#107 = PRESENTATION_LAYER_ASSIGNMENT (  '', '', ( #211 ) ) ;
#108 = AXIS2_PLACEMENT_3D ( 'NONE', #248, #74, #170 ) ;
#109 = ADVANCED_BREP_SHAPE_REPRESENTATION ( 'Micro_RNCM-050-1X', ( #4, #233 ), #40 ) ;
#110 = VERTEX_POINT ( 'NONE', #156 ) ;
#111 = CLOSED_SHELL ( 'NONE', ( #3, #80, #198, #220, #53, #20, #243, #29 ) ) ;
#112 = EDGE_LOOP ( 'NONE', ( #196, #214 ) ) ;
#113 = PLANE ( 'NONE',  #42 ) ;
#114 = EDGE_CURVE ( 'NONE', #135, #110, #230, .T. ) ;
#115 = PLANE ( 'NONE',  #30 ) ;
#116 = DIRECTION ( 'NONE',  ( 0.0000000000000000000, 0.0000000000000000000, 1.000000000000000000 ) ) ;
#117 = FACE_OUTER_BOUND ( 'NONE', #16, .T. ) ;
#118 = CIRCLE ( 'NONE', #128, 0.09842500000000001248 ) ;
#119 = PRODUCT_RELATED_PRODUCT_CATEGORY ( 'part', '', ( #23 ) ) ;
#120 = ORIENTED_EDGE ( 'NONE', *, *, #129, .T. ) ;
#121 = DIRECTION ( 'NONE',  ( -0.0000000000000000000, -0.0000000000000000000, -1.000000000000000000 ) ) ;
#122 = DIMENSIONAL_EXPONENTS ( 1.000000000000000000, 0.0000000000000000000, 0.0000000000000000000, 0.0000000000000000000, 0.0000000000000000000, 0.0000000000000000000, 0.0000000000000000000 ) ;
#123 = CARTESIAN_POINT ( 'NONE',  ( 0.0000000000000000000, 0.0000000000000000000, 0.0000000000000000000 ) ) ;
#124 = AXIS2_PLACEMENT_3D ( 'NONE', #97, #69, #232 ) ;
#125 = EDGE_LOOP ( 'NONE', ( #159, #206, #21, #61 ) ) ;
#126 = PRODUCT_DEFINITION_FORMATION_WITH_SPECIFIED_SOURCE ( 'ANY', '', #23, .NOT_KNOWN. ) ;
#127 = EDGE_CURVE ( 'NONE', #96, #217, #173, .T. ) ;
#128 = AXIS2_PLACEMENT_3D ( 'NONE', #27, #221, #5 ) ;
#129 = EDGE_CURVE ( 'NONE', #181, #110, #52, .T. ) ;
#130 = ORIENTED_EDGE ( 'NONE', *, *, #70, .F. ) ;
#131 = CARTESIAN_POINT ( 'NONE',  ( 0.0000000000000000000, 0.0000000000000000000, 1.968503999999999809 ) ) ;
#132 = ORIENTED_EDGE ( 'NONE', *, *, #226, .F. ) ;
#133 = DIRECTION ( 'NONE',  ( -0.0000000000000000000, -0.0000000000000000000, -1.000000000000000000 ) ) ;
#134 = CARTESIAN_POINT ( 'NONE',  ( -0.09842500000000001248, 0.0000000000000000000, 1.968503999999999809 ) ) ;
#135 = VERTEX_POINT ( 'NONE', #22 ) ;
#136 = DIRECTION ( 'NONE',  ( -0.7071067811865490160, 8.659560562354951347E-17, 0.7071067811865459074 ) ) ;
#137 = VERTEX_POINT ( 'NONE', #174 ) ;
#138 = DIRECTION ( 'NONE',  ( 1.000000000000000000, 0.0000000000000000000, 0.0000000000000000000 ) ) ;
#139 = AXIS2_PLACEMENT_3D ( 'NONE', #169, #246, #68 ) ;
#140 = FILL_AREA_STYLE ('',( #90 ) ) ;
#141 = DIRECTION ( 'NONE',  ( 0.0000000000000000000, 0.0000000000000000000, 1.000000000000000000 ) ) ;
#142 = ORIENTED_EDGE ( 'NONE', *, *, #129, .F. ) ;
#143 = DIRECTION ( 'NONE',  ( -1.000000000000000000, 0.0000000000000000000, 0.0000000000000000000 ) ) ;
#144 = SURFACE_SIDE_STYLE ('',( #162 ) ) ;
#145 =( NAMED_UNIT ( * ) PLANE_ANGLE_UNIT ( ) SI_UNIT ( $, .RADIAN. ) );
#146 = DIMENSIONAL_EXPONENTS ( 1.000000000000000000, 0.0000000000000000000, 0.0000000000000000000, 0.0000000000000000000, 0.0000000000000000000, 0.0000000000000000000, 0.0000000000000000000 ) ;
#147 = AXIS2_PLACEMENT_3D ( 'NONE', #237, #163, #222 ) ;
#148 = ORIENTED_EDGE ( 'NONE', *, *, #127, .F. ) ;
#149 = CARTESIAN_POINT ( 'NONE',  ( 0.09842500000000001248, 1.205358612060782468E-17, 1.953503999999999685 ) ) ;
#150 = ORIENTED_EDGE ( 'NONE', *, *, #176, .F. ) ;
#151 = DIRECTION ( 'NONE',  ( 1.000000000000000000, 0.0000000000000000000, -0.0000000000000000000 ) ) ;
#152 = CONICAL_SURFACE ( 'NONE', #124, 0.08342499999999994365, 0.7853981633974420618 ) ;
#153 = DIRECTION ( 'NONE',  ( -1.000000000000000000, 0.0000000000000000000, 0.0000000000000000000 ) ) ;
#154 =( LENGTH_UNIT ( ) NAMED_UNIT ( * ) SI_UNIT ( $, .METRE. ) );
#155 = DIRECTION ( 'NONE',  ( 0.0000000000000000000, 0.0000000000000000000, -1.000000000000000000 ) ) ;
#156 = CARTESIAN_POINT ( 'NONE',  ( -0.09842500000000001248, 0.0000000000000000000, 0.09448799999999960009 ) ) ;
#157 = SURFACE_SIDE_STYLE ('',( #76 ) ) ;
#158 = CIRCLE ( 'NONE', #72, 0.003936999999999995191 ) ;
#159 = ORIENTED_EDGE ( 'NONE', *, *, #87, .F. ) ;
#160 = FACE_OUTER_BOUND ( 'NONE', #212, .T. ) ;
#161 = VECTOR ( 'NONE', #208, 39.37007874015748143 ) ;
#162 = SURFACE_STYLE_FILL_AREA ( #140 ) ;
#163 = DIRECTION ( 'NONE',  ( 0.0000000000000000000, 0.0000000000000000000, 1.000000000000000000 ) ) ;
#164 = PRODUCT_CONTEXT ( 'NONE', #203, 'mechanical' ) ;
#165 = CARTESIAN_POINT ( 'NONE',  ( 0.09842500000000001248, 1.205358612060782468E-17, 1.968503999999999809 ) ) ;
#166 = COLOUR_RGB ( '',0.7921568627450980005, 0.8196078431372548767, 0.9333333333333333481 ) ;
#167 = DIRECTION ( 'NONE',  ( 1.000000000000000000, 0.0000000000000000000, 0.0000000000000000000 ) ) ;
#168 = LINE ( 'NONE', #165, #224 ) ;
#169 = CARTESIAN_POINT ( 'NONE',  ( 0.0000000000000000000, 0.0000000000000000000, 1.968503999999999809 ) ) ;
#170 = DIRECTION ( 'NONE',  ( -1.000000000000000000, 0.0000000000000000000, 0.0000000000000000000 ) ) ;
#171 = CARTESIAN_POINT ( 'NONE',  ( -0.08342499999999994365, 0.0000000000000000000, 1.968503999999999809 ) ) ;
#172 = CIRCLE ( 'NONE', #147, 0.08342499999999994365 ) ;
#173 = LINE ( 'NONE', #36, #202 ) ;
#174 = CARTESIAN_POINT ( 'NONE',  ( 0.09842500000000001248, 1.205358612060782468E-17, 0.09448799999999960009 ) ) ;
#175 = ORIENTED_EDGE ( 'NONE', *, *, #223, .T. ) ;
#176 = EDGE_CURVE ( 'NONE', #79, #96, #57, .T. ) ;
#177 = DIRECTION ( 'NONE',  ( 0.0000000000000000000, 0.0000000000000000000, 1.000000000000000000 ) ) ;
#178 = ORIENTED_EDGE ( 'NONE', *, *, #15, .T. ) ;
#179 = PRODUCT_DEFINITION ( 'UNKNOWN', '', #126, #6 ) ;
#180 = AXIS2_PLACEMENT_3D ( 'NONE', #37, #116, #138 ) ;
#181 = VERTEX_POINT ( 'NONE', #213 ) ;
#182 =( GEOMETRIC_REPRESENTATION_CONTEXT ( 3 ) GLOBAL_UNCERTAINTY_ASSIGNED_CONTEXT ( ( #47 ) ) GLOBAL_UNIT_ASSIGNED_CONTEXT ( ( #185, #46, #8 ) ) REPRESENTATION_CONTEXT ( 'NONE', 'WORKASPACE' ) );
#183 = ORIENTED_EDGE ( 'NONE', *, *, #176, .T. ) ;
#184 = LINE ( 'NONE', #204, #19 ) ;
#185 =( CONVERSION_BASED_UNIT ( 'INCH', #191 ) LENGTH_UNIT ( ) NAMED_UNIT ( #58 ) );
#186 = FACE_OUTER_BOUND ( 'NONE', #98, .T. ) ;
#187 = EDGE_CURVE ( 'NONE', #249, #135, #45, .T. ) ;
#188 = DIRECTION ( 'NONE',  ( -1.000000000000000000, 0.0000000000000000000, 0.0000000000000000000 ) ) ;
#189 = ORIENTED_EDGE ( 'NONE', *, *, #223, .F. ) ;
#190 = FACE_OUTER_BOUND ( 'NONE', #112, .T. ) ;
#191 = LENGTH_MEASURE_WITH_UNIT ( LENGTH_MEASURE( 0.02539999999999999897 ), #154 );
#192 = ORIENTED_EDGE ( 'NONE', *, *, #11, .T. ) ;
#193 = FACE_OUTER_BOUND ( 'NONE', #125, .T. ) ;
#194 =( NAMED_UNIT ( * ) SI_UNIT ( $, .STERADIAN. ) SOLID_ANGLE_UNIT ( ) );
#195 = CIRCLE ( 'NONE', #108, 0.09842500000000001248 ) ;
#196 = ORIENTED_EDGE ( 'NONE', *, *, #187, .T. ) ;
#197 = DIRECTION ( 'NONE',  ( -0.0000000000000000000, -0.0000000000000000000, -1.000000000000000000 ) ) ;
#198 = ADVANCED_FACE ( 'NONE', ( #13 ), #89, .T. ) ;
#199 = EDGE_LOOP ( 'NONE', ( #148, #150, #75, #33 ) ) ;
#200 = SURFACE_STYLE_USAGE ( .BOTH. , #144 ) ;
#201 = DIRECTION ( 'NONE',  ( -0.0000000000000000000, -0.0000000000000000000, -1.000000000000000000 ) ) ;
#202 = VECTOR ( 'NONE', #209, 39.37007874015748854 ) ;
#203 = APPLICATION_CONTEXT ( 'automotive_design' ) ;
#204 = CARTESIAN_POINT ( 'NONE',  ( 0.003936999999999995191, 0.0000000000000000000, 0.0000000000000000000 ) ) ;
#205 = PRESENTATION_STYLE_ASSIGNMENT (( #200 ) ) ;
#206 = ORIENTED_EDGE ( 'NONE', *, *, #114, .T. ) ;
#207 = CARTESIAN_POINT ( 'NONE',  ( 0.08342499999999994365, 1.113510102124730410E-17, 1.968503999999999809 ) ) ;
#208 = DIRECTION ( 'NONE',  ( -0.0000000000000000000, -0.0000000000000000000, -1.000000000000000000 ) ) ;
#209 = DIRECTION ( 'NONE',  ( 0.7071067811865430208, 8.659560562354874926E-17, -0.7071067811865517916 ) ) ;
#210 = COLOUR_RGB ( '',0.7921568627450980005, 0.8196078431372548767, 0.9333333333333333481 ) ;
#211 = STYLED_ITEM ( 'NONE', ( #82 ), #109 ) ;
#212 = EDGE_LOOP ( 'NONE', ( #12, #67, #48, #104 ) ) ;
#213 = CARTESIAN_POINT ( 'NONE',  ( -0.09842500000000001248, 0.0000000000000000000, 1.953503999999999685 ) ) ;
#214 = ORIENTED_EDGE ( 'NONE', *, *, #87, .T. ) ;
#215 = FILL_AREA_STYLE_COLOUR ( '', #166 ) ;
#216 = UNCERTAINTY_MEASURE_WITH_UNIT (LENGTH_MEASURE( 1.000000000000000082E-05 ), #235, 'distance_accuracy_value', 'NONE');
#217 = VERTEX_POINT ( 'NONE', #149 ) ;
#218 =( NAMED_UNIT ( * ) PLANE_ANGLE_UNIT ( ) SI_UNIT ( $, .RADIAN. ) );
#219 = AXIS2_PLACEMENT_3D ( 'NONE', #51, #133, #56 ) ;
#220 = ADVANCED_FACE ( 'NONE', ( #227 ), #49, .T. ) ;
#221 = DIRECTION ( 'NONE',  ( 0.0000000000000000000, 0.0000000000000000000, -1.000000000000000000 ) ) ;
#222 = DIRECTION ( 'NONE',  ( 1.000000000000000000, 0.0000000000000000000, 0.0000000000000000000 ) ) ;
#223 = EDGE_CURVE ( 'NONE', #96, #79, #172, .T. ) ;
#224 = VECTOR ( 'NONE', #201, 39.37007874015748143 ) ;
#225 = CIRCLE ( 'NONE', #219, 0.09842500000000001248 ) ;
#226 = EDGE_CURVE ( 'NONE', #181, #217, #118, .T. ) ;
#227 = FACE_OUTER_BOUND ( 'NONE', #234, .T. ) ;
#228 = EDGE_CURVE ( 'NONE', #79, #181, #26, .T. ) ;
#229 = ORIENTED_EDGE ( 'NONE', *, *, #62, .F. ) ;
#230 = LINE ( 'NONE', #18, #9 ) ;
#231 = CARTESIAN_POINT ( 'NONE',  ( 0.0000000000000000000, 0.0000000000000000000, 1.968503999999999809 ) ) ;
#232 = DIRECTION ( 'NONE',  ( -1.000000000000000000, 0.0000000000000000000, 0.0000000000000000000 ) ) ;
#233 = AXIS2_PLACEMENT_3D ( 'NONE', #241, #31, #167 ) ;
#234 = EDGE_LOOP ( 'NONE', ( #91, #178, #120, #229 ) ) ;
#235 =( CONVERSION_BASED_UNIT ( 'INCH', #100 ) LENGTH_UNIT ( ) NAMED_UNIT ( #122 ) );
#236 = UNCERTAINTY_MEASURE_WITH_UNIT (LENGTH_MEASURE( 1.000000000000000082E-05 ), #240, 'distance_accuracy_value', 'NONE');
#237 = CARTESIAN_POINT ( 'NONE',  ( 0.0000000000000000000, 0.0000000000000000000, 1.968503999999999809 ) ) ;
#238 = AXIS2_PLACEMENT_3D ( 'NONE', #41, #121, #188 ) ;
#239 = APPLICATION_PROTOCOL_DEFINITION ( 'draft international standard', 'automotive_design', 1998, #203 ) ;
#240 =( CONVERSION_BASED_UNIT ( 'INCH', #59 ) LENGTH_UNIT ( ) NAMED_UNIT ( #146 ) );
#241 = CARTESIAN_POINT ( 'NONE',  ( 0.0000000000000000000, 0.0000000000000000000, 0.0000000000000000000 ) ) ;
#242 = MECHANICAL_DESIGN_GEOMETRIC_PRESENTATION_REPRESENTATION (  '', ( #211 ), #88 ) ;
#243 = ADVANCED_FACE ( 'NONE', ( #160 ), #95, .T. ) ;
#244 = MECHANICAL_DESIGN_GEOMETRIC_PRESENTATION_REPRESENTATION (  '', ( #44 ), #182 ) ;
#245 = AXIS2_PLACEMENT_3D ( 'NONE', #131, #197, #143 ) ;
#246 = DIRECTION ( 'NONE',  ( -0.0000000000000000000, -0.0000000000000000000, -1.000000000000000000 ) ) ;
#247 = CARTESIAN_POINT ( 'NONE',  ( 0.0000000000000000000, 0.0000000000000000000, 0.0000000000000000000 ) ) ;
#248 = CARTESIAN_POINT ( 'NONE',  ( 0.0000000000000000000, 0.0000000000000000000, 0.09448799999999960009 ) ) ;
#249 = VERTEX_POINT ( 'NONE', #25 ) ;
ENDSEC;
END-ISO-10303-21;
