ISO-10303-21;
HEADER;
FILE_DESCRIPTION (( 'STEP AP214' ),
    '1' );
FILE_NAME ('Micro_EMS-062-3X.STEP',
    '2021-09-01T17:34:57',
    ( '' ),
    ( '' ),
    'SwSTEP 2.0',
    'SolidWorks 2020',
    '' );
FILE_SCHEMA (( 'AUTOMOTIVE_DESIGN' ));
ENDSEC;

DATA;
#1 = ORIENTED_EDGE ( 'NONE', *, *, #265, .T. ) ;
#2 = DIRECTION ( 'NONE',  ( -1.224646799147353700E-16, -0.0000000000000000000, -1.000000000000000000 ) ) ;
#3 = EDGE_LOOP ( 'NONE', ( #80, #57, #285, #154 ) ) ;
#4 = PRESENTATION_STYLE_ASSIGNMENT (( #218 ) ) ;
#5 = DIRECTION ( 'NONE',  ( -1.000000000000000000, 0.0000000000000000000, 1.224646799147353947E-16 ) ) ;
#6 = CIRCLE ( 'NONE', #138, 0.06250000000000002776 ) ;
#7 = PRODUCT_DEFINITION_FORMATION_WITH_SPECIFIED_SOURCE ( 'ANY', '', #283, .NOT_KNOWN. ) ;
#8 = LINE ( 'NONE', #29, #185 ) ;
#9 = VECTOR ( 'NONE', #221, 39.37007874015748854 ) ;
#10 = CARTESIAN_POINT ( 'NONE',  ( -0.03121875000000000691, 0.0000000000000000000, 3.823194226088145998E-18 ) ) ;
#11 = UNCERTAINTY_MEASURE_WITH_UNIT (LENGTH_MEASURE( 1.000000000000000082E-05 ), #286, 'distance_accuracy_value', 'NONE');
#12 = DIRECTION ( 'NONE',  ( -1.000000000000000000, 0.0000000000000000000, 1.224646799147353700E-16 ) ) ;
#13 = DIRECTION ( 'NONE',  ( 1.224646799147353700E-16, 0.0000000000000000000, 1.000000000000000000 ) ) ;
#14 = LINE ( 'NONE', #146, #62 ) ;
#15 = CYLINDRICAL_SURFACE ( 'NONE', #112, 0.06250000000000002776 ) ;
#16 = EDGE_CURVE ( 'NONE', #251, #273, #27, .T. ) ;
#17 = CARTESIAN_POINT ( 'NONE',  ( 0.0000000000000000000, 0.0000000000000000000, 1.500000000000000222 ) ) ;
#18 = VERTEX_POINT ( 'NONE', #38 ) ;
#19 = EDGE_CURVE ( 'NONE', #186, #234, #209, .T. ) ;
#20 = ORIENTED_EDGE ( 'NONE', *, *, #207, .F. ) ;
#21 = CIRCLE ( 'NONE', #200, 0.06250000000000002776 ) ;
#22 = AXIS2_PLACEMENT_3D ( 'NONE', #68, #137, #110 ) ;
#23 = ORIENTED_EDGE ( 'NONE', *, *, #142, .T. ) ;
#24 = VERTEX_POINT ( 'NONE', #298 ) ;
#25 = FILL_AREA_STYLE_COLOUR ( '', #67 ) ;
#26 = ORIENTED_EDGE ( 'NONE', *, *, #178, .F. ) ;
#27 = CIRCLE ( 'NONE', #151, 0.03121874999999999997 ) ;
#28 = PRESENTATION_LAYER_ASSIGNMENT (  '', '', ( #235 ) ) ;
#29 = CARTESIAN_POINT ( 'NONE',  ( 0.03121875000000002773, 0.0000000000000000000, 0.1880000000000000282 ) ) ;
#30 = CARTESIAN_POINT ( 'NONE',  ( -0.06250000000000002776, 0.0000000000000000000, 1.500000000000000222 ) ) ;
#31 = COLOUR_RGB ( '',0.7921568627450980005, 0.8196078431372548767, 0.9333333333333333481 ) ;
#32 = CARTESIAN_POINT ( 'NONE',  ( 0.0000000000000000000, 0.0000000000000000000, 0.0000000000000000000 ) ) ;
#33 = CIRCLE ( 'NONE', #255, 0.03121875000000000691 ) ;
#34 = CARTESIAN_POINT ( 'NONE',  ( 0.06250000000000002776, 7.654042494670959086E-18, 1.500000000000000222 ) ) ;
#35 = CARTESIAN_POINT ( 'NONE',  ( 2.302335982397025094E-17, 0.0000000000000000000, 0.1880000000000000282 ) ) ;
#36 = ORIENTED_EDGE ( 'NONE', *, *, #37, .T. ) ;
#37 = EDGE_CURVE ( 'NONE', #184, #274, #33, .T. ) ;
#38 = CARTESIAN_POINT ( 'NONE',  ( 0.06250000000000006939, 7.654042494670963708E-18, 0.3654047844199155848 ) ) ;
#39 = ORIENTED_EDGE ( 'NONE', *, *, #275, .F. ) ;
#40 = CONICAL_SURFACE ( 'NONE', #252, 0.04750000000000064587, 0.7853981633974466137 ) ;
#41 = MECHANICAL_DESIGN_GEOMETRIC_PRESENTATION_REPRESENTATION (  '', ( #175 ), #126 ) ;
#42 = CARTESIAN_POINT ( 'NONE',  ( 0.0000000000000000000, 0.0000000000000000000, 1.500000000000000222 ) ) ;
#43 = CARTESIAN_POINT ( 'NONE',  ( 0.0000000000000000000, 0.0000000000000000000, 0.0000000000000000000 ) ) ;
#44 = SURFACE_SIDE_STYLE ('',( #46 ) ) ;
#45 = ADVANCED_FACE ( 'NONE', ( #299 ), #214, .T. ) ;
#46 = SURFACE_STYLE_FILL_AREA ( #239 ) ;
#47 = ORIENTED_EDGE ( 'NONE', *, *, #16, .F. ) ;
#48 = DIRECTION ( 'NONE',  ( -1.224646799147353700E-16, -0.0000000000000000000, -1.000000000000000000 ) ) ;
#49 = ORIENTED_EDGE ( 'NONE', *, *, #153, .F. ) ;
#50 = DIRECTION ( 'NONE',  ( -0.1736481776669311916, 2.126576849575783316E-17, 0.9848077530122080203 ) ) ;
#51 = DIRECTION ( 'NONE',  ( 1.224646799147353700E-16, 0.0000000000000000000, 1.000000000000000000 ) ) ;
#52 = DIRECTION ( 'NONE',  ( -1.000000000000000000, 0.0000000000000000000, 0.0000000000000000000 ) ) ;
#53 = CARTESIAN_POINT ( 'NONE',  ( 2.302335982397025094E-17, 0.0000000000000000000, 0.1880000000000000282 ) ) ;
#54 = AXIS2_PLACEMENT_3D ( 'NONE', #74, #244, #271 ) ;
#55 = AXIS2_PLACEMENT_3D ( 'NONE', #32, #260, #165 ) ;
#56 = CARTESIAN_POINT ( 'NONE',  ( 4.474917996329784544E-17, 0.0000000000000000000, 0.3654047844199155848 ) ) ;
#57 = ORIENTED_EDGE ( 'NONE', *, *, #275, .T. ) ;
#58 = LENGTH_MEASURE_WITH_UNIT ( LENGTH_MEASURE( 0.02539999999999999897 ), #181 );
#59 = EDGE_LOOP ( 'NONE', ( #254, #1, #47, #69 ) ) ;
#60 = PRODUCT_CONTEXT ( 'NONE', #217, 'mechanical' ) ;
#61 = ORIENTED_EDGE ( 'NONE', *, *, #207, .T. ) ;
#62 = VECTOR ( 'NONE', #293, 39.37007874015748854 ) ;
#63 = AXIS2_PLACEMENT_3D ( 'NONE', #42, #202, #81 ) ;
#64 = ORIENTED_EDGE ( 'NONE', *, *, #253, .T. ) ;
#65 = VERTEX_POINT ( 'NONE', #231 ) ;
#66 = CYLINDRICAL_SURFACE ( 'NONE', #55, 0.03121875000000000691 ) ;
#67 = COLOUR_RGB ( '',0.7921568627450980005, 0.8196078431372548767, 0.9333333333333333481 ) ;
#68 = CARTESIAN_POINT ( 'NONE',  ( 0.0000000000000000000, 0.0000000000000000000, 1.500000000000000222 ) ) ;
#69 = ORIENTED_EDGE ( 'NONE', *, *, #142, .F. ) ;
#70 = LINE ( 'NONE', #290, #9 ) ;
#71 = LINE ( 'NONE', #258, #247 ) ;
#72 = ORIENTED_EDGE ( 'NONE', *, *, #132, .T. ) ;
#73 = DIRECTION ( 'NONE',  ( -0.0000000000000000000, -0.0000000000000000000, -1.000000000000000000 ) ) ;
#74 = CARTESIAN_POINT ( 'NONE',  ( 0.0000000000000000000, 0.0000000000000000000, 1.500000000000000222 ) ) ;
#75 = ADVANCED_FACE ( 'NONE', ( #276 ), #233, .T. ) ;
#76 = VECTOR ( 'NONE', #168, 39.37007874015748143 ) ;
#77 = AXIS2_PLACEMENT_3D ( 'NONE', #288, #48, #12 ) ;
#78 = ADVANCED_FACE ( 'NONE', ( #84 ), #257, .F. ) ;
#79 = SHAPE_DEFINITION_REPRESENTATION ( #148, #292 ) ;
#80 = ORIENTED_EDGE ( 'NONE', *, *, #253, .F. ) ;
#81 = DIRECTION ( 'NONE',  ( -1.000000000000000000, 0.0000000000000000000, 0.0000000000000000000 ) ) ;
#82 = PRESENTATION_STYLE_ASSIGNMENT (( #106 ) ) ;
#83 = DIRECTION ( 'NONE',  ( -1.224646799147353700E-16, -0.0000000000000000000, -1.000000000000000000 ) ) ;
#84 = FACE_OUTER_BOUND ( 'NONE', #280, .T. ) ;
#85 = ORIENTED_EDGE ( 'NONE', *, *, #19, .T. ) ;
#86 = MANIFOLD_SOLID_BREP ( 'Cut-Revolve1', #156 ) ;
#87 = ORIENTED_EDGE ( 'NONE', *, *, #147, .F. ) ;
#88 = DIRECTION ( 'NONE',  ( -1.224646799147353700E-16, -0.0000000000000000000, -1.000000000000000000 ) ) ;
#89 = CARTESIAN_POINT ( 'NONE',  ( -0.04750000000000064587, 0.0000000000000000000, 1.500000000000000222 ) ) ;
#90 = LINE ( 'NONE', #30, #102 ) ;
#91 = EDGE_CURVE ( 'NONE', #18, #24, #6, .T. ) ;
#92 = FACE_OUTER_BOUND ( 'NONE', #204, .T. ) ;
#93 = CARTESIAN_POINT ( 'NONE',  ( 0.0000000000000000000, 0.0000000000000000000, 1.500000000000000222 ) ) ;
#94 = DIRECTION ( 'NONE',  ( -0.0000000000000000000, -0.0000000000000000000, -1.000000000000000000 ) ) ;
#95 = ADVANCED_FACE ( 'NONE', ( #92 ), #187, .T. ) ;
#96 = DIRECTION ( 'NONE',  ( 0.0000000000000000000, 0.0000000000000000000, -1.000000000000000000 ) ) ;
#97 = AXIS2_PLACEMENT_3D ( 'NONE', #199, #124, #104 ) ;
#98 = DIRECTION ( 'NONE',  ( 0.0000000000000000000, 0.0000000000000000000, -1.000000000000000000 ) ) ;
#99 = UNCERTAINTY_MEASURE_WITH_UNIT (LENGTH_MEASURE( 1.000000000000000082E-05 ), #243, 'distance_accuracy_value', 'NONE');
#100 = ORIENTED_EDGE ( 'NONE', *, *, #259, .T. ) ;
#101 = DIRECTION ( 'NONE',  ( -1.000000000000000000, 0.0000000000000000000, 0.0000000000000000000 ) ) ;
#102 = VECTOR ( 'NONE', #163, 39.37007874015748143 ) ;
#103 = EDGE_CURVE ( 'NONE', #274, #184, #201, .T. ) ;
#104 = DIRECTION ( 'NONE',  ( 1.000000000000000000, 0.0000000000000000000, 0.0000000000000000000 ) ) ;
#105 = DIRECTION ( 'NONE',  ( 1.000000000000000000, 0.0000000000000000000, -0.0000000000000000000 ) ) ;
#106 = SURFACE_STYLE_USAGE ( .BOTH. , #227 ) ;
#107 = EDGE_LOOP ( 'NONE', ( #87, #61, #129, #123 ) ) ;
#108 =( GEOMETRIC_REPRESENTATION_CONTEXT ( 3 ) GLOBAL_UNCERTAINTY_ASSIGNED_CONTEXT ( ( #99 ) ) GLOBAL_UNIT_ASSIGNED_CONTEXT ( ( #243, #174, #296 ) ) REPRESENTATION_CONTEXT ( 'NONE', 'WORKASPACE' ) );
#109 = CARTESIAN_POINT ( 'NONE',  ( 4.474917996329784544E-17, 0.0000000000000000000, 0.3654047844199155848 ) ) ;
#110 = DIRECTION ( 'NONE',  ( 1.000000000000000000, 0.0000000000000000000, 0.0000000000000000000 ) ) ;
#111 = AXIS2_PLACEMENT_3D ( 'NONE', #56, #266, #297 ) ;
#112 = AXIS2_PLACEMENT_3D ( 'NONE', #17, #73, #52 ) ;
#113 = EDGE_CURVE ( 'NONE', #274, #24, #71, .T. ) ;
#114 = DIRECTION ( 'NONE',  ( 0.0000000000000000000, 0.0000000000000000000, -1.000000000000000000 ) ) ;
#115 = LINE ( 'NONE', #34, #164 ) ;
#116 = CARTESIAN_POINT ( 'NONE',  ( -0.03121874999999999997, 0.0000000000000000000, 7.646388452176290456E-18 ) ) ;
#117 = LENGTH_MEASURE_WITH_UNIT ( LENGTH_MEASURE( 0.02539999999999999897 ), #222 );
#118 = APPLICATION_CONTEXT ( 'automotive_design' ) ;
#119 = DIRECTION ( 'NONE',  ( 1.000000000000000000, 0.0000000000000000000, 0.0000000000000000000 ) ) ;
#120 = VECTOR ( 'NONE', #194, 39.37007874015748143 ) ;
#121 = FACE_OUTER_BOUND ( 'NONE', #152, .T. ) ;
#122 = DIRECTION ( 'NONE',  ( 0.0000000000000000000, 0.0000000000000000000, 1.000000000000000000 ) ) ;
#123 = ORIENTED_EDGE ( 'NONE', *, *, #189, .F. ) ;
#124 = DIRECTION ( 'NONE',  ( 0.0000000000000000000, 0.0000000000000000000, 1.000000000000000000 ) ) ;
#125 = EDGE_CURVE ( 'NONE', #172, #24, #90, .T. ) ;
#126 =( GEOMETRIC_REPRESENTATION_CONTEXT ( 3 ) GLOBAL_UNCERTAINTY_ASSIGNED_CONTEXT ( ( #11 ) ) GLOBAL_UNIT_ASSIGNED_CONTEXT ( ( #286, #216, #167 ) ) REPRESENTATION_CONTEXT ( 'NONE', 'WORKASPACE' ) );
#127 = EDGE_LOOP ( 'NONE', ( #72, #64, #262, #158 ) ) ;
#128 = AXIS2_PLACEMENT_3D ( 'NONE', #261, #241, #5 ) ;
#129 = ORIENTED_EDGE ( 'NONE', *, *, #132, .F. ) ;
#130 = APPLICATION_PROTOCOL_DEFINITION ( 'draft international standard', 'automotive_design', 1998, #118 ) ;
#131 = DIRECTION ( 'NONE',  ( 0.0000000000000000000, 0.0000000000000000000, 1.000000000000000000 ) ) ;
#132 = EDGE_CURVE ( 'NONE', #172, #65, #159, .T. ) ;
#133 = DIRECTION ( 'NONE',  ( 1.000000000000000000, 0.0000000000000000000, 0.0000000000000000000 ) ) ;
#134 = DIRECTION ( 'NONE',  ( -1.000000000000000000, 0.0000000000000000000, 0.0000000000000000000 ) ) ;
#135 = DIRECTION ( 'NONE',  ( -1.224646799147353700E-16, -0.0000000000000000000, -1.000000000000000000 ) ) ;
#136 = PRODUCT_RELATED_PRODUCT_CATEGORY ( 'part', '', ( #283 ) ) ;
#137 = DIRECTION ( 'NONE',  ( 0.0000000000000000000, 0.0000000000000000000, 1.000000000000000000 ) ) ;
#138 = AXIS2_PLACEMENT_3D ( 'NONE', #109, #88, #263 ) ;
#139 =( GEOMETRIC_REPRESENTATION_CONTEXT ( 3 ) GLOBAL_UNCERTAINTY_ASSIGNED_CONTEXT ( ( #150 ) ) GLOBAL_UNIT_ASSIGNED_CONTEXT ( ( #160, #205, #272 ) ) REPRESENTATION_CONTEXT ( 'NONE', 'WORKASPACE' ) );
#140 = CONICAL_SURFACE ( 'NONE', #215, 0.03121875000000000691, 0.1745329251994338915 ) ;
#141 = CARTESIAN_POINT ( 'NONE',  ( -0.06250000000000002776, 0.0000000000000000000, 1.485000000000000764 ) ) ;
#142 = EDGE_CURVE ( 'NONE', #274, #251, #236, .T. ) ;
#143 = DIRECTION ( 'NONE',  ( 1.000000000000000000, 0.0000000000000000000, 0.0000000000000000000 ) ) ;
#144 = CARTESIAN_POINT ( 'NONE',  ( 0.03121875000000000691, 3.823194226088144458E-18, -3.823194226088145998E-18 ) ) ;
#145 = CIRCLE ( 'NONE', #22, 0.04750000000000064587 ) ;
#146 = CARTESIAN_POINT ( 'NONE',  ( 0.04750000000000064587, 5.817072295950006528E-18, 1.500000000000000222 ) ) ;
#147 = EDGE_CURVE ( 'NONE', #234, #186, #145, .T. ) ;
#148 = PRODUCT_DEFINITION_SHAPE ( 'NONE', 'NONE',  #232 ) ;
#149 = SURFACE_STYLE_FILL_AREA ( #248 ) ;
#150 = UNCERTAINTY_MEASURE_WITH_UNIT (LENGTH_MEASURE( 1.000000000000000082E-05 ), #160, 'distance_accuracy_value', 'NONE');
#151 = AXIS2_PLACEMENT_3D ( 'NONE', #226, #83, #155 ) ;
#152 = EDGE_LOOP ( 'NONE', ( #20, #279, #162, #39 ) ) ;
#153 = EDGE_CURVE ( 'NONE', #184, #18, #8, .T. ) ;
#154 = ORIENTED_EDGE ( 'NONE', *, *, #91, .F. ) ;
#155 = DIRECTION ( 'NONE',  ( -1.000000000000000000, 0.0000000000000000000, 1.224646799147353947E-16 ) ) ;
#156 = CLOSED_SHELL ( 'NONE', ( #166, #211, #45, #246, #196, #75, #223, #242, #95, #78 ) ) ;
#157 = AXIS2_PLACEMENT_3D ( 'NONE', #43, #131, #191 ) ;
#158 = ORIENTED_EDGE ( 'NONE', *, *, #125, .F. ) ;
#159 = CIRCLE ( 'NONE', #220, 0.06250000000000002776 ) ;
#160 =( CONVERSION_BASED_UNIT ( 'INCH', #58 ) LENGTH_UNIT ( ) NAMED_UNIT ( #289 ) );
#161 = DIRECTION ( 'NONE',  ( 0.0000000000000000000, 0.0000000000000000000, 1.000000000000000000 ) ) ;
#162 = ORIENTED_EDGE ( 'NONE', *, *, #189, .T. ) ;
#163 = DIRECTION ( 'NONE',  ( -0.0000000000000000000, -0.0000000000000000000, -1.000000000000000000 ) ) ;
#164 = VECTOR ( 'NONE', #94, 39.37007874015748143 ) ;
#165 = DIRECTION ( 'NONE',  ( -1.000000000000000000, 0.0000000000000000000, 1.224646799147353700E-16 ) ) ;
#166 = ADVANCED_FACE ( 'NONE', ( #212 ), #66, .T. ) ;
#167 =( NAMED_UNIT ( * ) SI_UNIT ( $, .STERADIAN. ) SOLID_ANGLE_UNIT ( ) );
#168 = DIRECTION ( 'NONE',  ( -1.224646799147353700E-16, -0.0000000000000000000, -1.000000000000000000 ) ) ;
#169 = CIRCLE ( 'NONE', #111, 0.06250000000000002776 ) ;
#170 = CARTESIAN_POINT ( 'NONE',  ( 0.0000000000000000000, 0.0000000000000000000, 1.485000000000000764 ) ) ;
#171 = DIRECTION ( 'NONE',  ( -1.000000000000000000, 0.0000000000000000000, 0.0000000000000000000 ) ) ;
#172 = VERTEX_POINT ( 'NONE', #141 ) ;
#173 = CARTESIAN_POINT ( 'NONE',  ( -0.03121874999999998609, 5.738618360379552157E-18, 0.1880000000000000282 ) ) ;
#174 =( NAMED_UNIT ( * ) PLANE_ANGLE_UNIT ( ) SI_UNIT ( $, .RADIAN. ) );
#175 = STYLED_ITEM ( 'NONE', ( #4 ), #86 ) ;
#176 = CYLINDRICAL_SURFACE ( 'NONE', #54, 0.06250000000000002776 ) ;
#177 = DIMENSIONAL_EXPONENTS ( 1.000000000000000000, 0.0000000000000000000, 0.0000000000000000000, 0.0000000000000000000, 0.0000000000000000000, 0.0000000000000000000, 0.0000000000000000000 ) ;
#178 = EDGE_CURVE ( 'NONE', #273, #251, #270, .T. ) ;
#179 = ORIENTED_EDGE ( 'NONE', *, *, #103, .F. ) ;
#180 = ORIENTED_EDGE ( 'NONE', *, *, #178, .T. ) ;
#181 =( LENGTH_UNIT ( ) NAMED_UNIT ( * ) SI_UNIT ( $, .METRE. ) );
#182 = CARTESIAN_POINT ( 'NONE',  ( 0.0000000000000000000, 0.0000000000000000000, 1.500000000000000222 ) ) ;
#183 = ORIENTED_EDGE ( 'NONE', *, *, #91, .T. ) ;
#184 = VERTEX_POINT ( 'NONE', #213 ) ;
#185 = VECTOR ( 'NONE', #210, 39.37007874015748143 ) ;
#186 = VERTEX_POINT ( 'NONE', #89 ) ;
#187 = CYLINDRICAL_SURFACE ( 'NONE', #77, 0.03121875000000000691 ) ;
#188 = CARTESIAN_POINT ( 'NONE',  ( 2.302335982397025094E-17, 0.0000000000000000000, 0.1880000000000000282 ) ) ;
#189 = EDGE_CURVE ( 'NONE', #186, #172, #70, .T. ) ;
#190 = FILL_AREA_STYLE_COLOUR ( '', #31 ) ;
#191 = DIRECTION ( 'NONE',  ( 1.000000000000000000, 0.0000000000000000000, -0.0000000000000000000 ) ) ;
#192 =( LENGTH_UNIT ( ) NAMED_UNIT ( * ) SI_UNIT ( $, .METRE. ) );
#193 = CARTESIAN_POINT ( 'NONE',  ( 0.03121874999999999997, 3.823194226088143687E-18, -4.739000847409537175E-34 ) ) ;
#194 = DIRECTION ( 'NONE',  ( -1.224646799147353700E-16, -0.0000000000000000000, -1.000000000000000000 ) ) ;
#195 = LINE ( 'NONE', #144, #120 ) ;
#196 = ADVANCED_FACE ( 'NONE', ( #224 ), #15, .T. ) ;
#197 = DIRECTION ( 'NONE',  ( 1.000000000000000000, 0.0000000000000000000, 0.0000000000000000000 ) ) ;
#198 = DIMENSIONAL_EXPONENTS ( 1.000000000000000000, 0.0000000000000000000, 0.0000000000000000000, 0.0000000000000000000, 0.0000000000000000000, 0.0000000000000000000, 0.0000000000000000000 ) ;
#199 = CARTESIAN_POINT ( 'NONE',  ( 0.0000000000000000000, 0.0000000000000000000, 1.500000000000000222 ) ) ;
#200 = AXIS2_PLACEMENT_3D ( 'NONE', #170, #98, #197 ) ;
#201 = CIRCLE ( 'NONE', #230, 0.03121875000000000691 ) ;
#202 = DIRECTION ( 'NONE',  ( 0.0000000000000000000, 0.0000000000000000000, -1.000000000000000000 ) ) ;
#203 = CARTESIAN_POINT ( 'NONE',  ( 0.0000000000000000000, 0.0000000000000000000, 0.0000000000000000000 ) ) ;
#204 = EDGE_LOOP ( 'NONE', ( #237, #36, #23, #26 ) ) ;
#205 =( NAMED_UNIT ( * ) PLANE_ANGLE_UNIT ( ) SI_UNIT ( $, .RADIAN. ) );
#206 = EDGE_LOOP ( 'NONE', ( #85, #277 ) ) ;
#207 = EDGE_CURVE ( 'NONE', #234, #65, #14, .T. ) ;
#208 = ORIENTED_EDGE ( 'NONE', *, *, #153, .T. ) ;
#209 = CIRCLE ( 'NONE', #97, 0.04750000000000064587 ) ;
#210 = DIRECTION ( 'NONE',  ( 0.1736481776669313859, 0.0000000000000000000, 0.9848077530122077983 ) ) ;
#211 = ADVANCED_FACE ( 'NONE', ( #268 ), #140, .T. ) ;
#212 = FACE_OUTER_BOUND ( 'NONE', #59, .T. ) ;
#213 = CARTESIAN_POINT ( 'NONE',  ( 0.03121875000000002773, 0.0000000000000000000, 0.1880000000000000282 ) ) ;
#214 = CONICAL_SURFACE ( 'NONE', #63, 0.04750000000000064587, 0.7853981633974466137 ) ;
#215 = AXIS2_PLACEMENT_3D ( 'NONE', #53, #13, #119 ) ;
#216 =( NAMED_UNIT ( * ) PLANE_ANGLE_UNIT ( ) SI_UNIT ( $, .RADIAN. ) );
#217 = APPLICATION_CONTEXT ( 'automotive_design' ) ;
#218 = SURFACE_STYLE_USAGE ( .BOTH. , #44 ) ;
#219 = CARTESIAN_POINT ( 'NONE',  ( 0.04750000000000064587, 6.735557395310483192E-18, 1.500000000000000222 ) ) ;
#220 = AXIS2_PLACEMENT_3D ( 'NONE', #281, #114, #133 ) ;
#221 = DIRECTION ( 'NONE',  ( -0.7071067811865462405, 0.0000000000000000000, -0.7071067811865486830 ) ) ;
#222 =( LENGTH_UNIT ( ) NAMED_UNIT ( * ) SI_UNIT ( $, .METRE. ) );
#223 = ADVANCED_FACE ( 'NONE', ( #121 ), #40, .T. ) ;
#224 = FACE_OUTER_BOUND ( 'NONE', #3, .T. ) ;
#225 = APPLICATION_PROTOCOL_DEFINITION ( 'draft international standard', 'automotive_design', 1998, #217 ) ;
#226 = CARTESIAN_POINT ( 'NONE',  ( 4.682062571497491304E-34, 0.0000000000000000000, 3.823194226088145228E-18 ) ) ;
#227 = SURFACE_SIDE_STYLE ('',( #149 ) ) ;
#228 = CARTESIAN_POINT ( 'NONE',  ( 2.302335982397025094E-17, 0.0000000000000000000, 0.1880000000000000282 ) ) ;
#229 = MECHANICAL_DESIGN_GEOMETRIC_PRESENTATION_REPRESENTATION (  '', ( #235 ), #139 ) ;
#230 = AXIS2_PLACEMENT_3D ( 'NONE', #188, #135, #134 ) ;
#231 = CARTESIAN_POINT ( 'NONE',  ( 0.06250000000000002776, 7.654042494670959086E-18, 1.485000000000000764 ) ) ;
#232 = PRODUCT_DEFINITION ( 'UNKNOWN', '', #7, #249 ) ;
#233 = PLANE ( 'NONE',  #284 ) ;
#234 = VERTEX_POINT ( 'NONE', #219 ) ;
#235 = STYLED_ITEM ( 'NONE', ( #82 ), #292 ) ;
#236 = LINE ( 'NONE', #10, #76 ) ;
#237 = ORIENTED_EDGE ( 'NONE', *, *, #265, .F. ) ;
#238 = EDGE_LOOP ( 'NONE', ( #256, #295, #208, #183 ) ) ;
#239 = FILL_AREA_STYLE ('',( #190 ) ) ;
#240 = AXIS2_PLACEMENT_3D ( 'NONE', #35, #51, #143 ) ;
#241 = DIRECTION ( 'NONE',  ( -1.224646799147353700E-16, -0.0000000000000000000, -1.000000000000000000 ) ) ;
#242 = ADVANCED_FACE ( 'NONE', ( #267 ), #294, .T. ) ;
#243 =( CONVERSION_BASED_UNIT ( 'INCH', #117 ) LENGTH_UNIT ( ) NAMED_UNIT ( #198 ) );
#244 = DIRECTION ( 'NONE',  ( -0.0000000000000000000, -0.0000000000000000000, -1.000000000000000000 ) ) ;
#245 = AXIS2_PLACEMENT_3D ( 'NONE', #203, #122, #278 ) ;
#246 = ADVANCED_FACE ( 'NONE', ( #291 ), #176, .T. ) ;
#247 = VECTOR ( 'NONE', #50, 39.37007874015747433 ) ;
#248 = FILL_AREA_STYLE ('',( #25 ) ) ;
#249 = PRODUCT_DEFINITION_CONTEXT ( 'detailed design', #118, 'design' ) ;
#250 = ORIENTED_EDGE ( 'NONE', *, *, #113, .T. ) ;
#251 = VERTEX_POINT ( 'NONE', #116 ) ;
#252 = AXIS2_PLACEMENT_3D ( 'NONE', #93, #96, #171 ) ;
#253 = EDGE_CURVE ( 'NONE', #65, #18, #115, .T. ) ;
#254 = ORIENTED_EDGE ( 'NONE', *, *, #103, .T. ) ;
#255 = AXIS2_PLACEMENT_3D ( 'NONE', #228, #2, #101 ) ;
#256 = ORIENTED_EDGE ( 'NONE', *, *, #113, .F. ) ;
#257 = PLANE ( 'NONE',  #157 ) ;
#258 = CARTESIAN_POINT ( 'NONE',  ( -0.03121874999999998609, 3.823194226088144458E-18, 0.1880000000000000282 ) ) ;
#259 = EDGE_CURVE ( 'NONE', #24, #18, #169, .T. ) ;
#260 = DIRECTION ( 'NONE',  ( -1.224646799147353700E-16, -0.0000000000000000000, -1.000000000000000000 ) ) ;
#261 = CARTESIAN_POINT ( 'NONE',  ( 4.682062571497491304E-34, 0.0000000000000000000, 3.823194226088145228E-18 ) ) ;
#262 = ORIENTED_EDGE ( 'NONE', *, *, #259, .F. ) ;
#263 = DIRECTION ( 'NONE',  ( 1.000000000000000000, 0.0000000000000000000, 0.0000000000000000000 ) ) ;
#264 = EDGE_LOOP ( 'NONE', ( #179, #250, #100, #49 ) ) ;
#265 = EDGE_CURVE ( 'NONE', #184, #273, #195, .T. ) ;
#266 = DIRECTION ( 'NONE',  ( -1.224646799147353700E-16, -0.0000000000000000000, -1.000000000000000000 ) ) ;
#267 = FACE_OUTER_BOUND ( 'NONE', #238, .T. ) ;
#268 = FACE_OUTER_BOUND ( 'NONE', #264, .T. ) ;
#269 = PRESENTATION_LAYER_ASSIGNMENT (  '', '', ( #175 ) ) ;
#270 = CIRCLE ( 'NONE', #128, 0.03121874999999999997 ) ;
#271 = DIRECTION ( 'NONE',  ( -1.000000000000000000, 0.0000000000000000000, 0.0000000000000000000 ) ) ;
#272 =( NAMED_UNIT ( * ) SI_UNIT ( $, .STERADIAN. ) SOLID_ANGLE_UNIT ( ) );
#273 = VERTEX_POINT ( 'NONE', #193 ) ;
#274 = VERTEX_POINT ( 'NONE', #173 ) ;
#275 = EDGE_CURVE ( 'NONE', #65, #172, #21, .T. ) ;
#276 = FACE_OUTER_BOUND ( 'NONE', #206, .T. ) ;
#277 = ORIENTED_EDGE ( 'NONE', *, *, #147, .T. ) ;
#278 = DIRECTION ( 'NONE',  ( 1.000000000000000000, 0.0000000000000000000, 0.0000000000000000000 ) ) ;
#279 = ORIENTED_EDGE ( 'NONE', *, *, #19, .F. ) ;
#280 = EDGE_LOOP ( 'NONE', ( #282, #180 ) ) ;
#281 = CARTESIAN_POINT ( 'NONE',  ( 0.0000000000000000000, 0.0000000000000000000, 1.485000000000000764 ) ) ;
#282 = ORIENTED_EDGE ( 'NONE', *, *, #16, .T. ) ;
#283 = PRODUCT ( 'Micro_EMS-062-3X', 'Micro_EMS-062-3X', '', ( #60 ) ) ;
#284 = AXIS2_PLACEMENT_3D ( 'NONE', #182, #161, #105 ) ;
#285 = ORIENTED_EDGE ( 'NONE', *, *, #125, .T. ) ;
#286 =( CONVERSION_BASED_UNIT ( 'INCH', #287 ) LENGTH_UNIT ( ) NAMED_UNIT ( #177 ) );
#287 = LENGTH_MEASURE_WITH_UNIT ( LENGTH_MEASURE( 0.02539999999999999897 ), #192 );
#288 = CARTESIAN_POINT ( 'NONE',  ( 0.0000000000000000000, 0.0000000000000000000, 0.0000000000000000000 ) ) ;
#289 = DIMENSIONAL_EXPONENTS ( 1.000000000000000000, 0.0000000000000000000, 0.0000000000000000000, 0.0000000000000000000, 0.0000000000000000000, 0.0000000000000000000, 0.0000000000000000000 ) ;
#290 = CARTESIAN_POINT ( 'NONE',  ( -0.04750000000000064587, 0.0000000000000000000, 1.500000000000000222 ) ) ;
#291 = FACE_OUTER_BOUND ( 'NONE', #127, .T. ) ;
#292 = ADVANCED_BREP_SHAPE_REPRESENTATION ( 'Micro_EMS-062-3X', ( #86, #245 ), #108 ) ;
#293 = DIRECTION ( 'NONE',  ( 0.7071067811865462405, 8.659560562354916834E-17, -0.7071067811865486830 ) ) ;
#294 = CONICAL_SURFACE ( 'NONE', #240, 0.03121875000000000691, 0.1745329251994338915 ) ;
#295 = ORIENTED_EDGE ( 'NONE', *, *, #37, .F. ) ;
#296 =( NAMED_UNIT ( * ) SI_UNIT ( $, .STERADIAN. ) SOLID_ANGLE_UNIT ( ) );
#297 = DIRECTION ( 'NONE',  ( 1.000000000000000000, 0.0000000000000000000, 0.0000000000000000000 ) ) ;
#298 = CARTESIAN_POINT ( 'NONE',  ( -0.06249999999999997918, 0.0000000000000000000, 0.3654047844199155848 ) ) ;
#299 = FACE_OUTER_BOUND ( 'NONE', #107, .T. ) ;
ENDSEC;
END-ISO-10303-21;
