ISO-10303-21;
HEADER;
FILE_DESCRIPTION (( 'STEP AP214' ),
    '1' );
FILE_NAME ('12467.STEP',
    '2023-06-30T21:51:25',
    ( '' ),
    ( '' ),
    'SwSTEP 2.0',
    'SolidWorks 2023',
    '' );
FILE_SCHEMA (( 'AUTOMOTIVE_DESIGN' ));
ENDSEC;

DATA;
#1 = FILL_AREA_STYLE_COLOUR ( '', #109 ) ;
#2 =( NAMED_UNIT ( * ) SI_UNIT ( $, .STERADIAN. ) SOLID_ANGLE_UNIT ( ) );
#3 = CIRCLE ( 'NONE', #201, 0.3749999999999998890 ) ;
#4 = CARTESIAN_POINT ( 'NONE',  ( 0.3749999999999999445, 0.3750000000000001110, 0.000000000000000000 ) ) ;
#5 = AXIS2_PLACEMENT_3D ( 'NONE', #367, #77, #70 ) ;
#6 = APPLICATION_PROTOCOL_DEFINITION ( 'draft international standard', 'automotive_design', 1998, #43 ) ;
#7 = ORIENTED_EDGE ( 'NONE', *, *, #312, .F. ) ;
#8 = PRESENTATION_LAYER_ASSIGNMENT (  '', '', ( #50 ) ) ;
#9 = EDGE_CURVE ( 'NONE', #204, #325, #274, .T. ) ;
#10 = ORIENTED_EDGE ( 'NONE', *, *, #86, .T. ) ;
#11 = ORIENTED_EDGE ( 'NONE', *, *, #321, .T. ) ;
#12 = DIRECTION ( 'NONE',  ( 0.000000000000000000, 0.000000000000000000, -1.000000000000000000 ) ) ;
#13 = VERTEX_POINT ( 'NONE', #91 ) ;
#14 = STYLED_ITEM ( 'NONE', ( #354 ), #16 ) ;
#15 = MECHANICAL_DESIGN_GEOMETRIC_PRESENTATION_REPRESENTATION (  '', ( #123 ), #289 ) ;
#16 = ADVANCED_FACE ( 'NONE', ( #117 ), #185, .T. ) ;
#17 = SURFACE_SIDE_STYLE ('',( #306 ) ) ;
#18 =( NAMED_UNIT ( * ) SI_UNIT ( $, .STERADIAN. ) SOLID_ANGLE_UNIT ( ) );
#19 = FILL_AREA_STYLE_COLOUR ( '', #251 ) ;
#20 = DIRECTION ( 'NONE',  ( -1.000000000000000000, 0.000000000000000000, 0.000000000000000000 ) ) ;
#21 = MECHANICAL_DESIGN_GEOMETRIC_PRESENTATION_REPRESENTATION (  '', ( #14 ), #198 ) ;
#22 = CARTESIAN_POINT ( 'NONE',  ( 0.000000000000000000, 0.000000000000000000, 0.000000000000000000 ) ) ;
#23 = CARTESIAN_POINT ( 'NONE',  ( -0.3750000000000000555, 0.3750000000000001110, 4.592425496802574219E-17 ) ) ;
#24 = CARTESIAN_POINT ( 'NONE',  ( -0.3749999999999992228, 1.000000000000000000, 0.000000000000000000 ) ) ;
#25 = PRODUCT_DEFINITION ( 'UNKNOWN', '', #240, #329 ) ;
#26 =( CONVERSION_BASED_UNIT ( 'INCH', #282 ) LENGTH_UNIT ( ) NAMED_UNIT ( #363 ) );
#27 = CIRCLE ( 'NONE', #69, 0.3749999999999999445 ) ;
#28 = DIRECTION ( 'NONE',  ( -0.000000000000000000, -1.000000000000000000, -0.000000000000000000 ) ) ;
#29 = FACE_OUTER_BOUND ( 'NONE', #33, .T. ) ;
#30 =( NAMED_UNIT ( * ) PLANE_ANGLE_UNIT ( ) SI_UNIT ( $, .RADIAN. ) );
#31 = CARTESIAN_POINT ( 'NONE',  ( 0.000000000000000000, 1.000000000000000000, -0.3749999999999998890 ) ) ;
#32 = DIRECTION ( 'NONE',  ( 0.000000000000000000, 0.000000000000000000, 1.000000000000000000 ) ) ;
#33 = EDGE_LOOP ( 'NONE', ( #224, #65, #345, #82 ) ) ;
#34 = AXIS2_PLACEMENT_3D ( 'NONE', #208, #53, #157 ) ;
#35 = STYLED_ITEM ( 'NONE', ( #331 ), #99 ) ;
#36 = ADVANCED_FACE ( 'NONE', ( #199 ), #215, .T. ) ;
#37 = SURFACE_SIDE_STYLE ('',( #292 ) ) ;
#38 = DIRECTION ( 'NONE',  ( -1.000000000000000000, 0.000000000000000000, 0.000000000000000000 ) ) ;
#39 = AXIS2_PLACEMENT_3D ( 'NONE', #115, #32, #137 ) ;
#40 = EDGE_LOOP ( 'NONE', ( #261, #89, #299, #288 ) ) ;
#41 = EDGE_LOOP ( 'NONE', ( #175, #234, #66, #253, #7 ) ) ;
#42 = SURFACE_STYLE_FILL_AREA ( #146 ) ;
#43 = APPLICATION_CONTEXT ( 'automotive_design' ) ;
#44 = SURFACE_STYLE_FILL_AREA ( #276 ) ;
#45 = DIRECTION ( 'NONE',  ( -1.234940623378141365E-16, 1.000000000000000000, -0.000000000000000000 ) ) ;
#46 = AXIS2_PLACEMENT_3D ( 'NONE', #271, #104, #237 ) ;
#47 = DIRECTION ( 'NONE',  ( -0.000000000000000000, -1.000000000000000000, -0.000000000000000000 ) ) ;
#48 = EDGE_CURVE ( 'NONE', #293, #13, #242, .T. ) ;
#49 = SURFACE_SIDE_STYLE ('',( #302 ) ) ;
#50 = STYLED_ITEM ( 'NONE', ( #151 ), #257 ) ;
#51 = FILL_AREA_STYLE ('',( #238 ) ) ;
#52 = DIMENSIONAL_EXPONENTS ( 1.000000000000000000, 0.000000000000000000, 0.000000000000000000, 0.000000000000000000, 0.000000000000000000, 0.000000000000000000, 0.000000000000000000 ) ;
#53 = DIRECTION ( 'NONE',  ( -0.000000000000000000, -1.000000000000000000, -0.000000000000000000 ) ) ;
#54 = LENGTH_MEASURE_WITH_UNIT ( LENGTH_MEASURE( 0.02539999999999999897 ), #287 );
#55 = CARTESIAN_POINT ( 'NONE',  ( 4.592425496802573602E-17, 0.000000000000000000, 0.3749999999999999445 ) ) ;
#56 =( GEOMETRIC_REPRESENTATION_CONTEXT ( 3 ) GLOBAL_UNCERTAINTY_ASSIGNED_CONTEXT ( ( #212 ) ) GLOBAL_UNIT_ASSIGNED_CONTEXT ( ( #180, #178, #18 ) ) REPRESENTATION_CONTEXT ( 'NONE', 'WORKASPACE' ) );
#57 = PLANE ( 'NONE',  #177 ) ;
#58 = CARTESIAN_POINT ( 'NONE',  ( 4.592425496802573602E-17, 0.3750000000000001110, 0.3749999999999999445 ) ) ;
#59 = DIRECTION ( 'NONE',  ( -0.000000000000000000, -1.000000000000000000, -0.000000000000000000 ) ) ;
#60 = ORIENTED_EDGE ( 'NONE', *, *, #214, .F. ) ;
#61 = SURFACE_STYLE_FILL_AREA ( #250 ) ;
#62 = DIRECTION ( 'NONE',  ( 0.000000000000000000, -0.000000000000000000, 1.000000000000000000 ) ) ;
#63 = COLOUR_RGB ( '',1.000000000000000000, 0.000000000000000000, 0.000000000000000000 ) ;
#64 = SURFACE_STYLE_USAGE ( .BOTH. , #37 ) ;
#65 = ORIENTED_EDGE ( 'NONE', *, *, #355, .T. ) ;
#66 = ORIENTED_EDGE ( 'NONE', *, *, #86, .F. ) ;
#67 = SURFACE_SIDE_STYLE ('',( #42 ) ) ;
#68 = EDGE_LOOP ( 'NONE', ( #11, #324, #298, #264 ) ) ;
#69 = AXIS2_PLACEMENT_3D ( 'NONE', #255, #165, #106 ) ;
#70 = DIRECTION ( 'NONE',  ( 0.000000000000000000, 0.000000000000000000, -1.000000000000000000 ) ) ;
#71 = CARTESIAN_POINT ( 'NONE',  ( 4.592425496802572986E-17, 1.000000000000000000, 0.3749999999999998890 ) ) ;
#72 = CARTESIAN_POINT ( 'NONE',  ( 6.123233995736759873E-17, 3.000000000000000444, 0.000000000000000000 ) ) ;
#73 = AXIS2_PLACEMENT_3D ( 'NONE', #113, #226, #350 ) ;
#74 =( NAMED_UNIT ( * ) PLANE_ANGLE_UNIT ( ) SI_UNIT ( $, .RADIAN. ) );
#75 = CYLINDRICAL_SURFACE ( 'NONE', #34, 0.3749999999999999445 ) ;
#76 =( GEOMETRIC_REPRESENTATION_CONTEXT ( 3 ) GLOBAL_UNCERTAINTY_ASSIGNED_CONTEXT ( ( #101 ) ) GLOBAL_UNIT_ASSIGNED_CONTEXT ( ( #369, #191, #140 ) ) REPRESENTATION_CONTEXT ( 'NONE', 'WORKASPACE' ) );
#77 = DIRECTION ( 'NONE',  ( -0.000000000000000000, -1.000000000000000000, -0.000000000000000000 ) ) ;
#78 = CARTESIAN_POINT ( 'NONE',  ( 3.082204646329958964E-16, 1.000000000000000000, 0.000000000000000000 ) ) ;
#79 = FACE_OUTER_BOUND ( 'NONE', #118, .T. ) ;
#80 = CIRCLE ( 'NONE', #153, 0.3749999999999998335 ) ;
#81 =( NAMED_UNIT ( * ) SI_UNIT ( $, .STERADIAN. ) SOLID_ANGLE_UNIT ( ) );
#82 = ORIENTED_EDGE ( 'NONE', *, *, #9, .T. ) ;
#83 = EDGE_CURVE ( 'NONE', #320, #195, #206, .T. ) ;
#84 = DIRECTION ( 'NONE',  ( 1.234940623378141365E-16, -1.000000000000000000, 0.000000000000000000 ) ) ;
#85 = FACE_OUTER_BOUND ( 'NONE', #174, .T. ) ;
#86 = EDGE_CURVE ( 'NONE', #204, #353, #202, .T. ) ;
#87 = PRESENTATION_LAYER_ASSIGNMENT (  '', '', ( #249 ) ) ;
#88 = EDGE_LOOP ( 'NONE', ( #358, #230 ) ) ;
#89 = ORIENTED_EDGE ( 'NONE', *, *, #337, .T. ) ;
#90 = PRODUCT_RELATED_PRODUCT_CATEGORY ( 'part', '', ( #119 ) ) ;
#91 = CARTESIAN_POINT ( 'NONE',  ( 0.3749999999999998890, 3.000000000000000444, 4.592425496802571754E-17 ) ) ;
#92 = STYLED_ITEM ( 'NONE', ( #317 ), #222 ) ;
#93 = VERTEX_POINT ( 'NONE', #71 ) ;
#94 = PRESENTATION_LAYER_ASSIGNMENT (  '', '', ( #35 ) ) ;
#95 = VERTEX_POINT ( 'NONE', #23 ) ;
#96 = CARTESIAN_POINT ( 'NONE',  ( 0.3749999999999997780, 3.000000000000000444, 4.592425496802570521E-17 ) ) ;
#97 = AXIS2_PLACEMENT_3D ( 'NONE', #161, #223, #283 ) ;
#98 =( CONVERSION_BASED_UNIT ( 'INCH', #116 ) LENGTH_UNIT ( ) NAMED_UNIT ( #254 ) );
#99 = MANIFOLD_SOLID_BREP ( 'Revolve - Cutting Edge', #336 ) ;
#100 = FILL_AREA_STYLE_COLOUR ( '', #139 ) ;
#101 = UNCERTAINTY_MEASURE_WITH_UNIT (LENGTH_MEASURE( 1.000000000000000082E-05 ), #369, 'distance_accuracy_value', 'NONE');
#102 = CARTESIAN_POINT ( 'NONE',  ( 0.000000000000000000, 0.000000000000000000, -0.3749999999999999445 ) ) ;
#103 =( GEOMETRIC_REPRESENTATION_CONTEXT ( 3 ) GLOBAL_UNCERTAINTY_ASSIGNED_CONTEXT ( ( #275 ) ) GLOBAL_UNIT_ASSIGNED_CONTEXT ( ( #98, #131, #211 ) ) REPRESENTATION_CONTEXT ( 'NONE', 'WORKASPACE' ) );
#104 = DIRECTION ( 'NONE',  ( 0.000000000000000000, 0.000000000000000000, 1.000000000000000000 ) ) ;
#105 = DIRECTION ( 'NONE',  ( -1.234940623378141365E-16, 1.000000000000000000, -0.000000000000000000 ) ) ;
#106 = DIRECTION ( 'NONE',  ( 0.000000000000000000, 0.000000000000000000, -1.000000000000000000 ) ) ;
#107 = ADVANCED_FACE ( 'NONE', ( #29 ), #218, .T. ) ;
#108 =( LENGTH_UNIT ( ) NAMED_UNIT ( * ) SI_UNIT ( $, .METRE. ) );
#109 = COLOUR_RGB ( '',1.000000000000000000, 0.000000000000000000, 0.000000000000000000 ) ;
#110 = DIRECTION ( 'NONE',  ( 1.000000000000000000, 0.000000000000000000, -1.224646799147353207E-16 ) ) ;
#111 = VECTOR ( 'NONE', #301, 39.37007874015748143 ) ;
#112 = ADVANCED_FACE ( 'NONE', ( #85 ), #162, .F. ) ;
#113 = CARTESIAN_POINT ( 'NONE',  ( 0.000000000000000000, 1.000000000000000000, 0.000000000000000000 ) ) ;
#114 = CARTESIAN_POINT ( 'NONE',  ( -4.592425496802575451E-17, 0.3750000000000000555, 0.000000000000000000 ) ) ;
#115 = CARTESIAN_POINT ( 'NONE',  ( 0.000000000000000000, 0.000000000000000000, 0.000000000000000000 ) ) ;
#116 = LENGTH_MEASURE_WITH_UNIT ( LENGTH_MEASURE( 0.02539999999999999897 ), #263 );
#117 = FACE_OUTER_BOUND ( 'NONE', #268, .T. ) ;
#118 = EDGE_LOOP ( 'NONE', ( #145, #60 ) ) ;
#119 = PRODUCT ( '12467', '12467', '', ( #260 ) ) ;
#120 = ORIENTED_EDGE ( 'NONE', *, *, #138, .F. ) ;
#121 = LENGTH_MEASURE_WITH_UNIT ( LENGTH_MEASURE( 0.02539999999999999897 ), #295 );
#122 = AXIS2_PLACEMENT_3D ( 'NONE', #114, #256, #110 ) ;
#123 = STYLED_ITEM ( 'NONE', ( #344 ), #107 ) ;
#124 =( NAMED_UNIT ( * ) PLANE_ANGLE_UNIT ( ) SI_UNIT ( $, .RADIAN. ) );
#125 = CYLINDRICAL_SURFACE ( 'NONE', #326, 0.3749999999999996669 ) ;
#126 = AXIS2_PLACEMENT_3D ( 'NONE', #136, #59, #164 ) ;
#127 = CARTESIAN_POINT ( 'NONE',  ( 6.123233995736761105E-17, 3.000000000000000444, 0.000000000000000000 ) ) ;
#128 = CARTESIAN_POINT ( 'NONE',  ( 0.3749999999999998890, 1.000000000000000000, 4.592425496802571754E-17 ) ) ;
#129 = UNCERTAINTY_MEASURE_WITH_UNIT (LENGTH_MEASURE( 1.000000000000000082E-05 ), #163, 'distance_accuracy_value', 'NONE');
#130 = FILL_AREA_STYLE_COLOUR ( '', #291 ) ;
#131 =( NAMED_UNIT ( * ) PLANE_ANGLE_UNIT ( ) SI_UNIT ( $, .RADIAN. ) );
#132 =( NAMED_UNIT ( * ) PLANE_ANGLE_UNIT ( ) SI_UNIT ( $, .RADIAN. ) );
#133 = CARTESIAN_POINT ( 'NONE',  ( 0.3749999999999998890, 3.000000000000000444, 0.000000000000000000 ) ) ;
#134 = SURFACE_STYLE_FILL_AREA ( #189 ) ;
#135 = DIRECTION ( 'NONE',  ( -0.000000000000000000, -1.000000000000000000, -0.000000000000000000 ) ) ;
#136 = CARTESIAN_POINT ( 'NONE',  ( 0.000000000000000000, 0.3750000000000001110, 0.000000000000000000 ) ) ;
#137 = DIRECTION ( 'NONE',  ( 1.000000000000000000, 0.000000000000000000, 0.000000000000000000 ) ) ;
#138 = EDGE_CURVE ( 'NONE', #93, #353, #309, .T. ) ;
#139 = COLOUR_RGB ( '',0.7921568627450980005, 0.8196078431372548767, 0.9333333333333333481 ) ;
#140 =( NAMED_UNIT ( * ) SI_UNIT ( $, .STERADIAN. ) SOLID_ANGLE_UNIT ( ) );
#141 =( NAMED_UNIT ( * ) PLANE_ANGLE_UNIT ( ) SI_UNIT ( $, .RADIAN. ) );
#142 = ORIENTED_EDGE ( 'NONE', *, *, #312, .T. ) ;
#143 = FILL_AREA_STYLE_COLOUR ( '', #296 ) ;
#144 = MECHANICAL_DESIGN_GEOMETRIC_PRESENTATION_REPRESENTATION (  '', ( #225 ), #338 ) ;
#145 = ORIENTED_EDGE ( 'NONE', *, *, #149, .F. ) ;
#146 = FILL_AREA_STYLE ('',( #143 ) ) ;
#147 = EDGE_CURVE ( 'NONE', #95, #325, #220, .T. ) ;
#148 = VECTOR ( 'NONE', #135, 39.37007874015748143 ) ;
#149 = EDGE_CURVE ( 'NONE', #200, #93, #3, .T. ) ;
#150 = SURFACE_SIDE_STYLE ('',( #44 ) ) ;
#151 = PRESENTATION_STYLE_ASSIGNMENT (( #335 ) ) ;
#152 = FILL_AREA_STYLE ('',( #100 ) ) ;
#153 = AXIS2_PLACEMENT_3D ( 'NONE', #305, #154, #245 ) ;
#154 = DIRECTION ( 'NONE',  ( -1.234940623378141365E-16, 1.000000000000000000, -0.000000000000000000 ) ) ;
#155 = VECTOR ( 'NONE', #327, 39.37007874015748143 ) ;
#156 = DIRECTION ( 'NONE',  ( 0.000000000000000000, 0.000000000000000000, -1.000000000000000000 ) ) ;
#157 = DIRECTION ( 'NONE',  ( 0.000000000000000000, 0.000000000000000000, -1.000000000000000000 ) ) ;
#158 = UNCERTAINTY_MEASURE_WITH_UNIT (LENGTH_MEASURE( 1.000000000000000082E-05 ), #366, 'distance_accuracy_value', 'NONE');
#159 = DIMENSIONAL_EXPONENTS ( 1.000000000000000000, 0.000000000000000000, 0.000000000000000000, 0.000000000000000000, 0.000000000000000000, 0.000000000000000000, 0.000000000000000000 ) ;
#160 = DIRECTION ( 'NONE',  ( 1.000000000000000000, 0.000000000000000000, 0.000000000000000000 ) ) ;
#161 = CARTESIAN_POINT ( 'NONE',  ( 0.000000000000000000, 0.3750000000000001110, 0.000000000000000000 ) ) ;
#162 = PLANE ( 'NONE',  #346 ) ;
#163 =( CONVERSION_BASED_UNIT ( 'INCH', #54 ) LENGTH_UNIT ( ) NAMED_UNIT ( #308 ) );
#164 = DIRECTION ( 'NONE',  ( 0.000000000000000000, 0.000000000000000000, -1.000000000000000000 ) ) ;
#165 = DIRECTION ( 'NONE',  ( -0.000000000000000000, -1.000000000000000000, -0.000000000000000000 ) ) ;
#166 = SURFACE_STYLE_USAGE ( .BOTH. , #373 ) ;
#167 = ORIENTED_EDGE ( 'NONE', *, *, #337, .F. ) ;
#168 = AXIS2_PLACEMENT_3D ( 'NONE', #173, #12, #38 ) ;
#169 = PRESENTATION_LAYER_ASSIGNMENT (  '', '', ( #123 ) ) ;
#170 = ORIENTED_EDGE ( 'NONE', *, *, #214, .T. ) ;
#171 = ADVANCED_FACE ( 'NONE', ( #347 ), #227, .F. ) ;
#172 = PRESENTATION_LAYER_ASSIGNMENT (  '', '', ( #92 ) ) ;
#173 = CARTESIAN_POINT ( 'NONE',  ( -4.592425496802575451E-17, 0.3750000000000000555, 0.000000000000000000 ) ) ;
#174 = EDGE_LOOP ( 'NONE', ( #235, #167 ) ) ;
#175 = ORIENTED_EDGE ( 'NONE', *, *, #149, .T. ) ;
#176 = CARTESIAN_POINT ( 'NONE',  ( 3.082204646329958964E-16, 1.000000000000000000, 0.000000000000000000 ) ) ;
#177 = AXIS2_PLACEMENT_3D ( 'NONE', #192, #343, #62 ) ;
#178 =( NAMED_UNIT ( * ) PLANE_ANGLE_UNIT ( ) SI_UNIT ( $, .RADIAN. ) );
#179 = LENGTH_MEASURE_WITH_UNIT ( LENGTH_MEASURE( 0.02539999999999999897 ), #339 );
#180 =( CONVERSION_BASED_UNIT ( 'INCH', #241 ) LENGTH_UNIT ( ) NAMED_UNIT ( #281 ) );
#181 = DIRECTION ( 'NONE',  ( -1.234940623378141365E-16, 1.000000000000000000, -0.000000000000000000 ) ) ;
#182 = CIRCLE ( 'NONE', #126, 0.3749999999999999445 ) ;
#183 = SURFACE_STYLE_USAGE ( .BOTH. , #150 ) ;
#184 = DIRECTION ( 'NONE',  ( -1.000000000000000000, 0.000000000000000000, 0.000000000000000000 ) ) ;
#185 = SPHERICAL_SURFACE ( 'NONE', #46, 0.3750000000000000555 ) ;
#186 = PRESENTATION_STYLE_ASSIGNMENT (( #228 ) ) ;
#187 = DIMENSIONAL_EXPONENTS ( 1.000000000000000000, 0.000000000000000000, 0.000000000000000000, 0.000000000000000000, 0.000000000000000000, 0.000000000000000000, 0.000000000000000000 ) ;
#188 = DIRECTION ( 'NONE',  ( -1.234940623378141365E-16, 1.000000000000000000, 0.000000000000000000 ) ) ;
#189 = FILL_AREA_STYLE ('',( #1 ) ) ;
#190 = AXIS2_PLACEMENT_3D ( 'NONE', #341, #348, #160 ) ;
#191 =( NAMED_UNIT ( * ) PLANE_ANGLE_UNIT ( ) SI_UNIT ( $, .RADIAN. ) );
#192 = CARTESIAN_POINT ( 'NONE',  ( 0.000000000000000000, 1.000000000000000000, 0.000000000000000000 ) ) ;
#193 = EDGE_CURVE ( 'NONE', #232, #204, #182, .T. ) ;
#194 = APPLICATION_PROTOCOL_DEFINITION ( 'draft international standard', 'automotive_design', 1998, #217 ) ;
#195 = VERTEX_POINT ( 'NONE', #286 ) ;
#196 = AXIS2_PLACEMENT_3D ( 'NONE', #176, #300, #252 ) ;
#197 = FILL_AREA_STYLE ('',( #352 ) ) ;
#198 =( GEOMETRIC_REPRESENTATION_CONTEXT ( 3 ) GLOBAL_UNCERTAINTY_ASSIGNED_CONTEXT ( ( #248 ) ) GLOBAL_UNIT_ASSIGNED_CONTEXT ( ( #203, #74, #239 ) ) REPRESENTATION_CONTEXT ( 'NONE', 'WORKASPACE' ) );
#199 = FACE_OUTER_BOUND ( 'NONE', #41, .T. ) ;
#200 = VERTEX_POINT ( 'NONE', #31 ) ;
#201 = AXIS2_PLACEMENT_3D ( 'NONE', #259, #28, #221 ) ;
#202 = CIRCLE ( 'NONE', #5, 0.3749999999999999445 ) ;
#203 =( CONVERSION_BASED_UNIT ( 'INCH', #121 ) LENGTH_UNIT ( ) NAMED_UNIT ( #52 ) );
#204 = VERTEX_POINT ( 'NONE', #4 ) ;
#205 = DIMENSIONAL_EXPONENTS ( 1.000000000000000000, 0.000000000000000000, 0.000000000000000000, 0.000000000000000000, 0.000000000000000000, 0.000000000000000000, 0.000000000000000000 ) ;
#206 = LINE ( 'NONE', #330, #155 ) ;
#207 = PRESENTATION_LAYER_ASSIGNMENT (  '', '', ( #225 ) ) ;
#208 = CARTESIAN_POINT ( 'NONE',  ( 0.000000000000000000, 0.000000000000000000, 0.000000000000000000 ) ) ;
#209 = SURFACE_STYLE_USAGE ( .BOTH. , #49 ) ;
#210 = FACE_OUTER_BOUND ( 'NONE', #68, .T. ) ;
#211 =( NAMED_UNIT ( * ) SI_UNIT ( $, .STERADIAN. ) SOLID_ANGLE_UNIT ( ) );
#212 = UNCERTAINTY_MEASURE_WITH_UNIT (LENGTH_MEASURE( 1.000000000000000082E-05 ), #180, 'distance_accuracy_value', 'NONE');
#213 = AXIS2_PLACEMENT_3D ( 'NONE', #72, #181, #184 ) ;
#214 = EDGE_CURVE ( 'NONE', #93, #200, #334, .T. ) ;
#215 = CYLINDRICAL_SURFACE ( 'NONE', #323, 0.3749999999999999445 ) ;
#216 = DIRECTION ( 'NONE',  ( -1.000000000000000000, 0.000000000000000000, 0.000000000000000000 ) ) ;
#217 = APPLICATION_CONTEXT ( 'automotive_design' ) ;
#218 = SPHERICAL_SURFACE ( 'NONE', #190, 0.3750000000000000555 ) ;
#219 = LENGTH_MEASURE_WITH_UNIT ( LENGTH_MEASURE( 0.02539999999999999897 ), #108 );
#220 = CIRCLE ( 'NONE', #122, 0.3750000000000000555 ) ;
#221 = DIRECTION ( 'NONE',  ( 0.000000000000000000, 0.000000000000000000, -1.000000000000000000 ) ) ;
#222 = MANIFOLD_SOLID_BREP ( 'Revolve - Tool Body (Straight Shanked)', #313 ) ;
#223 = DIRECTION ( 'NONE',  ( -0.000000000000000000, -1.000000000000000000, -0.000000000000000000 ) ) ;
#224 = ORIENTED_EDGE ( 'NONE', *, *, #147, .F. ) ;
#225 = STYLED_ITEM ( 'NONE', ( #270 ), #36 ) ;
#226 = DIRECTION ( 'NONE',  ( -0.000000000000000000, -1.000000000000000000, -0.000000000000000000 ) ) ;
#227 = PLANE ( 'NONE',  #364 ) ;
#228 = SURFACE_STYLE_USAGE ( .BOTH. , #314 ) ;
#229 = VECTOR ( 'NONE', #277, 39.37007874015748143 ) ;
#230 = ORIENTED_EDGE ( 'NONE', *, *, #278, .T. ) ;
#231 = ORIENTED_EDGE ( 'NONE', *, *, #9, .F. ) ;
#232 = VERTEX_POINT ( 'NONE', #316 ) ;
#233 = AXIS2_PLACEMENT_3D ( 'NONE', #127, #45, #243 ) ;
#234 = ORIENTED_EDGE ( 'NONE', *, *, #138, .T. ) ;
#235 = ORIENTED_EDGE ( 'NONE', *, *, #321, .F. ) ;
#236 = ADVANCED_BREP_SHAPE_REPRESENTATION ( '12467', ( #99, #222, #39 ), #365 ) ;
#237 = DIRECTION ( 'NONE',  ( 1.000000000000000000, 0.000000000000000000, 0.000000000000000000 ) ) ;
#238 = FILL_AREA_STYLE_COLOUR ( '', #63 ) ;
#239 =( NAMED_UNIT ( * ) SI_UNIT ( $, .STERADIAN. ) SOLID_ANGLE_UNIT ( ) );
#240 = PRODUCT_DEFINITION_FORMATION_WITH_SPECIFIED_SOURCE ( 'ANY', '', #119, .NOT_KNOWN. ) ;
#241 = LENGTH_MEASURE_WITH_UNIT ( LENGTH_MEASURE( 0.02539999999999999897 ), #362 );
#242 = LINE ( 'NONE', #96, #111 ) ;
#243 = DIRECTION ( 'NONE',  ( -1.000000000000000000, 0.000000000000000000, 0.000000000000000000 ) ) ;
#244 = LENGTH_MEASURE_WITH_UNIT ( LENGTH_MEASURE( 0.02539999999999999897 ), #246 );
#245 = DIRECTION ( 'NONE',  ( -1.000000000000000000, 0.000000000000000000, 0.000000000000000000 ) ) ;
#246 =( LENGTH_UNIT ( ) NAMED_UNIT ( * ) SI_UNIT ( $, .METRE. ) );
#247 = CARTESIAN_POINT ( 'NONE',  ( 3.082204646329958964E-16, 1.000000000000000000, 0.000000000000000000 ) ) ;
#248 = UNCERTAINTY_MEASURE_WITH_UNIT (LENGTH_MEASURE( 1.000000000000000082E-05 ), #203, 'distance_accuracy_value', 'NONE');
#249 = STYLED_ITEM ( 'NONE', ( #186 ), #342 ) ;
#250 = FILL_AREA_STYLE ('',( #130 ) ) ;
#251 = COLOUR_RGB ( '',1.000000000000000000, 0.000000000000000000, 0.000000000000000000 ) ;
#252 = DIRECTION ( 'NONE',  ( -1.000000000000000000, 0.000000000000000000, 0.000000000000000000 ) ) ;
#253 = ORIENTED_EDGE ( 'NONE', *, *, #193, .F. ) ;
#254 = DIMENSIONAL_EXPONENTS ( 1.000000000000000000, 0.000000000000000000, 0.000000000000000000, 0.000000000000000000, 0.000000000000000000, 0.000000000000000000, 0.000000000000000000 ) ;
#255 = CARTESIAN_POINT ( 'NONE',  ( 0.000000000000000000, 0.3750000000000001110, 0.000000000000000000 ) ) ;
#256 = DIRECTION ( 'NONE',  ( 1.224646799147353207E-16, -0.000000000000000000, 1.000000000000000000 ) ) ;
#257 = ADVANCED_FACE ( 'NONE', ( #368 ), #75, .T. ) ;
#258 = COLOUR_RGB ( '',0.7921568627450980005, 0.8196078431372548767, 0.9333333333333333481 ) ;
#259 = CARTESIAN_POINT ( 'NONE',  ( 0.000000000000000000, 1.000000000000000000, 0.000000000000000000 ) ) ;
#260 = PRODUCT_CONTEXT ( 'NONE', #217, 'mechanical' ) ;
#261 = ORIENTED_EDGE ( 'NONE', *, *, #48, .F. ) ;
#262 = MECHANICAL_DESIGN_GEOMETRIC_PRESENTATION_REPRESENTATION (  '', ( #35 ), #76 ) ;
#263 =( LENGTH_UNIT ( ) NAMED_UNIT ( * ) SI_UNIT ( $, .METRE. ) );
#264 = ORIENTED_EDGE ( 'NONE', *, *, #83, .F. ) ;
#265 = SURFACE_STYLE_USAGE ( .BOTH. , #67 ) ;
#266 = ADVANCED_FACE ( 'NONE', ( #328 ), #125, .T. ) ;
#267 = PRODUCT_DEFINITION_SHAPE ( 'NONE', 'NONE',  #25 ) ;
#268 = EDGE_LOOP ( 'NONE', ( #269, #319, #231, #10 ) ) ;
#269 = ORIENTED_EDGE ( 'NONE', *, *, #359, .T. ) ;
#270 = PRESENTATION_STYLE_ASSIGNMENT (( #183 ) ) ;
#271 = CARTESIAN_POINT ( 'NONE',  ( -4.592425496802575451E-17, 0.3750000000000000555, 0.000000000000000000 ) ) ;
#272 = CIRCLE ( 'NONE', #233, 0.3749999999999998335 ) ;
#273 = DIRECTION ( 'NONE',  ( -1.234940623378141365E-16, 1.000000000000000000, -0.000000000000000000 ) ) ;
#274 = CIRCLE ( 'NONE', #168, 0.3750000000000000555 ) ;
#275 = UNCERTAINTY_MEASURE_WITH_UNIT (LENGTH_MEASURE( 1.000000000000000082E-05 ), #98, 'distance_accuracy_value', 'NONE');
#276 = FILL_AREA_STYLE ('',( #19 ) ) ;
#277 = DIRECTION ( 'NONE',  ( -0.000000000000000000, -1.000000000000000000, -0.000000000000000000 ) ) ;
#278 = EDGE_CURVE ( 'NONE', #13, #195, #272, .T. ) ;
#279 =( LENGTH_UNIT ( ) NAMED_UNIT ( * ) SI_UNIT ( $, .METRE. ) );
#280 = CIRCLE ( 'NONE', #97, 0.3749999999999999445 ) ;
#281 = DIMENSIONAL_EXPONENTS ( 1.000000000000000000, 0.000000000000000000, 0.000000000000000000, 0.000000000000000000, 0.000000000000000000, 0.000000000000000000, 0.000000000000000000 ) ;
#282 = LENGTH_MEASURE_WITH_UNIT ( LENGTH_MEASURE( 0.02539999999999999897 ), #279 );
#283 = DIRECTION ( 'NONE',  ( 0.000000000000000000, 0.000000000000000000, -1.000000000000000000 ) ) ;
#284 = ADVANCED_FACE ( 'NONE', ( #210 ), #332, .T. ) ;
#285 = DIRECTION ( 'NONE',  ( -1.000000000000000000, -1.234940623378141365E-16, 0.000000000000000000 ) ) ;
#286 = CARTESIAN_POINT ( 'NONE',  ( -0.3749999999999997780, 3.000000000000000444, 0.000000000000000000 ) ) ;
#287 =( LENGTH_UNIT ( ) NAMED_UNIT ( * ) SI_UNIT ( $, .METRE. ) );
#288 = ORIENTED_EDGE ( 'NONE', *, *, #278, .F. ) ;
#289 =( GEOMETRIC_REPRESENTATION_CONTEXT ( 3 ) GLOBAL_UNCERTAINTY_ASSIGNED_CONTEXT ( ( #333 ) ) GLOBAL_UNIT_ASSIGNED_CONTEXT ( ( #26, #132, #81 ) ) REPRESENTATION_CONTEXT ( 'NONE', 'WORKASPACE' ) );
#290 =( CONVERSION_BASED_UNIT ( 'INCH', #219 ) LENGTH_UNIT ( ) NAMED_UNIT ( #205 ) );
#291 = COLOUR_RGB ( '',1.000000000000000000, 0.000000000000000000, 0.000000000000000000 ) ;
#292 = SURFACE_STYLE_FILL_AREA ( #197 ) ;
#293 = VERTEX_POINT ( 'NONE', #128 ) ;
#294 = AXIS2_PLACEMENT_3D ( 'NONE', #247, #105, #216 ) ;
#295 =( LENGTH_UNIT ( ) NAMED_UNIT ( * ) SI_UNIT ( $, .METRE. ) );
#296 = COLOUR_RGB ( '',1.000000000000000000, 0.000000000000000000, 0.000000000000000000 ) ;
#297 = EDGE_LOOP ( 'NONE', ( #120, #170, #142, #356, #360 ) ) ;
#298 = ORIENTED_EDGE ( 'NONE', *, *, #307, .F. ) ;
#299 = ORIENTED_EDGE ( 'NONE', *, *, #83, .T. ) ;
#300 = DIRECTION ( 'NONE',  ( -1.234940623378141365E-16, 1.000000000000000000, -0.000000000000000000 ) ) ;
#301 = DIRECTION ( 'NONE',  ( -1.234940623378141365E-16, 1.000000000000000000, -0.000000000000000000 ) ) ;
#302 = SURFACE_STYLE_FILL_AREA ( #152 ) ;
#303 = CARTESIAN_POINT ( 'NONE',  ( 6.123233995736759873E-17, 3.000000000000000444, 0.000000000000000000 ) ) ;
#304 = MECHANICAL_DESIGN_GEOMETRIC_PRESENTATION_REPRESENTATION (  '', ( #92 ), #103 ) ;
#305 = CARTESIAN_POINT ( 'NONE',  ( 6.123233995736761105E-17, 3.000000000000000444, 0.000000000000000000 ) ) ;
#306 = SURFACE_STYLE_FILL_AREA ( #51 ) ;
#307 = EDGE_CURVE ( 'NONE', #195, #13, #80, .T. ) ;
#308 = DIMENSIONAL_EXPONENTS ( 1.000000000000000000, 0.000000000000000000, 0.000000000000000000, 0.000000000000000000, 0.000000000000000000, 0.000000000000000000, 0.000000000000000000 ) ;
#309 = LINE ( 'NONE', #55, #148 ) ;
#310 =( NAMED_UNIT ( * ) SI_UNIT ( $, .STERADIAN. ) SOLID_ANGLE_UNIT ( ) );
#311 = CIRCLE ( 'NONE', #294, 0.3749999999999995559 ) ;
#312 = EDGE_CURVE ( 'NONE', #200, #232, #370, .T. ) ;
#313 = CLOSED_SHELL ( 'NONE', ( #284, #112, #266, #171 ) ) ;
#314 = SURFACE_SIDE_STYLE ('',( #134 ) ) ;
#315 = DIRECTION ( 'NONE',  ( 1.000000000000000000, 1.234940623378141365E-16, 0.000000000000000000 ) ) ;
#316 = CARTESIAN_POINT ( 'NONE',  ( 0.000000000000000000, 0.3750000000000001110, -0.3749999999999999445 ) ) ;
#317 = PRESENTATION_STYLE_ASSIGNMENT (( #64 ) ) ;
#318 = PRESENTATION_LAYER_ASSIGNMENT (  '', '', ( #14 ) ) ;
#319 = ORIENTED_EDGE ( 'NONE', *, *, #147, .T. ) ;
#320 = VERTEX_POINT ( 'NONE', #24 ) ;
#321 = EDGE_CURVE ( 'NONE', #320, #293, #311, .T. ) ;
#322 = MECHANICAL_DESIGN_GEOMETRIC_PRESENTATION_REPRESENTATION (  '', ( #249 ), #351 ) ;
#323 = AXIS2_PLACEMENT_3D ( 'NONE', #22, #47, #156 ) ;
#324 = ORIENTED_EDGE ( 'NONE', *, *, #48, .T. ) ;
#325 = VERTEX_POINT ( 'NONE', #340 ) ;
#326 = AXIS2_PLACEMENT_3D ( 'NONE', #303, #273, #20 ) ;
#327 = DIRECTION ( 'NONE',  ( -1.234940623378141365E-16, 1.000000000000000000, -0.000000000000000000 ) ) ;
#328 = FACE_OUTER_BOUND ( 'NONE', #40, .T. ) ;
#329 = PRODUCT_DEFINITION_CONTEXT ( 'detailed design', #43, 'design' ) ;
#330 = CARTESIAN_POINT ( 'NONE',  ( -0.3749999999999996114, 3.000000000000000444, 0.000000000000000000 ) ) ;
#331 = PRESENTATION_STYLE_ASSIGNMENT (( #209 ) ) ;
#332 = CYLINDRICAL_SURFACE ( 'NONE', #213, 0.3749999999999996669 ) ;
#333 = UNCERTAINTY_MEASURE_WITH_UNIT (LENGTH_MEASURE( 1.000000000000000082E-05 ), #26, 'distance_accuracy_value', 'NONE');
#334 = CIRCLE ( 'NONE', #73, 0.3749999999999998890 ) ;
#335 = SURFACE_STYLE_USAGE ( .BOTH. , #17 ) ;
#336 = CLOSED_SHELL ( 'NONE', ( #16, #36, #342, #257, #107 ) ) ;
#337 = EDGE_CURVE ( 'NONE', #293, #320, #372, .T. ) ;
#338 =( GEOMETRIC_REPRESENTATION_CONTEXT ( 3 ) GLOBAL_UNCERTAINTY_ASSIGNED_CONTEXT ( ( #158 ) ) GLOBAL_UNIT_ASSIGNED_CONTEXT ( ( #366, #124, #361 ) ) REPRESENTATION_CONTEXT ( 'NONE', 'WORKASPACE' ) );
#339 =( LENGTH_UNIT ( ) NAMED_UNIT ( * ) SI_UNIT ( $, .METRE. ) );
#340 = CARTESIAN_POINT ( 'NONE',  ( -2.296212748401287726E-17, 0.000000000000000000, 0.000000000000000000 ) ) ;
#341 = CARTESIAN_POINT ( 'NONE',  ( -4.592425496802575451E-17, 0.3750000000000000555, 0.000000000000000000 ) ) ;
#342 = ADVANCED_FACE ( 'NONE', ( #79 ), #57, .T. ) ;
#343 = DIRECTION ( 'NONE',  ( 0.000000000000000000, 1.000000000000000000, 0.000000000000000000 ) ) ;
#344 = PRESENTATION_STYLE_ASSIGNMENT (( #166 ) ) ;
#345 = ORIENTED_EDGE ( 'NONE', *, *, #193, .T. ) ;
#346 = AXIS2_PLACEMENT_3D ( 'NONE', #78, #188, #285 ) ;
#347 = FACE_OUTER_BOUND ( 'NONE', #88, .T. ) ;
#348 = DIRECTION ( 'NONE',  ( 0.000000000000000000, 0.000000000000000000, 1.000000000000000000 ) ) ;
#349 = SHAPE_DEFINITION_REPRESENTATION ( #267, #236 ) ;
#350 = DIRECTION ( 'NONE',  ( 0.000000000000000000, 0.000000000000000000, -1.000000000000000000 ) ) ;
#351 =( GEOMETRIC_REPRESENTATION_CONTEXT ( 3 ) GLOBAL_UNCERTAINTY_ASSIGNED_CONTEXT ( ( #129 ) ) GLOBAL_UNIT_ASSIGNED_CONTEXT ( ( #163, #141, #310 ) ) REPRESENTATION_CONTEXT ( 'NONE', 'WORKASPACE' ) );
#352 = FILL_AREA_STYLE_COLOUR ( '', #258 ) ;
#353 = VERTEX_POINT ( 'NONE', #58 ) ;
#354 = PRESENTATION_STYLE_ASSIGNMENT (( #265 ) ) ;
#355 = EDGE_CURVE ( 'NONE', #95, #232, #27, .T. ) ;
#356 = ORIENTED_EDGE ( 'NONE', *, *, #355, .F. ) ;
#357 = MECHANICAL_DESIGN_GEOMETRIC_PRESENTATION_REPRESENTATION (  '', ( #50 ), #56 ) ;
#358 = ORIENTED_EDGE ( 'NONE', *, *, #307, .T. ) ;
#359 = EDGE_CURVE ( 'NONE', #353, #95, #280, .T. ) ;
#360 = ORIENTED_EDGE ( 'NONE', *, *, #359, .F. ) ;
#361 =( NAMED_UNIT ( * ) SI_UNIT ( $, .STERADIAN. ) SOLID_ANGLE_UNIT ( ) );
#362 =( LENGTH_UNIT ( ) NAMED_UNIT ( * ) SI_UNIT ( $, .METRE. ) );
#363 = DIMENSIONAL_EXPONENTS ( 1.000000000000000000, 0.000000000000000000, 0.000000000000000000, 0.000000000000000000, 0.000000000000000000, 0.000000000000000000, 0.000000000000000000 ) ;
#364 = AXIS2_PLACEMENT_3D ( 'NONE', #133, #84, #315 ) ;
#365 =( GEOMETRIC_REPRESENTATION_CONTEXT ( 3 ) GLOBAL_UNCERTAINTY_ASSIGNED_CONTEXT ( ( #371 ) ) GLOBAL_UNIT_ASSIGNED_CONTEXT ( ( #290, #30, #2 ) ) REPRESENTATION_CONTEXT ( 'NONE', 'WORKASPACE' ) );
#366 =( CONVERSION_BASED_UNIT ( 'INCH', #179 ) LENGTH_UNIT ( ) NAMED_UNIT ( #159 ) );
#367 = CARTESIAN_POINT ( 'NONE',  ( 0.000000000000000000, 0.3750000000000001110, 0.000000000000000000 ) ) ;
#368 = FACE_OUTER_BOUND ( 'NONE', #297, .T. ) ;
#369 =( CONVERSION_BASED_UNIT ( 'INCH', #244 ) LENGTH_UNIT ( ) NAMED_UNIT ( #187 ) );
#370 = LINE ( 'NONE', #102, #229 ) ;
#371 = UNCERTAINTY_MEASURE_WITH_UNIT (LENGTH_MEASURE( 1.000000000000000082E-05 ), #290, 'distance_accuracy_value', 'NONE');
#372 = CIRCLE ( 'NONE', #196, 0.3749999999999995559 ) ;
#373 = SURFACE_SIDE_STYLE ('',( #61 ) ) ;
ENDSEC;
END-ISO-10303-21;
