ISO-10303-21;
HEADER;
FILE_DESCRIPTION (( 'STEP AP214' ),
    '1' );
FILE_NAME ('84629.STEP',
    '2023-06-23T14:06:34',
    ( '' ),
    ( '' ),
    'SwSTEP 2.0',
    'SolidWorks 2023',
    '' );
FILE_SCHEMA (( 'AUTOMOTIVE_DESIGN' ));
ENDSEC;

DATA;
#1 = SURFACE_SIDE_STYLE ('',( #141 ) ) ;
#2 = COLOUR_RGB ( '',0.7921568627450980005, 0.8196078431372548767, 0.9333333333333333481 ) ;
#3 = CARTESIAN_POINT ( 'NONE',  ( 0.000000000000000000, 0.000000000000000000, 0.000000000000000000 ) ) ;
#4 = FACE_OUTER_BOUND ( 'NONE', #196, .T. ) ;
#5 = DIRECTION ( 'NONE',  ( -1.000000000000000000, 0.000000000000000000, 0.000000000000000000 ) ) ;
#6 = EDGE_CURVE ( 'NONE', #187, #135, #59, .T. ) ;
#7 = LENGTH_MEASURE_WITH_UNIT ( LENGTH_MEASURE( 0.02539999999999999897 ), #261 );
#8 = CARTESIAN_POINT ( 'NONE',  ( -6.123233995736772199E-17, 3.000000000000000444, 0.000000000000000000 ) ) ;
#9 = ADVANCED_FACE ( 'NONE', ( #302 ), #207, .T. ) ;
#10 = ADVANCED_FACE ( 'NONE', ( #4 ), #143, .T. ) ;
#11 = AXIS2_PLACEMENT_3D ( 'NONE', #150, #198, #200 ) ;
#12 =( LENGTH_UNIT ( ) NAMED_UNIT ( * ) SI_UNIT ( $, .METRE. ) );
#13 = DIRECTION ( 'NONE',  ( -3.768143997376474441E-17, 1.000000000000000000, 0.000000000000000000 ) ) ;
#14 = VERTEX_POINT ( 'NONE', #173 ) ;
#15 = ORIENTED_EDGE ( 'NONE', *, *, #38, .T. ) ;
#16 = STYLED_ITEM ( 'NONE', ( #53 ), #10 ) ;
#17 = CARTESIAN_POINT ( 'NONE',  ( 0.000000000000000000, 1.375000000000000000, 0.000000000000000000 ) ) ;
#18 = EDGE_LOOP ( 'NONE', ( #305, #229, #282, #231 ) ) ;
#19 = SURFACE_STYLE_USAGE ( .BOTH. , #192 ) ;
#20 = EDGE_LOOP ( 'NONE', ( #86, #44 ) ) ;
#21 = DIRECTION ( 'NONE',  ( -0.000000000000000000, -1.000000000000000000, -0.000000000000000000 ) ) ;
#22 = EDGE_LOOP ( 'NONE', ( #248, #85 ) ) ;
#23 = PRODUCT_DEFINITION ( 'UNKNOWN', '', #215, #33 ) ;
#24 = AXIS2_PLACEMENT_3D ( 'NONE', #273, #13, #61 ) ;
#25 = DIRECTION ( 'NONE',  ( -0.000000000000000000, -1.000000000000000000, -0.000000000000000000 ) ) ;
#26 = DIRECTION ( 'NONE',  ( 0.000000000000000000, 0.000000000000000000, -1.000000000000000000 ) ) ;
#27 = CARTESIAN_POINT ( 'NONE',  ( -0.09375000000000001388, 1.375000000000000000, 0.000000000000000000 ) ) ;
#28 = CARTESIAN_POINT ( 'NONE',  ( 0.000000000000000000, 0.000000000000000000, 0.000000000000000000 ) ) ;
#29 = AXIS2_PLACEMENT_3D ( 'NONE', #3, #119, #283 ) ;
#30 = DIRECTION ( 'NONE',  ( -0.000000000000000000, -1.000000000000000000, -0.000000000000000000 ) ) ;
#31 = MECHANICAL_DESIGN_GEOMETRIC_PRESENTATION_REPRESENTATION (  '', ( #16 ), #243 ) ;
#32 = DIRECTION ( 'NONE',  ( -1.000000000000000000, 0.000000000000000000, 0.000000000000000000 ) ) ;
#33 = PRODUCT_DEFINITION_CONTEXT ( 'detailed design', #289, 'design' ) ;
#34 = DIRECTION ( 'NONE',  ( 0.000000000000000000, 0.000000000000000000, -1.000000000000000000 ) ) ;
#35 = AXIS2_PLACEMENT_3D ( 'NONE', #250, #134, #160 ) ;
#36 = SURFACE_STYLE_FILL_AREA ( #205 ) ;
#37 = ORIENTED_EDGE ( 'NONE', *, *, #153, .T. ) ;
#38 = EDGE_CURVE ( 'NONE', #227, #14, #225, .T. ) ;
#39 = FILL_AREA_STYLE ('',( #138 ) ) ;
#40 = EDGE_CURVE ( 'NONE', #187, #275, #120, .T. ) ;
#41 = PRESENTATION_STYLE_ASSIGNMENT (( #251 ) ) ;
#42 = COLOUR_RGB ( '',0.7921568627450980005, 0.8196078431372548767, 0.9333333333333333481 ) ;
#43 = PRESENTATION_STYLE_ASSIGNMENT (( #278 ) ) ;
#44 = ORIENTED_EDGE ( 'NONE', *, *, #174, .F. ) ;
#45 =( LENGTH_UNIT ( ) NAMED_UNIT ( * ) SI_UNIT ( $, .METRE. ) );
#46 = ADVANCED_FACE ( 'NONE', ( #256 ), #260, .T. ) ;
#47 = FILL_AREA_STYLE ('',( #51 ) ) ;
#48 = VECTOR ( 'NONE', #156, 39.37007874015748143 ) ;
#49 = VECTOR ( 'NONE', #175, 39.37007874015748143 ) ;
#50 = CARTESIAN_POINT ( 'NONE',  ( 1.148106374200643863E-17, 0.000000000000000000, 0.09375000000000001388 ) ) ;
#51 = FILL_AREA_STYLE_COLOUR ( '', #170 ) ;
#52 = CARTESIAN_POINT ( 'NONE',  ( 0.09374999999999997224, 3.000000000000000444, 1.148106374200644171E-17 ) ) ;
#53 = PRESENTATION_STYLE_ASSIGNMENT (( #262 ) ) ;
#54 = FACE_OUTER_BOUND ( 'NONE', #18, .T. ) ;
#55 = CARTESIAN_POINT ( 'NONE',  ( 0.000000000000000000, 1.375000000000000000, 0.000000000000000000 ) ) ;
#56 = LINE ( 'NONE', #270, #115 ) ;
#57 = DIRECTION ( 'NONE',  ( -0.000000000000000000, -1.000000000000000000, -0.000000000000000000 ) ) ;
#58 = DIRECTION ( 'NONE',  ( -3.768143997376474441E-17, 1.000000000000000000, -0.000000000000000000 ) ) ;
#59 = CIRCLE ( 'NONE', #300, 0.09375000000000001388 ) ;
#60 = CIRCLE ( 'NONE', #35, 0.09375000000000006939 ) ;
#61 = DIRECTION ( 'NONE',  ( -1.000000000000000000, -3.768143997376474441E-17, 0.000000000000000000 ) ) ;
#62 = PLANE ( 'NONE',  #24 ) ;
#63 = LENGTH_MEASURE_WITH_UNIT ( LENGTH_MEASURE( 0.02539999999999999897 ), #45 );
#64 =( GEOMETRIC_REPRESENTATION_CONTEXT ( 3 ) GLOBAL_UNCERTAINTY_ASSIGNED_CONTEXT ( ( #105 ) ) GLOBAL_UNIT_ASSIGNED_CONTEXT ( ( #98, #294, #126 ) ) REPRESENTATION_CONTEXT ( 'NONE', 'WORKASPACE' ) );
#65 = DIRECTION ( 'NONE',  ( -1.000000000000000000, 0.000000000000000000, 0.000000000000000000 ) ) ;
#66 = DIRECTION ( 'NONE',  ( -0.000000000000000000, -1.000000000000000000, -0.000000000000000000 ) ) ;
#67 = UNCERTAINTY_MEASURE_WITH_UNIT (LENGTH_MEASURE( 1.000000000000000082E-05 ), #238, 'distance_accuracy_value', 'NONE');
#68 = PRODUCT_RELATED_PRODUCT_CATEGORY ( 'part', '', ( #263 ) ) ;
#69 = PRESENTATION_LAYER_ASSIGNMENT (  '', '', ( #258 ) ) ;
#70 = PRODUCT_CONTEXT ( 'NONE', #223, 'mechanical' ) ;
#71 =( NAMED_UNIT ( * ) PLANE_ANGLE_UNIT ( ) SI_UNIT ( $, .RADIAN. ) );
#72 = CARTESIAN_POINT ( 'NONE',  ( 0.000000000000000000, 0.000000000000000000, 0.000000000000000000 ) ) ;
#73 = FILL_AREA_STYLE_COLOUR ( '', #142 ) ;
#74 = CIRCLE ( 'NONE', #239, 0.09375000000000001388 ) ;
#75 = CARTESIAN_POINT ( 'NONE',  ( 0.000000000000000000, 1.375000000000000000, -0.09375000000000001388 ) ) ;
#76 = SURFACE_SIDE_STYLE ('',( #245 ) ) ;
#77 = STYLED_ITEM ( 'NONE', ( #152 ), #117 ) ;
#78 = FACE_OUTER_BOUND ( 'NONE', #210, .T. ) ;
#79 = DIRECTION ( 'NONE',  ( -3.768143997376474441E-17, 1.000000000000000000, -0.000000000000000000 ) ) ;
#80 =( LENGTH_UNIT ( ) NAMED_UNIT ( * ) SI_UNIT ( $, .METRE. ) );
#81 = FILL_AREA_STYLE ('',( #299 ) ) ;
#82 =( NAMED_UNIT ( * ) PLANE_ANGLE_UNIT ( ) SI_UNIT ( $, .RADIAN. ) );
#83 = ORIENTED_EDGE ( 'NONE', *, *, #130, .F. ) ;
#84 = DIMENSIONAL_EXPONENTS ( 1.000000000000000000, 0.000000000000000000, 0.000000000000000000, 0.000000000000000000, 0.000000000000000000, 0.000000000000000000, 0.000000000000000000 ) ;
#85 = ORIENTED_EDGE ( 'NONE', *, *, #6, .F. ) ;
#86 = ORIENTED_EDGE ( 'NONE', *, *, #95, .F. ) ;
#87 = CARTESIAN_POINT ( 'NONE',  ( 1.148106374200643863E-17, 0.000000000000000000, 0.09375000000000001388 ) ) ;
#88 = ORIENTED_EDGE ( 'NONE', *, *, #130, .T. ) ;
#89 =( CONVERSION_BASED_UNIT ( 'INCH', #241 ) LENGTH_UNIT ( ) NAMED_UNIT ( #127 ) );
#90 = APPLICATION_PROTOCOL_DEFINITION ( 'draft international standard', 'automotive_design', 1998, #223 ) ;
#91 =( GEOMETRIC_REPRESENTATION_CONTEXT ( 3 ) GLOBAL_UNCERTAINTY_ASSIGNED_CONTEXT ( ( #233 ) ) GLOBAL_UNIT_ASSIGNED_CONTEXT ( ( #179, #129, #222 ) ) REPRESENTATION_CONTEXT ( 'NONE', 'WORKASPACE' ) );
#92 = APPLICATION_PROTOCOL_DEFINITION ( 'draft international standard', 'automotive_design', 1998, #289 ) ;
#93 = CARTESIAN_POINT ( 'NONE',  ( 0.000000000000000000, 0.000000000000000000, 0.000000000000000000 ) ) ;
#94 = DIRECTION ( 'NONE',  ( 0.000000000000000000, 0.000000000000000000, -1.000000000000000000 ) ) ;
#95 = EDGE_CURVE ( 'NONE', #284, #110, #268, .T. ) ;
#96 = CARTESIAN_POINT ( 'NONE',  ( -6.123233995736772199E-17, 3.000000000000000444, 0.000000000000000000 ) ) ;
#97 = MECHANICAL_DESIGN_GEOMETRIC_PRESENTATION_REPRESENTATION (  '', ( #116 ), #202 ) ;
#98 =( CONVERSION_BASED_UNIT ( 'INCH', #104 ) LENGTH_UNIT ( ) NAMED_UNIT ( #303 ) );
#99 = ADVANCED_FACE ( 'NONE', ( #54 ), #100, .T. ) ;
#100 = CYLINDRICAL_SURFACE ( 'NONE', #181, 0.09375000000000004163 ) ;
#101 = CARTESIAN_POINT ( 'NONE',  ( 0.000000000000000000, 0.000000000000000000, 0.000000000000000000 ) ) ;
#102 = PRESENTATION_LAYER_ASSIGNMENT (  '', '', ( #16 ) ) ;
#103 = CIRCLE ( 'NONE', #182, 0.09375000000000001388 ) ;
#104 = LENGTH_MEASURE_WITH_UNIT ( LENGTH_MEASURE( 0.02539999999999999897 ), #12 );
#105 = UNCERTAINTY_MEASURE_WITH_UNIT (LENGTH_MEASURE( 1.000000000000000082E-05 ), #98, 'distance_accuracy_value', 'NONE');
#106 = CYLINDRICAL_SURFACE ( 'NONE', #137, 0.09375000000000004163 ) ;
#107 = DIRECTION ( 'NONE',  ( 0.000000000000000000, 0.000000000000000000, -1.000000000000000000 ) ) ;
#108 = SURFACE_STYLE_FILL_AREA ( #39 ) ;
#109 = STYLED_ITEM ( 'NONE', ( #199 ), #46 ) ;
#110 = VERTEX_POINT ( 'NONE', #226 ) ;
#111 = CIRCLE ( 'NONE', #293, 0.09375000000000001388 ) ;
#112 = ORIENTED_EDGE ( 'NONE', *, *, #183, .T. ) ;
#113 = FACE_OUTER_BOUND ( 'NONE', #309, .T. ) ;
#114 = SHAPE_DEFINITION_REPRESENTATION ( #171, #257 ) ;
#115 = VECTOR ( 'NONE', #58, 39.37007874015748143 ) ;
#116 = STYLED_ITEM ( 'NONE', ( #163 ), #219 ) ;
#117 = MANIFOLD_SOLID_BREP ( 'Revolve - Tool Body (Straight Shanked)', #157 ) ;
#118 = ADVANCED_FACE ( 'NONE', ( #78 ), #266, .F. ) ;
#119 = DIRECTION ( 'NONE',  ( 0.000000000000000000, 0.000000000000000000, 1.000000000000000000 ) ) ;
#120 = LINE ( 'NONE', #50, #235 ) ;
#121 = SURFACE_SIDE_STYLE ('',( #218 ) ) ;
#122 = MECHANICAL_DESIGN_GEOMETRIC_PRESENTATION_REPRESENTATION (  '', ( #77 ), #64 ) ;
#123 = PRESENTATION_LAYER_ASSIGNMENT (  '', '', ( #116 ) ) ;
#124 =( NAMED_UNIT ( * ) PLANE_ANGLE_UNIT ( ) SI_UNIT ( $, .RADIAN. ) );
#125 = FILL_AREA_STYLE ('',( #264 ) ) ;
#126 =( NAMED_UNIT ( * ) SI_UNIT ( $, .STERADIAN. ) SOLID_ANGLE_UNIT ( ) );
#127 = DIMENSIONAL_EXPONENTS ( 1.000000000000000000, 0.000000000000000000, 0.000000000000000000, 0.000000000000000000, 0.000000000000000000, 0.000000000000000000, 0.000000000000000000 ) ;
#128 = MECHANICAL_DESIGN_GEOMETRIC_PRESENTATION_REPRESENTATION (  '', ( #109 ), #91 ) ;
#129 =( NAMED_UNIT ( * ) PLANE_ANGLE_UNIT ( ) SI_UNIT ( $, .RADIAN. ) );
#130 = EDGE_CURVE ( 'NONE', #275, #211, #74, .T. ) ;
#131 = EDGE_CURVE ( 'NONE', #284, #227, #56, .T. ) ;
#132 = EDGE_LOOP ( 'NONE', ( #216, #88 ) ) ;
#133 = UNCERTAINTY_MEASURE_WITH_UNIT (LENGTH_MEASURE( 1.000000000000000082E-05 ), #158, 'distance_accuracy_value', 'NONE');
#134 = DIRECTION ( 'NONE',  ( -3.768143997376474441E-17, 1.000000000000000000, -0.000000000000000000 ) ) ;
#135 = VERTEX_POINT ( 'NONE', #75 ) ;
#136 = AXIS2_PLACEMENT_3D ( 'NONE', #204, #203, #5 ) ;
#137 = AXIS2_PLACEMENT_3D ( 'NONE', #228, #79, #65 ) ;
#138 = FILL_AREA_STYLE_COLOUR ( '', #269 ) ;
#139 = ORIENTED_EDGE ( 'NONE', *, *, #40, .F. ) ;
#140 = CARTESIAN_POINT ( 'NONE',  ( 1.148106374200643863E-17, 1.375000000000000000, 0.09375000000000001388 ) ) ;
#141 = SURFACE_STYLE_FILL_AREA ( #47 ) ;
#142 = COLOUR_RGB ( '',1.000000000000000000, 0.000000000000000000, 0.000000000000000000 ) ;
#143 = CYLINDRICAL_SURFACE ( 'NONE', #308, 0.09375000000000001388 ) ;
#144 =( NAMED_UNIT ( * ) PLANE_ANGLE_UNIT ( ) SI_UNIT ( $, .RADIAN. ) );
#145 =( NAMED_UNIT ( * ) SI_UNIT ( $, .STERADIAN. ) SOLID_ANGLE_UNIT ( ) );
#146 =( NAMED_UNIT ( * ) SI_UNIT ( $, .STERADIAN. ) SOLID_ANGLE_UNIT ( ) );
#147 =( LENGTH_UNIT ( ) NAMED_UNIT ( * ) SI_UNIT ( $, .METRE. ) );
#148 = CIRCLE ( 'NONE', #253, 0.09375000000000001388 ) ;
#149 =( GEOMETRIC_REPRESENTATION_CONTEXT ( 3 ) GLOBAL_UNCERTAINTY_ASSIGNED_CONTEXT ( ( #133 ) ) GLOBAL_UNIT_ASSIGNED_CONTEXT ( ( #158, #82, #304 ) ) REPRESENTATION_CONTEXT ( 'NONE', 'WORKASPACE' ) );
#150 = CARTESIAN_POINT ( 'NONE',  ( 0.000000000000000000, 1.375000000000000000, 0.000000000000000000 ) ) ;
#151 =( LENGTH_UNIT ( ) NAMED_UNIT ( * ) SI_UNIT ( $, .METRE. ) );
#152 = PRESENTATION_STYLE_ASSIGNMENT (( #224 ) ) ;
#153 = EDGE_CURVE ( 'NONE', #135, #211, #271, .T. ) ;
#154 = CARTESIAN_POINT ( 'NONE',  ( 0.000000000000000000, 0.000000000000000000, -0.09375000000000001388 ) ) ;
#155 = DIRECTION ( 'NONE',  ( -1.000000000000000000, 0.000000000000000000, 0.000000000000000000 ) ) ;
#156 = DIRECTION ( 'NONE',  ( -0.000000000000000000, -1.000000000000000000, -0.000000000000000000 ) ) ;
#157 = CLOSED_SHELL ( 'NONE', ( #99, #232, #247, #118 ) ) ;
#158 =( CONVERSION_BASED_UNIT ( 'INCH', #208 ) LENGTH_UNIT ( ) NAMED_UNIT ( #213 ) );
#159 = ORIENTED_EDGE ( 'NONE', *, *, #40, .T. ) ;
#160 = DIRECTION ( 'NONE',  ( -1.000000000000000000, 0.000000000000000000, 0.000000000000000000 ) ) ;
#161 = SURFACE_STYLE_FILL_AREA ( #81 ) ;
#162 = SURFACE_SIDE_STYLE ('',( #161 ) ) ;
#163 = PRESENTATION_STYLE_ASSIGNMENT (( #19 ) ) ;
#164 = DIMENSIONAL_EXPONENTS ( 1.000000000000000000, 0.000000000000000000, 0.000000000000000000, 0.000000000000000000, 0.000000000000000000, 0.000000000000000000, 0.000000000000000000 ) ;
#165 = AXIS2_PLACEMENT_3D ( 'NONE', #101, #57, #34 ) ;
#166 = ORIENTED_EDGE ( 'NONE', *, *, #240, .T. ) ;
#167 =( GEOMETRIC_REPRESENTATION_CONTEXT ( 3 ) GLOBAL_UNCERTAINTY_ASSIGNED_CONTEXT ( ( #67 ) ) GLOBAL_UNIT_ASSIGNED_CONTEXT ( ( #238, #144, #146 ) ) REPRESENTATION_CONTEXT ( 'NONE', 'WORKASPACE' ) );
#168 = UNCERTAINTY_MEASURE_WITH_UNIT (LENGTH_MEASURE( 1.000000000000000082E-05 ), #89, 'distance_accuracy_value', 'NONE');
#169 = DIRECTION ( 'NONE',  ( -1.000000000000000000, 0.000000000000000000, 0.000000000000000000 ) ) ;
#170 = COLOUR_RGB ( '',1.000000000000000000, 0.000000000000000000, 0.000000000000000000 ) ;
#171 = PRODUCT_DEFINITION_SHAPE ( 'NONE', 'NONE',  #23 ) ;
#172 = LENGTH_MEASURE_WITH_UNIT ( LENGTH_MEASURE( 0.02539999999999999897 ), #234 );
#173 = CARTESIAN_POINT ( 'NONE',  ( 0.09375000000000001388, 3.000000000000000444, 1.148106374200644325E-17 ) ) ;
#174 = EDGE_CURVE ( 'NONE', #110, #284, #103, .T. ) ;
#175 = DIRECTION ( 'NONE',  ( -3.768143997376474441E-17, 1.000000000000000000, -0.000000000000000000 ) ) ;
#176 = FILL_AREA_STYLE ('',( #73 ) ) ;
#177 = AXIS2_PLACEMENT_3D ( 'NONE', #96, #259, #169 ) ;
#178 = DIRECTION ( 'NONE',  ( 3.768143997376474441E-17, -1.000000000000000000, 0.000000000000000000 ) ) ;
#179 =( CONVERSION_BASED_UNIT ( 'INCH', #7 ) LENGTH_UNIT ( ) NAMED_UNIT ( #164 ) );
#180 = UNCERTAINTY_MEASURE_WITH_UNIT (LENGTH_MEASURE( 1.000000000000000082E-05 ), #255, 'distance_accuracy_value', 'NONE');
#181 = AXIS2_PLACEMENT_3D ( 'NONE', #8, #295, #155 ) ;
#182 = AXIS2_PLACEMENT_3D ( 'NONE', #55, #244, #32 ) ;
#183 = EDGE_CURVE ( 'NONE', #135, #187, #111, .T. ) ;
#184 = DIRECTION ( 'NONE',  ( 1.000000000000000000, 3.768143997376474441E-17, 0.000000000000000000 ) ) ;
#185 = FACE_OUTER_BOUND ( 'NONE', #22, .T. ) ;
#186 = AXIS2_PLACEMENT_3D ( 'NONE', #291, #178, #184 ) ;
#187 = VERTEX_POINT ( 'NONE', #140 ) ;
#188 = DIRECTION ( 'NONE',  ( 0.000000000000000000, 0.000000000000000000, -1.000000000000000000 ) ) ;
#189 = ORIENTED_EDGE ( 'NONE', *, *, #296, .F. ) ;
#190 = CARTESIAN_POINT ( 'NONE',  ( -0.09375000000000013878, 3.000000000000000444, 0.000000000000000000 ) ) ;
#191 = EDGE_LOOP ( 'NONE', ( #112, #159, #254, #230 ) ) ;
#192 = SURFACE_SIDE_STYLE ('',( #36 ) ) ;
#193 = AXIS2_PLACEMENT_3D ( 'NONE', #28, #220, #237 ) ;
#194 = CARTESIAN_POINT ( 'NONE',  ( 0.000000000000000000, 1.375000000000000000, 0.000000000000000000 ) ) ;
#195 = DIMENSIONAL_EXPONENTS ( 1.000000000000000000, 0.000000000000000000, 0.000000000000000000, 0.000000000000000000, 0.000000000000000000, 0.000000000000000000, 0.000000000000000000 ) ;
#196 = EDGE_LOOP ( 'NONE', ( #139, #277, #37, #83 ) ) ;
#197 = SURFACE_STYLE_USAGE ( .BOTH. , #1 ) ;
#198 = DIRECTION ( 'NONE',  ( 0.000000000000000000, 1.000000000000000000, 0.000000000000000000 ) ) ;
#199 = PRESENTATION_STYLE_ASSIGNMENT (( #197 ) ) ;
#200 = DIRECTION ( 'NONE',  ( 0.000000000000000000, -0.000000000000000000, 1.000000000000000000 ) ) ;
#201 = COLOUR_RGB ( '',1.000000000000000000, 0.000000000000000000, 0.000000000000000000 ) ;
#202 =( GEOMETRIC_REPRESENTATION_CONTEXT ( 3 ) GLOBAL_UNCERTAINTY_ASSIGNED_CONTEXT ( ( #180 ) ) GLOBAL_UNIT_ASSIGNED_CONTEXT ( ( #255, #274, #246 ) ) REPRESENTATION_CONTEXT ( 'NONE', 'WORKASPACE' ) );
#203 = DIRECTION ( 'NONE',  ( -3.768143997376474441E-17, 1.000000000000000000, -0.000000000000000000 ) ) ;
#204 = CARTESIAN_POINT ( 'NONE',  ( 0.000000000000000000, 1.375000000000000000, 0.000000000000000000 ) ) ;
#205 = FILL_AREA_STYLE ('',( #276 ) ) ;
#206 = SURFACE_SIDE_STYLE ('',( #108 ) ) ;
#207 = PLANE ( 'NONE',  #193 ) ;
#208 = LENGTH_MEASURE_WITH_UNIT ( LENGTH_MEASURE( 0.02539999999999999897 ), #80 );
#209 = ORIENTED_EDGE ( 'NONE', *, *, #174, .T. ) ;
#210 = EDGE_LOOP ( 'NONE', ( #15, #166 ) ) ;
#211 = VERTEX_POINT ( 'NONE', #306 ) ;
#212 = LINE ( 'NONE', #52, #49 ) ;
#213 = DIMENSIONAL_EXPONENTS ( 1.000000000000000000, 0.000000000000000000, 0.000000000000000000, 0.000000000000000000, 0.000000000000000000, 0.000000000000000000, 0.000000000000000000 ) ;
#214 = PRESENTATION_LAYER_ASSIGNMENT (  '', '', ( #77 ) ) ;
#215 = PRODUCT_DEFINITION_FORMATION_WITH_SPECIFIED_SOURCE ( 'ANY', '', #263, .NOT_KNOWN. ) ;
#216 = ORIENTED_EDGE ( 'NONE', *, *, #272, .T. ) ;
#217 =( NAMED_UNIT ( * ) SI_UNIT ( $, .STERADIAN. ) SOLID_ANGLE_UNIT ( ) );
#218 = SURFACE_STYLE_FILL_AREA ( #176 ) ;
#219 = MANIFOLD_SOLID_BREP ( 'Revolve - Cutting Edge', #267 ) ;
#220 = DIRECTION ( 'NONE',  ( 0.000000000000000000, -1.000000000000000000, -0.000000000000000000 ) ) ;
#221 = DIRECTION ( 'NONE',  ( 0.000000000000000000, 0.000000000000000000, -1.000000000000000000 ) ) ;
#222 =( NAMED_UNIT ( * ) SI_UNIT ( $, .STERADIAN. ) SOLID_ANGLE_UNIT ( ) );
#223 = APPLICATION_CONTEXT ( 'automotive_design' ) ;
#224 = SURFACE_STYLE_USAGE ( .BOTH. , #76 ) ;
#225 = CIRCLE ( 'NONE', #177, 0.09375000000000006939 ) ;
#226 = CARTESIAN_POINT ( 'NONE',  ( 0.09375000000000001388, 1.375000000000000000, 1.148106374200644325E-17 ) ) ;
#227 = VERTEX_POINT ( 'NONE', #190 ) ;
#228 = CARTESIAN_POINT ( 'NONE',  ( -6.123233995736772199E-17, 3.000000000000000444, 0.000000000000000000 ) ) ;
#229 = ORIENTED_EDGE ( 'NONE', *, *, #296, .T. ) ;
#230 = ORIENTED_EDGE ( 'NONE', *, *, #153, .F. ) ;
#231 = ORIENTED_EDGE ( 'NONE', *, *, #131, .F. ) ;
#232 = ADVANCED_FACE ( 'NONE', ( #297 ), #62, .F. ) ;
#233 = UNCERTAINTY_MEASURE_WITH_UNIT (LENGTH_MEASURE( 1.000000000000000082E-05 ), #179, 'distance_accuracy_value', 'NONE');
#234 =( LENGTH_UNIT ( ) NAMED_UNIT ( * ) SI_UNIT ( $, .METRE. ) );
#235 = VECTOR ( 'NONE', #25, 39.37007874015748143 ) ;
#236 = MECHANICAL_DESIGN_GEOMETRIC_PRESENTATION_REPRESENTATION (  '', ( #301 ), #149 ) ;
#237 = DIRECTION ( 'NONE',  ( 0.000000000000000000, 0.000000000000000000, -1.000000000000000000 ) ) ;
#238 =( CONVERSION_BASED_UNIT ( 'INCH', #172 ) LENGTH_UNIT ( ) NAMED_UNIT ( #84 ) );
#239 = AXIS2_PLACEMENT_3D ( 'NONE', #242, #30, #221 ) ;
#240 = EDGE_CURVE ( 'NONE', #14, #227, #60, .T. ) ;
#241 = LENGTH_MEASURE_WITH_UNIT ( LENGTH_MEASURE( 0.02539999999999999897 ), #151 );
#242 = CARTESIAN_POINT ( 'NONE',  ( 0.000000000000000000, 0.000000000000000000, 0.000000000000000000 ) ) ;
#243 =( GEOMETRIC_REPRESENTATION_CONTEXT ( 3 ) GLOBAL_UNCERTAINTY_ASSIGNED_CONTEXT ( ( #168 ) ) GLOBAL_UNIT_ASSIGNED_CONTEXT ( ( #89, #124, #217 ) ) REPRESENTATION_CONTEXT ( 'NONE', 'WORKASPACE' ) );
#244 = DIRECTION ( 'NONE',  ( -3.768143997376474441E-17, 1.000000000000000000, -0.000000000000000000 ) ) ;
#245 = SURFACE_STYLE_FILL_AREA ( #125 ) ;
#246 =( NAMED_UNIT ( * ) SI_UNIT ( $, .STERADIAN. ) SOLID_ANGLE_UNIT ( ) );
#247 = ADVANCED_FACE ( 'NONE', ( #113 ), #106, .T. ) ;
#248 = ORIENTED_EDGE ( 'NONE', *, *, #183, .F. ) ;
#249 = DIMENSIONAL_EXPONENTS ( 1.000000000000000000, 0.000000000000000000, 0.000000000000000000, 0.000000000000000000, 0.000000000000000000, 0.000000000000000000, 0.000000000000000000 ) ;
#250 = CARTESIAN_POINT ( 'NONE',  ( -6.123233995736772199E-17, 3.000000000000000444, 0.000000000000000000 ) ) ;
#251 = SURFACE_STYLE_USAGE ( .BOTH. , #162 ) ;
#252 = UNCERTAINTY_MEASURE_WITH_UNIT (LENGTH_MEASURE( 1.000000000000000082E-05 ), #285, 'distance_accuracy_value', 'NONE');
#253 = AXIS2_PLACEMENT_3D ( 'NONE', #72, #286, #94 ) ;
#254 = ORIENTED_EDGE ( 'NONE', *, *, #272, .F. ) ;
#255 =( CONVERSION_BASED_UNIT ( 'INCH', #63 ) LENGTH_UNIT ( ) NAMED_UNIT ( #195 ) );
#256 = FACE_OUTER_BOUND ( 'NONE', #191, .T. ) ;
#257 = ADVANCED_BREP_SHAPE_REPRESENTATION ( '84629', ( #219, #117, #29 ), #167 ) ;
#258 = STYLED_ITEM ( 'NONE', ( #41 ), #9 ) ;
#259 = DIRECTION ( 'NONE',  ( -3.768143997376474441E-17, 1.000000000000000000, -0.000000000000000000 ) ) ;
#260 = CYLINDRICAL_SURFACE ( 'NONE', #165, 0.09375000000000001388 ) ;
#261 =( LENGTH_UNIT ( ) NAMED_UNIT ( * ) SI_UNIT ( $, .METRE. ) );
#262 = SURFACE_STYLE_USAGE ( .BOTH. , #121 ) ;
#263 = PRODUCT ( '84629', '84629', '', ( #70 ) ) ;
#264 = FILL_AREA_STYLE_COLOUR ( '', #42 ) ;
#265 = ADVANCED_FACE ( 'NONE', ( #185 ), #298, .T. ) ;
#266 = PLANE ( 'NONE',  #186 ) ;
#267 = CLOSED_SHELL ( 'NONE', ( #46, #265, #10, #9 ) ) ;
#268 = CIRCLE ( 'NONE', #136, 0.09375000000000001388 ) ;
#269 = COLOUR_RGB ( '',1.000000000000000000, 0.000000000000000000, 0.000000000000000000 ) ;
#270 = CARTESIAN_POINT ( 'NONE',  ( -0.09375000000000011102, 3.000000000000000444, 0.000000000000000000 ) ) ;
#271 = LINE ( 'NONE', #154, #48 ) ;
#272 = EDGE_CURVE ( 'NONE', #211, #275, #148, .T. ) ;
#273 = CARTESIAN_POINT ( 'NONE',  ( 6.655738680452043190E-35, 1.375000000000000000, 0.000000000000000000 ) ) ;
#274 =( NAMED_UNIT ( * ) PLANE_ANGLE_UNIT ( ) SI_UNIT ( $, .RADIAN. ) );
#275 = VERTEX_POINT ( 'NONE', #87 ) ;
#276 = FILL_AREA_STYLE_COLOUR ( '', #2 ) ;
#277 = ORIENTED_EDGE ( 'NONE', *, *, #6, .T. ) ;
#278 = SURFACE_STYLE_USAGE ( .BOTH. , #206 ) ;
#279 = ORIENTED_EDGE ( 'NONE', *, *, #240, .F. ) ;
#280 = MECHANICAL_DESIGN_GEOMETRIC_PRESENTATION_REPRESENTATION (  '', ( #258 ), #292 ) ;
#281 = PRESENTATION_LAYER_ASSIGNMENT (  '', '', ( #301 ) ) ;
#282 = ORIENTED_EDGE ( 'NONE', *, *, #38, .F. ) ;
#283 = DIRECTION ( 'NONE',  ( 1.000000000000000000, 0.000000000000000000, 0.000000000000000000 ) ) ;
#284 = VERTEX_POINT ( 'NONE', #27 ) ;
#285 =( CONVERSION_BASED_UNIT ( 'INCH', #290 ) LENGTH_UNIT ( ) NAMED_UNIT ( #249 ) );
#286 = DIRECTION ( 'NONE',  ( -0.000000000000000000, -1.000000000000000000, -0.000000000000000000 ) ) ;
#287 = PRESENTATION_LAYER_ASSIGNMENT (  '', '', ( #109 ) ) ;
#288 = DIRECTION ( 'NONE',  ( -0.000000000000000000, -1.000000000000000000, -0.000000000000000000 ) ) ;
#289 = APPLICATION_CONTEXT ( 'automotive_design' ) ;
#290 = LENGTH_MEASURE_WITH_UNIT ( LENGTH_MEASURE( 0.02539999999999999897 ), #147 );
#291 = CARTESIAN_POINT ( 'NONE',  ( 0.09375000000000001388, 3.000000000000000444, 0.000000000000000000 ) ) ;
#292 =( GEOMETRIC_REPRESENTATION_CONTEXT ( 3 ) GLOBAL_UNCERTAINTY_ASSIGNED_CONTEXT ( ( #252 ) ) GLOBAL_UNIT_ASSIGNED_CONTEXT ( ( #285, #71, #145 ) ) REPRESENTATION_CONTEXT ( 'NONE', 'WORKASPACE' ) );
#293 = AXIS2_PLACEMENT_3D ( 'NONE', #17, #21, #188 ) ;
#294 =( NAMED_UNIT ( * ) PLANE_ANGLE_UNIT ( ) SI_UNIT ( $, .RADIAN. ) );
#295 = DIRECTION ( 'NONE',  ( -3.768143997376474441E-17, 1.000000000000000000, -0.000000000000000000 ) ) ;
#296 = EDGE_CURVE ( 'NONE', #110, #14, #212, .T. ) ;
#297 = FACE_OUTER_BOUND ( 'NONE', #20, .T. ) ;
#298 = PLANE ( 'NONE',  #11 ) ;
#299 = FILL_AREA_STYLE_COLOUR ( '', #201 ) ;
#300 = AXIS2_PLACEMENT_3D ( 'NONE', #194, #66, #107 ) ;
#301 = STYLED_ITEM ( 'NONE', ( #43 ), #265 ) ;
#302 = FACE_OUTER_BOUND ( 'NONE', #132, .T. ) ;
#303 = DIMENSIONAL_EXPONENTS ( 1.000000000000000000, 0.000000000000000000, 0.000000000000000000, 0.000000000000000000, 0.000000000000000000, 0.000000000000000000, 0.000000000000000000 ) ;
#304 =( NAMED_UNIT ( * ) SI_UNIT ( $, .STERADIAN. ) SOLID_ANGLE_UNIT ( ) );
#305 = ORIENTED_EDGE ( 'NONE', *, *, #95, .T. ) ;
#306 = CARTESIAN_POINT ( 'NONE',  ( 0.000000000000000000, 0.000000000000000000, -0.09375000000000001388 ) ) ;
#307 = ORIENTED_EDGE ( 'NONE', *, *, #131, .T. ) ;
#308 = AXIS2_PLACEMENT_3D ( 'NONE', #93, #288, #26 ) ;
#309 = EDGE_LOOP ( 'NONE', ( #189, #209, #307, #279 ) ) ;
ENDSEC;
END-ISO-10303-21;
