ISO-10303-21;
HEADER;
FILE_DESCRIPTION (( 'STEP AP214' ),
    '1' );
FILE_NAME ('59645.STEP',
    '2023-07-24T15:18:54',
    ( '' ),
    ( '' ),
    'SwSTEP 2.0',
    'SolidWorks 2023',
    '' );
FILE_SCHEMA (( 'AUTOMOTIVE_DESIGN' ));
ENDSEC;

DATA;
#1 = ORIENTED_EDGE ( 'NONE', *, *, #94, .F. ) ;
#2 = AXIS2_PLACEMENT_3D ( 'NONE', #88, #319, #232 ) ;
#3 = ORIENTED_EDGE ( 'NONE', *, *, #194, .F. ) ;
#4 =( GEOMETRIC_REPRESENTATION_CONTEXT ( 3 ) GLOBAL_UNCERTAINTY_ASSIGNED_CONTEXT ( ( #260 ) ) GLOBAL_UNIT_ASSIGNED_CONTEXT ( ( #156, #112, #279 ) ) REPRESENTATION_CONTEXT ( 'NONE', 'WORKASPACE' ) );
#5 = CIRCLE ( 'NONE', #316, 7.500000000000000000 ) ;
#6 =( NAMED_UNIT ( * ) PLANE_ANGLE_UNIT ( ) SI_UNIT ( $, .RADIAN. ) );
#7 = DIRECTION ( 'NONE',  ( -1.000000000000000000, 0.000000000000000000, 0.000000000000000000 ) ) ;
#8 = CARTESIAN_POINT ( 'NONE',  ( 0.000000000000000000, 0.000000000000000000, 0.000000000000000000 ) ) ;
#9 =( NAMED_UNIT ( * ) SI_UNIT ( $, .STERADIAN. ) SOLID_ANGLE_UNIT ( ) );
#10 = CIRCLE ( 'NONE', #190, 0.5000000000000004441 ) ;
#11 = CYLINDRICAL_SURFACE ( 'NONE', #172, 7.999999999999996447 ) ;
#12 = EDGE_CURVE ( 'NONE', #309, #225, #114, .T. ) ;
#13 = PLANE ( 'NONE',  #196 ) ;
#14 = SURFACE_STYLE_FILL_AREA ( #306 ) ;
#15 = AXIS2_PLACEMENT_3D ( 'NONE', #321, #149, #95 ) ;
#16 = AXIS2_PLACEMENT_3D ( 'NONE', #8, #33, #142 ) ;
#17 =( GEOMETRIC_REPRESENTATION_CONTEXT ( 3 ) GLOBAL_UNCERTAINTY_ASSIGNED_CONTEXT ( ( #169 ) ) GLOBAL_UNIT_ASSIGNED_CONTEXT ( ( #206, #67, #146 ) ) REPRESENTATION_CONTEXT ( 'NONE', 'WORKASPACE' ) );
#18 = CARTESIAN_POINT ( 'NONE',  ( -1.714505518806293652E-15, 89.00000000000000000, 0.000000000000000000 ) ) ;
#19 =( LENGTH_UNIT ( ) NAMED_UNIT ( * ) SI_UNIT ( .MILLI., .METRE. ) );
#20 =( NAMED_UNIT ( * ) SI_UNIT ( $, .STERADIAN. ) SOLID_ANGLE_UNIT ( ) );
#21 = APPLICATION_PROTOCOL_DEFINITION ( 'draft international standard', 'automotive_design', 1998, #252 ) ;
#22 = EDGE_LOOP ( 'NONE', ( #151, #162, #280, #1 ) ) ;
#23 = AXIS2_PLACEMENT_3D ( 'NONE', #18, #125, #100 ) ;
#24 = DIRECTION ( 'NONE',  ( 0.000000000000000000, 0.000000000000000000, -1.000000000000000000 ) ) ;
#25 = ORIENTED_EDGE ( 'NONE', *, *, #68, .T. ) ;
#26 = CIRCLE ( 'NONE', #165, 8.000000000000000000 ) ;
#27 = DIRECTION ( 'NONE',  ( -1.000000000000000000, 0.000000000000000000, 0.000000000000000000 ) ) ;
#28 = AXIS2_PLACEMENT_3D ( 'NONE', #32, #53, #27 ) ;
#29 = UNCERTAINTY_MEASURE_WITH_UNIT (LENGTH_MEASURE( 1.000000000000000082E-05 ), #267, 'distance_accuracy_value', 'NONE');
#30 = EDGE_LOOP ( 'NONE', ( #248, #311 ) ) ;
#31 = EDGE_CURVE ( 'NONE', #86, #216, #331, .T. ) ;
#32 = CARTESIAN_POINT ( 'NONE',  ( 6.288372600415925717E-15, 23.99999999999999289, 0.000000000000000000 ) ) ;
#33 = DIRECTION ( 'NONE',  ( -0.000000000000000000, -1.000000000000000000, -0.000000000000000000 ) ) ;
#34 = UNCERTAINTY_MEASURE_WITH_UNIT (LENGTH_MEASURE( 1.000000000000000082E-05 ), #238, 'distance_accuracy_value', 'NONE');
#35 = STYLED_ITEM ( 'NONE', ( #101 ), #287 ) ;
#36 = DIRECTION ( 'NONE',  ( -1.000000000000000000, 0.000000000000000000, 0.000000000000000000 ) ) ;
#37 = PRESENTATION_LAYER_ASSIGNMENT (  '', '', ( #353 ) ) ;
#38 = CLOSED_SHELL ( 'NONE', ( #123, #276, #131, #155 ) ) ;
#39 = EDGE_CURVE ( 'NONE', #256, #349, #5, .T. ) ;
#40 = FILL_AREA_STYLE_COLOUR ( '', #81 ) ;
#41 =( LENGTH_UNIT ( ) NAMED_UNIT ( * ) SI_UNIT ( .MILLI., .METRE. ) );
#42 = FILL_AREA_STYLE ('',( #328 ) ) ;
#43 = SURFACE_STYLE_FILL_AREA ( #69 ) ;
#44 = COLOUR_RGB ( '',0.7921568627450980005, 0.8196078431372548767, 0.9333333333333333481 ) ;
#45 = PLANE ( 'NONE',  #299 ) ;
#46 = VERTEX_POINT ( 'NONE', #362 ) ;
#47 =( NAMED_UNIT ( * ) PLANE_ANGLE_UNIT ( ) SI_UNIT ( $, .RADIAN. ) );
#48 = SURFACE_STYLE_USAGE ( .BOTH. , #74 ) ;
#49 = CYLINDRICAL_SURFACE ( 'NONE', #323, 8.000000000000000000 ) ;
#50 = SHAPE_DEFINITION_REPRESENTATION ( #229, #361 ) ;
#51 = SURFACE_STYLE_FILL_AREA ( #277 ) ;
#52 =( GEOMETRIC_REPRESENTATION_CONTEXT ( 3 ) GLOBAL_UNCERTAINTY_ASSIGNED_CONTEXT ( ( #29 ) ) GLOBAL_UNIT_ASSIGNED_CONTEXT ( ( #267, #93, #171 ) ) REPRESENTATION_CONTEXT ( 'NONE', 'WORKASPACE' ) );
#53 = DIRECTION ( 'NONE',  ( -1.231212018341879827E-16, 1.000000000000000000, -0.000000000000000000 ) ) ;
#54 = FILL_AREA_STYLE ('',( #342 ) ) ;
#55 = VERTEX_POINT ( 'NONE', #109 ) ;
#56 = PRESENTATION_STYLE_ASSIGNMENT (( #310 ) ) ;
#57 = ORIENTED_EDGE ( 'NONE', *, *, #187, .F. ) ;
#58 = CIRCLE ( 'NONE', #278, 7.999999999999992895 ) ;
#59 = ORIENTED_EDGE ( 'NONE', *, *, #226, .T. ) ;
#60 = ORIENTED_EDGE ( 'NONE', *, *, #110, .F. ) ;
#61 = DIRECTION ( 'NONE',  ( 0.000000000000000000, 0.000000000000000000, -1.000000000000000000 ) ) ;
#62 = UNCERTAINTY_MEASURE_WITH_UNIT (LENGTH_MEASURE( 1.000000000000000082E-05 ), #333, 'distance_accuracy_value', 'NONE');
#63 = PRODUCT_DEFINITION_CONTEXT ( 'detailed design', #252, 'design' ) ;
#64 = VECTOR ( 'NONE', #357, 1000.000000000000000 ) ;
#65 = SURFACE_STYLE_FILL_AREA ( #42 ) ;
#66 = DIRECTION ( 'NONE',  ( -0.000000000000000000, -1.000000000000000000, -0.000000000000000000 ) ) ;
#67 =( NAMED_UNIT ( * ) PLANE_ANGLE_UNIT ( ) SI_UNIT ( $, .RADIAN. ) );
#68 = EDGE_CURVE ( 'NONE', #86, #84, #107, .T. ) ;
#69 = FILL_AREA_STYLE ('',( #40 ) ) ;
#70 = DIRECTION ( 'NONE',  ( -1.231212018341879827E-16, 1.000000000000000000, -0.000000000000000000 ) ) ;
#71 = CARTESIAN_POINT ( 'NONE',  ( 0.000000000000000000, 0.000000000000000000, 0.000000000000000000 ) ) ;
#72 = AXIS2_PLACEMENT_3D ( 'NONE', #347, #251, #254 ) ;
#73 = FILL_AREA_STYLE_COLOUR ( '', #44 ) ;
#74 = SURFACE_SIDE_STYLE ('',( #302 ) ) ;
#75 = STYLED_ITEM ( 'NONE', ( #332 ), #255 ) ;
#76 = STYLED_ITEM ( 'NONE', ( #175 ), #127 ) ;
#77 =( LENGTH_UNIT ( ) NAMED_UNIT ( * ) SI_UNIT ( .MILLI., .METRE. ) );
#78 = CARTESIAN_POINT ( 'NONE',  ( 9.184850993605147944E-16, 0.5000000000000000000, 7.500000000000000000 ) ) ;
#79 = FILL_AREA_STYLE_COLOUR ( '', #108 ) ;
#80 = MECHANICAL_DESIGN_GEOMETRIC_PRESENTATION_REPRESENTATION (  '', ( #313 ), #343 ) ;
#81 = COLOUR_RGB ( '',1.000000000000000000, 0.000000000000000000, 0.000000000000000000 ) ;
#82 = ORIENTED_EDGE ( 'NONE', *, *, #305, .F. ) ;
#83 = CARTESIAN_POINT ( 'NONE',  ( 0.000000000000000000, 0.000000000000000000, -8.000000000000000000 ) ) ;
#84 = VERTEX_POINT ( 'NONE', #257 ) ;
#85 = ORIENTED_EDGE ( 'NONE', *, *, #363, .T. ) ;
#86 = VERTEX_POINT ( 'NONE', #370 ) ;
#87 = FACE_OUTER_BOUND ( 'NONE', #345, .T. ) ;
#88 = CARTESIAN_POINT ( 'NONE',  ( -1.714505518806293652E-15, 89.00000000000000000, 0.000000000000000000 ) ) ;
#89 = CARTESIAN_POINT ( 'NONE',  ( 6.288372600415925717E-15, 23.99999999999999289, 0.000000000000000000 ) ) ;
#90 = COLOUR_RGB ( '',1.000000000000000000, 0.000000000000000000, 0.000000000000000000 ) ;
#91 = DIRECTION ( 'NONE',  ( 1.231212018341879827E-16, -1.000000000000000000, 0.000000000000000000 ) ) ;
#92 = STYLED_ITEM ( 'NONE', ( #231 ), #358 ) ;
#93 =( NAMED_UNIT ( * ) PLANE_ANGLE_UNIT ( ) SI_UNIT ( $, .RADIAN. ) );
#94 = EDGE_CURVE ( 'NONE', #225, #55, #139, .T. ) ;
#95 = DIRECTION ( 'NONE',  ( 0.000000000000000000, 0.000000000000000000, -1.000000000000000000 ) ) ;
#96 =( NAMED_UNIT ( * ) SI_UNIT ( $, .STERADIAN. ) SOLID_ANGLE_UNIT ( ) );
#97 = CIRCLE ( 'NONE', #234, 7.500000000000000000 ) ;
#98 = DIRECTION ( 'NONE',  ( -1.231212018341879827E-16, 1.000000000000000000, 0.000000000000000000 ) ) ;
#99 = VERTEX_POINT ( 'NONE', #258 ) ;
#100 = DIRECTION ( 'NONE',  ( -1.000000000000000000, 0.000000000000000000, 0.000000000000000000 ) ) ;
#101 = PRESENTATION_STYLE_ASSIGNMENT (( #274 ) ) ;
#102 =( NAMED_UNIT ( * ) SI_UNIT ( $, .STERADIAN. ) SOLID_ANGLE_UNIT ( ) );
#103 = MECHANICAL_DESIGN_GEOMETRIC_PRESENTATION_REPRESENTATION (  '', ( #353 ), #284 ) ;
#104 = DIRECTION ( 'NONE',  ( -1.224646799147353454E-16, 0.000000000000000000, -1.000000000000000000 ) ) ;
#105 = FACE_OUTER_BOUND ( 'NONE', #132, .T. ) ;
#106 = ORIENTED_EDGE ( 'NONE', *, *, #39, .T. ) ;
#107 = LINE ( 'NONE', #83, #212 ) ;
#108 = COLOUR_RGB ( '',1.000000000000000000, 0.000000000000000000, 0.000000000000000000 ) ;
#109 = CARTESIAN_POINT ( 'NONE',  ( -8.000000000000003553, 89.00000000000000000, 0.000000000000000000 ) ) ;
#110 = EDGE_CURVE ( 'NONE', #99, #84, #249, .T. ) ;
#111 = CARTESIAN_POINT ( 'NONE',  ( -7.999999999999998224, 89.00000000000000000, 0.000000000000000000 ) ) ;
#112 =( NAMED_UNIT ( * ) PLANE_ANGLE_UNIT ( ) SI_UNIT ( $, .RADIAN. ) );
#113 = ORIENTED_EDGE ( 'NONE', *, *, #12, .T. ) ;
#114 = CIRCLE ( 'NONE', #28, 7.999999999999992895 ) ;
#115 = ORIENTED_EDGE ( 'NONE', *, *, #363, .F. ) ;
#116 = CARTESIAN_POINT ( 'NONE',  ( 8.000000000000000000, 23.99999999999999289, 9.797174393178825657E-16 ) ) ;
#117 = PRESENTATION_LAYER_ASSIGNMENT (  '', '', ( #313 ) ) ;
#118 = DIRECTION ( 'NONE',  ( 0.000000000000000000, 0.000000000000000000, -1.000000000000000000 ) ) ;
#119 = CARTESIAN_POINT ( 'NONE',  ( 0.000000000000000000, 0.000000000000000000, 0.000000000000000000 ) ) ;
#120 = CARTESIAN_POINT ( 'NONE',  ( 9.491012693391985815E-16, 0.000000000000000000, 7.500000000000000000 ) ) ;
#121 = CARTESIAN_POINT ( 'NONE',  ( 8.000000000000000000, 89.00000000000000000, 0.000000000000000000 ) ) ;
#122 = CARTESIAN_POINT ( 'NONE',  ( 0.000000000000000000, 0.000000000000000000, 0.000000000000000000 ) ) ;
#123 = ADVANCED_FACE ( 'NONE', ( #326 ), #143, .T. ) ;
#124 = DIRECTION ( 'NONE',  ( 0.000000000000000000, -0.000000000000000000, 1.000000000000000000 ) ) ;
#125 = DIRECTION ( 'NONE',  ( -1.231212018341879827E-16, 1.000000000000000000, -0.000000000000000000 ) ) ;
#126 = CARTESIAN_POINT ( 'NONE',  ( 0.000000000000000000, 0.5000000000000000000, -7.500000000000000000 ) ) ;
#127 = MANIFOLD_SOLID_BREP ( 'Revolve - Tool Body (Straight Shanked)', #38 ) ;
#128 = DIRECTION ( 'NONE',  ( 0.000000000000000000, 0.000000000000000000, -1.000000000000000000 ) ) ;
#129 = DIRECTION ( 'NONE',  ( 0.000000000000000000, 0.000000000000000000, 1.000000000000000000 ) ) ;
#130 =( GEOMETRIC_REPRESENTATION_CONTEXT ( 3 ) GLOBAL_UNCERTAINTY_ASSIGNED_CONTEXT ( ( #369 ) ) GLOBAL_UNIT_ASSIGNED_CONTEXT ( ( #19, #47, #20 ) ) REPRESENTATION_CONTEXT ( 'NONE', 'WORKASPACE' ) );
#131 = ADVANCED_FACE ( 'NONE', ( #198 ), #11, .T. ) ;
#132 = EDGE_LOOP ( 'NONE', ( #141, #308, #282, #340 ) ) ;
#133 = CARTESIAN_POINT ( 'NONE',  ( 0.000000000000000000, 0.000000000000000000, 0.000000000000000000 ) ) ;
#134 = ORIENTED_EDGE ( 'NONE', *, *, #208, .F. ) ;
#135 =( LENGTH_UNIT ( ) NAMED_UNIT ( * ) SI_UNIT ( .MILLI., .METRE. ) );
#136 = COLOUR_RGB ( '',1.000000000000000000, 0.000000000000000000, 0.000000000000000000 ) ;
#137 = MECHANICAL_DESIGN_GEOMETRIC_PRESENTATION_REPRESENTATION (  '', ( #153 ), #224 ) ;
#138 = DIRECTION ( 'NONE',  ( -0.000000000000000000, -1.000000000000000000, -0.000000000000000000 ) ) ;
#139 = LINE ( 'NONE', #111, #236 ) ;
#140 = ADVANCED_FACE ( 'NONE', ( #180 ), #329, .T. ) ;
#141 = ORIENTED_EDGE ( 'NONE', *, *, #31, .T. ) ;
#142 = DIRECTION ( 'NONE',  ( 0.000000000000000000, 0.000000000000000000, -1.000000000000000000 ) ) ;
#143 = CYLINDRICAL_SURFACE ( 'NONE', #261, 7.999999999999996447 ) ;
#144 = UNCERTAINTY_MEASURE_WITH_UNIT (LENGTH_MEASURE( 1.000000000000000082E-05 ), #77, 'distance_accuracy_value', 'NONE');
#145 = CARTESIAN_POINT ( 'NONE',  ( -1.714505518806293849E-15, 89.00000000000000000, 0.000000000000000000 ) ) ;
#146 =( NAMED_UNIT ( * ) SI_UNIT ( $, .STERADIAN. ) SOLID_ANGLE_UNIT ( ) );
#147 = PRESENTATION_STYLE_ASSIGNMENT (( #263 ) ) ;
#148 = MECHANICAL_DESIGN_GEOMETRIC_PRESENTATION_REPRESENTATION (  '', ( #92 ), #52 ) ;
#149 = DIRECTION ( 'NONE',  ( -0.000000000000000000, -1.000000000000000000, -0.000000000000000000 ) ) ;
#150 = CARTESIAN_POINT ( 'NONE',  ( 7.999999999999994671, 89.00000000000000000, 9.797174393178821713E-16 ) ) ;
#151 = ORIENTED_EDGE ( 'NONE', *, *, #305, .T. ) ;
#152 = PRESENTATION_LAYER_ASSIGNMENT (  '', '', ( #179 ) ) ;
#153 = STYLED_ITEM ( 'NONE', ( #56 ), #293 ) ;
#154 = AXIS2_PLACEMENT_3D ( 'NONE', #367, #192, #24 ) ;
#155 = ADVANCED_FACE ( 'NONE', ( #207 ), #13, .F. ) ;
#156 =( LENGTH_UNIT ( ) NAMED_UNIT ( * ) SI_UNIT ( .MILLI., .METRE. ) );
#157 = LINE ( 'NONE', #150, #307 ) ;
#158 = CIRCLE ( 'NONE', #2, 8.000000000000001776 ) ;
#159 = COLOUR_RGB ( '',1.000000000000000000, 0.000000000000000000, 0.000000000000000000 ) ;
#160 = ORIENTED_EDGE ( 'NONE', *, *, #194, .T. ) ;
#161 = SURFACE_STYLE_FILL_AREA ( #54 ) ;
#162 = ORIENTED_EDGE ( 'NONE', *, *, #208, .T. ) ;
#163 = EDGE_LOOP ( 'NONE', ( #348, #197 ) ) ;
#164 = UNCERTAINTY_MEASURE_WITH_UNIT (LENGTH_MEASURE( 1.000000000000000082E-05 ), #41, 'distance_accuracy_value', 'NONE');
#165 = AXIS2_PLACEMENT_3D ( 'NONE', #201, #66, #291 ) ;
#166 = EDGE_LOOP ( 'NONE', ( #82, #317 ) ) ;
#167 = EDGE_LOOP ( 'NONE', ( #285, #341, #25, #60 ) ) ;
#168 = FILL_AREA_STYLE ('',( #176 ) ) ;
#169 = UNCERTAINTY_MEASURE_WITH_UNIT (LENGTH_MEASURE( 1.000000000000000082E-05 ), #206, 'distance_accuracy_value', 'NONE');
#170 = SURFACE_STYLE_FILL_AREA ( #265 ) ;
#171 =( NAMED_UNIT ( * ) SI_UNIT ( $, .STERADIAN. ) SOLID_ANGLE_UNIT ( ) );
#172 = AXIS2_PLACEMENT_3D ( 'NONE', #145, #288, #262 ) ;
#173 = COLOUR_RGB ( '',0.7921568627450980005, 0.8196078431372548767, 0.9333333333333333481 ) ;
#174 = SURFACE_STYLE_FILL_AREA ( #168 ) ;
#175 = PRESENTATION_STYLE_ASSIGNMENT (( #295 ) ) ;
#176 = FILL_AREA_STYLE_COLOUR ( '', #159 ) ;
#177 = SURFACE_STYLE_USAGE ( .BOTH. , #268 ) ;
#178 = SURFACE_STYLE_USAGE ( .BOTH. , #233 ) ;
#179 = STYLED_ITEM ( 'NONE', ( #184 ), #273 ) ;
#180 = FACE_OUTER_BOUND ( 'NONE', #259, .T. ) ;
#181 = DIRECTION ( 'NONE',  ( 1.000000000000000000, 0.000000000000000000, 0.000000000000000000 ) ) ;
#182 = DIRECTION ( 'NONE',  ( 0.000000000000000000, 0.000000000000000000, -1.000000000000000000 ) ) ;
#183 = DIRECTION ( 'NONE',  ( 0.000000000000000000, 1.000000000000000000, 0.000000000000000000 ) ) ;
#184 = PRESENTATION_STYLE_ASSIGNMENT (( #301 ) ) ;
#185 = FILL_AREA_STYLE_COLOUR ( '', #136 ) ;
#186 = CARTESIAN_POINT ( 'NONE',  ( 9.797174393178825657E-16, 0.000000000000000000, 8.000000000000000000 ) ) ;
#187 = EDGE_CURVE ( 'NONE', #46, #55, #158, .T. ) ;
#188 =( NAMED_UNIT ( * ) PLANE_ANGLE_UNIT ( ) SI_UNIT ( $, .RADIAN. ) );
#189 = SURFACE_SIDE_STYLE ('',( #14 ) ) ;
#190 = AXIS2_PLACEMENT_3D ( 'NONE', #78, #213, #104 ) ;
#191 = EDGE_CURVE ( 'NONE', #216, #86, #210, .T. ) ;
#192 = DIRECTION ( 'NONE',  ( -0.000000000000000000, -1.000000000000000000, -0.000000000000000000 ) ) ;
#193 = DIRECTION ( 'NONE',  ( 0.000000000000000000, 0.000000000000000000, -1.000000000000000000 ) ) ;
#194 = EDGE_CURVE ( 'NONE', #349, #256, #97, .T. ) ;
#195 = DIRECTION ( 'NONE',  ( -1.231212018341879827E-16, 1.000000000000000000, -0.000000000000000000 ) ) ;
#196 = AXIS2_PLACEMENT_3D ( 'NONE', #121, #91, #325 ) ;
#197 = ORIENTED_EDGE ( 'NONE', *, *, #191, .F. ) ;
#198 = FACE_OUTER_BOUND ( 'NONE', #286, .T. ) ;
#199 = UNCERTAINTY_MEASURE_WITH_UNIT (LENGTH_MEASURE( 1.000000000000000082E-05 ), #135, 'distance_accuracy_value', 'NONE');
#200 = DIRECTION ( 'NONE',  ( 0.000000000000000000, 0.000000000000000000, -1.000000000000000000 ) ) ;
#201 = CARTESIAN_POINT ( 'NONE',  ( 0.000000000000000000, 0.5000000000000000000, 0.000000000000000000 ) ) ;
#202 = APPLICATION_CONTEXT ( 'automotive_design' ) ;
#203 = AXIS2_PLACEMENT_3D ( 'NONE', #350, #204, #118 ) ;
#204 = DIRECTION ( 'NONE',  ( -0.000000000000000000, -1.000000000000000000, -0.000000000000000000 ) ) ;
#205 = FACE_OUTER_BOUND ( 'NONE', #163, .T. ) ;
#206 =( LENGTH_UNIT ( ) NAMED_UNIT ( * ) SI_UNIT ( .MILLI., .METRE. ) );
#207 = FACE_OUTER_BOUND ( 'NONE', #30, .T. ) ;
#208 = EDGE_CURVE ( 'NONE', #309, #46, #157, .T. ) ;
#209 =( NAMED_UNIT ( * ) SI_UNIT ( $, .STERADIAN. ) SOLID_ANGLE_UNIT ( ) );
#210 = CIRCLE ( 'NONE', #203, 8.000000000000000000 ) ;
#211 = DIRECTION ( 'NONE',  ( -0.000000000000000000, -1.000000000000000000, -0.000000000000000000 ) ) ;
#212 = VECTOR ( 'NONE', #138, 1000.000000000000000 ) ;
#213 = DIRECTION ( 'NONE',  ( 1.000000000000000000, 0.000000000000000000, -1.224646799147353207E-16 ) ) ;
#214 = DIRECTION ( 'NONE',  ( 0.000000000000000000, 0.000000000000000000, 1.000000000000000000 ) ) ;
#215 =( NAMED_UNIT ( * ) SI_UNIT ( $, .STERADIAN. ) SOLID_ANGLE_UNIT ( ) );
#216 = VERTEX_POINT ( 'NONE', #304 ) ;
#217 = DIRECTION ( 'NONE',  ( -1.231212018341879827E-16, 1.000000000000000000, -0.000000000000000000 ) ) ;
#218 = CIRCLE ( 'NONE', #356, 0.5000000000000004441 ) ;
#219 = PRESENTATION_LAYER_ASSIGNMENT (  '', '', ( #153 ) ) ;
#220 = CARTESIAN_POINT ( 'NONE',  ( -7.999999999999986677, 23.99999999999999289, 0.000000000000000000 ) ) ;
#221 = CYLINDRICAL_SURFACE ( 'NONE', #16, 8.000000000000000000 ) ;
#222 = ORIENTED_EDGE ( 'NONE', *, *, #110, .T. ) ;
#223 = PRESENTATION_LAYER_ASSIGNMENT (  '', '', ( #75 ) ) ;
#224 =( GEOMETRIC_REPRESENTATION_CONTEXT ( 3 ) GLOBAL_UNCERTAINTY_ASSIGNED_CONTEXT ( ( #199 ) ) GLOBAL_UNIT_ASSIGNED_CONTEXT ( ( #135, #312, #209 ) ) REPRESENTATION_CONTEXT ( 'NONE', 'WORKASPACE' ) );
#225 = VERTEX_POINT ( 'NONE', #220 ) ;
#226 = EDGE_CURVE ( 'NONE', #84, #256, #218, .T. ) ;
#227 = CARTESIAN_POINT ( 'NONE',  ( 0.000000000000000000, 0.5000000000000000000, 0.000000000000000000 ) ) ;
#228 = ORIENTED_EDGE ( 'NONE', *, *, #39, .F. ) ;
#229 = PRODUCT_DEFINITION_SHAPE ( 'NONE', 'NONE',  #368 ) ;
#230 = ORIENTED_EDGE ( 'NONE', *, *, #94, .T. ) ;
#231 = PRESENTATION_STYLE_ASSIGNMENT (( #178 ) ) ;
#232 = DIRECTION ( 'NONE',  ( -1.000000000000000000, 0.000000000000000000, 0.000000000000000000 ) ) ;
#233 = SURFACE_SIDE_STYLE ('',( #43 ) ) ;
#234 = AXIS2_PLACEMENT_3D ( 'NONE', #237, #243, #128 ) ;
#235 = AXIS2_PLACEMENT_3D ( 'NONE', #71, #129, #181 ) ;
#236 = VECTOR ( 'NONE', #195, 1000.000000000000000 ) ;
#237 = CARTESIAN_POINT ( 'NONE',  ( 0.000000000000000000, 0.000000000000000000, 0.000000000000000000 ) ) ;
#238 =( LENGTH_UNIT ( ) NAMED_UNIT ( * ) SI_UNIT ( .MILLI., .METRE. ) );
#239 = PRODUCT_DEFINITION_FORMATION_WITH_SPECIFIED_SOURCE ( 'ANY', '', #241, .NOT_KNOWN. ) ;
#240 = LINE ( 'NONE', #186, #64 ) ;
#241 = PRODUCT ( '59645', '59645', '', ( #303 ) ) ;
#242 = PRESENTATION_LAYER_ASSIGNMENT (  '', '', ( #76 ) ) ;
#243 = DIRECTION ( 'NONE',  ( -0.000000000000000000, -1.000000000000000000, -0.000000000000000000 ) ) ;
#244 = FILL_AREA_STYLE ('',( #73 ) ) ;
#245 = DIRECTION ( 'NONE',  ( -1.000000000000000000, 0.000000000000000000, 0.000000000000000000 ) ) ;
#246 = MECHANICAL_DESIGN_GEOMETRIC_PRESENTATION_REPRESENTATION (  '', ( #75 ), #270 ) ;
#247 = COLOUR_RGB ( '',1.000000000000000000, 0.000000000000000000, 0.000000000000000000 ) ;
#248 = ORIENTED_EDGE ( 'NONE', *, *, #281, .T. ) ;
#249 = CIRCLE ( 'NONE', #338, 8.000000000000000000 ) ;
#250 = EDGE_CURVE ( 'NONE', #216, #99, #240, .T. ) ;
#251 = DIRECTION ( 'NONE',  ( -0.000000000000000000, -1.000000000000000000, -0.000000000000000000 ) ) ;
#252 = APPLICATION_CONTEXT ( 'automotive_design' ) ;
#253 = DIRECTION ( 'NONE',  ( -0.000000000000000000, -1.000000000000000000, -0.000000000000000000 ) ) ;
#254 = DIRECTION ( 'NONE',  ( 0.000000000000000000, 0.000000000000000000, -1.000000000000000000 ) ) ;
#255 = MANIFOLD_SOLID_BREP ( 'Revolve - Cutting Edge', #324 ) ;
#256 = VERTEX_POINT ( 'NONE', #275 ) ;
#257 = CARTESIAN_POINT ( 'NONE',  ( 0.000000000000000000, 0.5000000000000000000, -8.000000000000000000 ) ) ;
#258 = CARTESIAN_POINT ( 'NONE',  ( 9.797174393178825657E-16, 0.5000000000000000000, 8.000000000000000000 ) ) ;
#259 = EDGE_LOOP ( 'NONE', ( #344, #85, #228, #346 ) ) ;
#260 = UNCERTAINTY_MEASURE_WITH_UNIT (LENGTH_MEASURE( 1.000000000000000082E-05 ), #156, 'distance_accuracy_value', 'NONE');
#261 = AXIS2_PLACEMENT_3D ( 'NONE', #266, #70, #36 ) ;
#262 = DIRECTION ( 'NONE',  ( -1.000000000000000000, 0.000000000000000000, 0.000000000000000000 ) ) ;
#263 = SURFACE_STYLE_USAGE ( .BOTH. , #294 ) ;
#264 = PRESENTATION_STYLE_ASSIGNMENT (( #177 ) ) ;
#265 = FILL_AREA_STYLE ('',( #292 ) ) ;
#266 = CARTESIAN_POINT ( 'NONE',  ( -1.714505518806293849E-15, 89.00000000000000000, 0.000000000000000000 ) ) ;
#267 =( LENGTH_UNIT ( ) NAMED_UNIT ( * ) SI_UNIT ( .MILLI., .METRE. ) );
#268 = SURFACE_SIDE_STYLE ('',( #170 ) ) ;
#269 = CARTESIAN_POINT ( 'NONE',  ( 6.288372600415925717E-15, 24.00000000000000000, 0.000000000000000000 ) ) ;
#270 =( GEOMETRIC_REPRESENTATION_CONTEXT ( 3 ) GLOBAL_UNCERTAINTY_ASSIGNED_CONTEXT ( ( #144 ) ) GLOBAL_UNIT_ASSIGNED_CONTEXT ( ( #77, #272, #102 ) ) REPRESENTATION_CONTEXT ( 'NONE', 'WORKASPACE' ) );
#271 =( GEOMETRIC_REPRESENTATION_CONTEXT ( 3 ) GLOBAL_UNCERTAINTY_ASSIGNED_CONTEXT ( ( #62 ) ) GLOBAL_UNIT_ASSIGNED_CONTEXT ( ( #333, #188, #215 ) ) REPRESENTATION_CONTEXT ( 'NONE', 'WORKASPACE' ) );
#272 =( NAMED_UNIT ( * ) PLANE_ANGLE_UNIT ( ) SI_UNIT ( $, .RADIAN. ) );
#273 = ADVANCED_FACE ( 'NONE', ( #337 ), #49, .T. ) ;
#274 = SURFACE_STYLE_USAGE ( .BOTH. , #189 ) ;
#275 = CARTESIAN_POINT ( 'NONE',  ( 0.000000000000000000, 0.000000000000000000, -7.500000000000000000 ) ) ;
#276 = ADVANCED_FACE ( 'NONE', ( #296 ), #45, .F. ) ;
#277 = FILL_AREA_STYLE ('',( #79 ) ) ;
#278 = AXIS2_PLACEMENT_3D ( 'NONE', #89, #322, #7 ) ;
#279 =( NAMED_UNIT ( * ) SI_UNIT ( $, .STERADIAN. ) SOLID_ANGLE_UNIT ( ) );
#280 = ORIENTED_EDGE ( 'NONE', *, *, #281, .F. ) ;
#281 = EDGE_CURVE ( 'NONE', #55, #46, #365, .T. ) ;
#282 = ORIENTED_EDGE ( 'NONE', *, *, #336, .F. ) ;
#283 = MECHANICAL_DESIGN_GEOMETRIC_PRESENTATION_REPRESENTATION (  '', ( #179 ), #130 ) ;
#284 =( GEOMETRIC_REPRESENTATION_CONTEXT ( 3 ) GLOBAL_UNCERTAINTY_ASSIGNED_CONTEXT ( ( #164 ) ) GLOBAL_UNIT_ASSIGNED_CONTEXT ( ( #41, #351, #96 ) ) REPRESENTATION_CONTEXT ( 'NONE', 'WORKASPACE' ) );
#285 = ORIENTED_EDGE ( 'NONE', *, *, #250, .F. ) ;
#286 = EDGE_LOOP ( 'NONE', ( #134, #113, #230, #57 ) ) ;
#287 = ADVANCED_FACE ( 'NONE', ( #360 ), #330, .T. ) ;
#288 = DIRECTION ( 'NONE',  ( -1.231212018341879827E-16, 1.000000000000000000, -0.000000000000000000 ) ) ;
#289 = MECHANICAL_DESIGN_GEOMETRIC_PRESENTATION_REPRESENTATION (  '', ( #35 ), #4 ) ;
#290 = MECHANICAL_DESIGN_GEOMETRIC_PRESENTATION_REPRESENTATION (  '', ( #76 ), #17 ) ;
#291 = DIRECTION ( 'NONE',  ( 0.000000000000000000, 0.000000000000000000, -1.000000000000000000 ) ) ;
#292 = FILL_AREA_STYLE_COLOUR ( '', #90 ) ;
#293 = ADVANCED_FACE ( 'NONE', ( #105 ), #221, .T. ) ;
#294 = SURFACE_SIDE_STYLE ('',( #174 ) ) ;
#295 = SURFACE_STYLE_USAGE ( .BOTH. , #354 ) ;
#296 = FACE_OUTER_BOUND ( 'NONE', #166, .T. ) ;
#297 = SURFACE_SIDE_STYLE ('',( #51 ) ) ;
#298 = CARTESIAN_POINT ( 'NONE',  ( 0.000000000000000000, 24.00000000000000000, 0.000000000000000000 ) ) ;
#299 = AXIS2_PLACEMENT_3D ( 'NONE', #269, #98, #334 ) ;
#300 = PRODUCT_RELATED_PRODUCT_CATEGORY ( 'part', '', ( #241 ) ) ;
#301 = SURFACE_STYLE_USAGE ( .BOTH. , #297 ) ;
#302 = SURFACE_STYLE_FILL_AREA ( #244 ) ;
#303 = PRODUCT_CONTEXT ( 'NONE', #202, 'mechanical' ) ;
#304 = CARTESIAN_POINT ( 'NONE',  ( 9.797174393178825657E-16, 24.00000000000000000, 8.000000000000000000 ) ) ;
#305 = EDGE_CURVE ( 'NONE', #225, #309, #58, .T. ) ;
#306 = FILL_AREA_STYLE ('',( #185 ) ) ;
#307 = VECTOR ( 'NONE', #217, 1000.000000000000000 ) ;
#308 = ORIENTED_EDGE ( 'NONE', *, *, #250, .T. ) ;
#309 = VERTEX_POINT ( 'NONE', #116 ) ;
#310 = SURFACE_STYLE_USAGE ( .BOTH. , #364 ) ;
#311 = ORIENTED_EDGE ( 'NONE', *, *, #187, .T. ) ;
#312 =( NAMED_UNIT ( * ) PLANE_ANGLE_UNIT ( ) SI_UNIT ( $, .RADIAN. ) );
#313 = STYLED_ITEM ( 'NONE', ( #264 ), #140 ) ;
#314 = DIRECTION ( 'NONE',  ( -0.000000000000000000, -1.000000000000000000, -0.000000000000000000 ) ) ;
#315 = PRESENTATION_LAYER_ASSIGNMENT (  '', '', ( #92 ) ) ;
#316 = AXIS2_PLACEMENT_3D ( 'NONE', #133, #253, #193 ) ;
#317 = ORIENTED_EDGE ( 'NONE', *, *, #12, .F. ) ;
#318 = ADVANCED_FACE ( 'NONE', ( #87 ), #320, .T. ) ;
#319 = DIRECTION ( 'NONE',  ( -1.231212018341879827E-16, 1.000000000000000000, -0.000000000000000000 ) ) ;
#320 = PLANE ( 'NONE',  #366 ) ;
#321 = CARTESIAN_POINT ( 'NONE',  ( 0.000000000000000000, 0.5000000000000000000, 0.000000000000000000 ) ) ;
#322 = DIRECTION ( 'NONE',  ( -1.231212018341879827E-16, 1.000000000000000000, -0.000000000000000000 ) ) ;
#323 = AXIS2_PLACEMENT_3D ( 'NONE', #122, #211, #182 ) ;
#324 = CLOSED_SHELL ( 'NONE', ( #293, #140, #318, #287, #273, #358 ) ) ;
#325 = DIRECTION ( 'NONE',  ( 1.000000000000000000, 1.231212018341879827E-16, 0.000000000000000000 ) ) ;
#326 = FACE_OUTER_BOUND ( 'NONE', #22, .T. ) ;
#327 = DIRECTION ( 'NONE',  ( 0.000000000000000000, -1.000000000000000000, -0.000000000000000000 ) ) ;
#328 = FILL_AREA_STYLE_COLOUR ( '', #173 ) ;
#329 = TOROIDAL_SURFACE ( 'NONE', #15, 7.500000000000000000, 0.5000000000000002220 ) ;
#330 = TOROIDAL_SURFACE ( 'NONE', #72, 7.500000000000000000, 0.5000000000000002220 ) ;
#331 = CIRCLE ( 'NONE', #154, 8.000000000000000000 ) ;
#332 = PRESENTATION_STYLE_ASSIGNMENT (( #48 ) ) ;
#333 =( LENGTH_UNIT ( ) NAMED_UNIT ( * ) SI_UNIT ( .MILLI., .METRE. ) );
#334 = DIRECTION ( 'NONE',  ( -1.000000000000000000, -1.231212018341879827E-16, 0.000000000000000000 ) ) ;
#335 = EDGE_LOOP ( 'NONE', ( #115, #222, #59, #3 ) ) ;
#336 = EDGE_CURVE ( 'NONE', #84, #99, #26, .T. ) ;
#337 = FACE_OUTER_BOUND ( 'NONE', #167, .T. ) ;
#338 = AXIS2_PLACEMENT_3D ( 'NONE', #227, #314, #200 ) ;
#339 = APPLICATION_PROTOCOL_DEFINITION ( 'draft international standard', 'automotive_design', 1998, #202 ) ;
#340 = ORIENTED_EDGE ( 'NONE', *, *, #68, .F. ) ;
#341 = ORIENTED_EDGE ( 'NONE', *, *, #191, .T. ) ;
#342 = FILL_AREA_STYLE_COLOUR ( '', #247 ) ;
#343 =( GEOMETRIC_REPRESENTATION_CONTEXT ( 3 ) GLOBAL_UNCERTAINTY_ASSIGNED_CONTEXT ( ( #34 ) ) GLOBAL_UNIT_ASSIGNED_CONTEXT ( ( #238, #6, #9 ) ) REPRESENTATION_CONTEXT ( 'NONE', 'WORKASPACE' ) );
#344 = ORIENTED_EDGE ( 'NONE', *, *, #336, .T. ) ;
#345 = EDGE_LOOP ( 'NONE', ( #106, #160 ) ) ;
#346 = ORIENTED_EDGE ( 'NONE', *, *, #226, .F. ) ;
#347 = CARTESIAN_POINT ( 'NONE',  ( 0.000000000000000000, 0.5000000000000000000, 0.000000000000000000 ) ) ;
#348 = ORIENTED_EDGE ( 'NONE', *, *, #31, .F. ) ;
#349 = VERTEX_POINT ( 'NONE', #120 ) ;
#350 = CARTESIAN_POINT ( 'NONE',  ( 0.000000000000000000, 24.00000000000000000, 0.000000000000000000 ) ) ;
#351 =( NAMED_UNIT ( * ) PLANE_ANGLE_UNIT ( ) SI_UNIT ( $, .RADIAN. ) );
#352 = PRESENTATION_LAYER_ASSIGNMENT (  '', '', ( #35 ) ) ;
#353 = STYLED_ITEM ( 'NONE', ( #147 ), #318 ) ;
#354 = SURFACE_SIDE_STYLE ('',( #65 ) ) ;
#355 = PLANE ( 'NONE',  #359 ) ;
#356 = AXIS2_PLACEMENT_3D ( 'NONE', #126, #245, #214 ) ;
#357 = DIRECTION ( 'NONE',  ( -0.000000000000000000, -1.000000000000000000, -0.000000000000000000 ) ) ;
#358 = ADVANCED_FACE ( 'NONE', ( #205 ), #355, .T. ) ;
#359 = AXIS2_PLACEMENT_3D ( 'NONE', #298, #183, #124 ) ;
#360 = FACE_OUTER_BOUND ( 'NONE', #335, .T. ) ;
#361 = ADVANCED_BREP_SHAPE_REPRESENTATION ( '59645', ( #255, #127, #235 ), #271 ) ;
#362 = CARTESIAN_POINT ( 'NONE',  ( 8.000000000000000000, 89.00000000000000000, 9.797174393178825657E-16 ) ) ;
#363 = EDGE_CURVE ( 'NONE', #99, #349, #10, .T. ) ;
#364 = SURFACE_SIDE_STYLE ('',( #161 ) ) ;
#365 = CIRCLE ( 'NONE', #23, 8.000000000000001776 ) ;
#366 = AXIS2_PLACEMENT_3D ( 'NONE', #119, #327, #61 ) ;
#367 = CARTESIAN_POINT ( 'NONE',  ( 0.000000000000000000, 24.00000000000000000, 0.000000000000000000 ) ) ;
#368 = PRODUCT_DEFINITION ( 'UNKNOWN', '', #239, #63 ) ;
#369 = UNCERTAINTY_MEASURE_WITH_UNIT (LENGTH_MEASURE( 1.000000000000000082E-05 ), #19, 'distance_accuracy_value', 'NONE');
#370 = CARTESIAN_POINT ( 'NONE',  ( 0.000000000000000000, 24.00000000000000000, -8.000000000000000000 ) ) ;
ENDSEC;
END-ISO-10303-21;
