ISO-10303-21;
HEADER;
FILE_DESCRIPTION (( 'STEP AP214' ),
    '1' );
FILE_NAME ('Micro_DC-3.STEP',
    '2021-08-31T17:22:29',
    ( '' ),
    ( '' ),
    'SwSTEP 2.0',
    'SolidWorks 2020',
    '' );
FILE_SCHEMA (( 'AUTOMOTIVE_DESIGN' ));
ENDSEC;

DATA;
#1 = DIRECTION ( 'NONE',  ( -1.195183497228115035E-16, -0.0000000000000000000, 1.000000000000000000 ) ) ;
#2 = CARTESIAN_POINT ( 'NONE',  ( 0.0000000000000000000, 0.0000000000000000000, 2.000000000000000000 ) ) ;
#3 = ORIENTED_EDGE ( 'NONE', *, *, #43, .T. ) ;
#4 = VECTOR ( 'NONE', #39, 39.37007874015748143 ) ;
#5 = ADVANCED_FACE ( 'NONE', ( #87 ), #145, .T. ) ;
#6 = FACE_OUTER_BOUND ( 'NONE', #317, .T. ) ;
#7 =( GEOMETRIC_REPRESENTATION_CONTEXT ( 3 ) GLOBAL_UNCERTAINTY_ASSIGNED_CONTEXT ( ( #34 ) ) GLOBAL_UNIT_ASSIGNED_CONTEXT ( ( #85, #289, #27 ) ) REPRESENTATION_CONTEXT ( 'NONE', 'WORKASPACE' ) );
#8 = ADVANCED_FACE ( 'NONE', ( #201 ), #387, .T. ) ;
#9 = CARTESIAN_POINT ( 'NONE',  ( 0.0000000000000000000, 0.0000000000000000000, 0.0000000000000000000 ) ) ;
#10 = EDGE_LOOP ( 'NONE', ( #13, #139, #16, #253 ) ) ;
#11 = DIRECTION ( 'NONE',  ( -1.195183497228115035E-16, -0.0000000000000000000, -1.000000000000000000 ) ) ;
#12 = ADVANCED_FACE ( 'NONE', ( #138 ), #330, .T. ) ;
#13 = ORIENTED_EDGE ( 'NONE', *, *, #223, .F. ) ;
#14 = LINE ( 'NONE', #128, #56 ) ;
#15 = CIRCLE ( 'NONE', #283, 0.1249999999999999584 ) ;
#16 = ORIENTED_EDGE ( 'NONE', *, *, #53, .T. ) ;
#17 = CARTESIAN_POINT ( 'NONE',  ( 0.0000000000000000000, 0.0000000000000000000, 0.0000000000000000000 ) ) ;
#18 = DIRECTION ( 'NONE',  ( -1.195183497228115035E-16, -0.0000000000000000000, -1.000000000000000000 ) ) ;
#19 = CARTESIAN_POINT ( 'NONE',  ( 0.0000000000000000000, 0.0000000000000000000, 0.0000000000000000000 ) ) ;
#20 = CARTESIAN_POINT ( 'NONE',  ( 0.05470000000000002638, 0.0000000000000000000, 1.858132924139192621 ) ) ;
#21 = EDGE_CURVE ( 'NONE', #363, #47, #26, .T. ) ;
#22 = DIRECTION ( 'NONE',  ( 1.000000000000000000, 0.0000000000000000000, 0.0000000000000000000 ) ) ;
#23 = CARTESIAN_POINT ( 'NONE',  ( -0.05469999999999985291, -6.698817991336005207E-18, 1.967132924139192607 ) ) ;
#24 = VECTOR ( 'NONE', #370, 39.37007874015748143 ) ;
#25 = DIRECTION ( 'NONE',  ( -0.0000000000000000000, -0.0000000000000000000, -1.000000000000000000 ) ) ;
#26 = CIRCLE ( 'NONE', #340, 0.05469999999999999862 ) ;
#27 =( NAMED_UNIT ( * ) SI_UNIT ( $, .STERADIAN. ) SOLID_ANGLE_UNIT ( ) );
#28 = ORIENTED_EDGE ( 'NONE', *, *, #189, .F. ) ;
#29 = EDGE_CURVE ( 'NONE', #60, #40, #170, .T. ) ;
#30 = CARTESIAN_POINT ( 'NONE',  ( 3.150865213410021371E-17, 0.0000000000000000000, 0.2636302476328989397 ) ) ;
#31 = DIRECTION ( 'NONE',  ( -1.000000000000000000, 0.0000000000000000000, 0.0000000000000000000 ) ) ;
#32 = LINE ( 'NONE', #92, #327 ) ;
#33 = PRESENTATION_STYLE_ASSIGNMENT (( #91 ) ) ;
#34 = UNCERTAINTY_MEASURE_WITH_UNIT (LENGTH_MEASURE( 1.000000000000000082E-05 ), #85, 'distance_accuracy_value', 'NONE');
#35 = DIRECTION ( 'NONE',  ( -1.000000000000000000, 0.0000000000000000000, 0.0000000000000000000 ) ) ;
#36 = CIRCLE ( 'NONE', #302, 0.1249999999999999584 ) ;
#37 = DIRECTION ( 'NONE',  ( -1.195183497228115035E-16, -0.0000000000000000000, -1.000000000000000000 ) ) ;
#38 = ADVANCED_FACE ( 'NONE', ( #55 ), #394, .T. ) ;
#39 = DIRECTION ( 'NONE',  ( -1.195183497228115035E-16, -0.0000000000000000000, -1.000000000000000000 ) ) ;
#40 = VERTEX_POINT ( 'NONE', #355 ) ;
#41 = DIRECTION ( 'NONE',  ( -0.5000000000000009992, 6.123233995736779594E-17, 0.8660254037844379305 ) ) ;
#42 = ORIENTED_EDGE ( 'NONE', *, *, #267, .T. ) ;
#43 = EDGE_CURVE ( 'NONE', #193, #60, #172, .T. ) ;
#44 = LINE ( 'NONE', #2, #356 ) ;
#45 = VERTEX_POINT ( 'NONE', #287 ) ;
#46 = DIRECTION ( 'NONE',  ( -0.0000000000000000000, -0.0000000000000000000, -1.000000000000000000 ) ) ;
#47 = VERTEX_POINT ( 'NONE', #23 ) ;
#48 = VECTOR ( 'NONE', #234, 39.37007874015748854 ) ;
#49 = FILL_AREA_STYLE_COLOUR ( '', #232 ) ;
#50 = ORIENTED_EDGE ( 'NONE', *, *, #267, .F. ) ;
#51 = LINE ( 'NONE', #388, #266 ) ;
#52 = CARTESIAN_POINT ( 'NONE',  ( 3.928218667098147670E-18, 0.0000000000000000000, 0.03286707586080734461 ) ) ;
#53 = EDGE_CURVE ( 'NONE', #163, #326, #113, .T. ) ;
#54 = FILL_AREA_STYLE ('',( #49 ) ) ;
#55 = FACE_OUTER_BOUND ( 'NONE', #278, .T. ) ;
#56 = VECTOR ( 'NONE', #41, 39.37007874015748854 ) ;
#57 = CARTESIAN_POINT ( 'NONE',  ( 0.05470000000000001944, 6.698817991336023696E-18, 0.1418670758608073235 ) ) ;
#58 = ADVANCED_FACE ( 'NONE', ( #359 ), #83, .T. ) ;
#59 = ORIENTED_EDGE ( 'NONE', *, *, #93, .F. ) ;
#60 = VERTEX_POINT ( 'NONE', #213 ) ;
#61 = CARTESIAN_POINT ( 'NONE',  ( 1.695571878688459941E-17, 0.0000000000000000000, 1.858132924139192621 ) ) ;
#62 = FACE_OUTER_BOUND ( 'NONE', #98, .T. ) ;
#63 =( GEOMETRIC_REPRESENTATION_CONTEXT ( 3 ) GLOBAL_UNCERTAINTY_ASSIGNED_CONTEXT ( ( #64 ) ) GLOBAL_UNIT_ASSIGNED_CONTEXT ( ( #151, #119, #89 ) ) REPRESENTATION_CONTEXT ( 'NONE', 'WORKASPACE' ) );
#64 = UNCERTAINTY_MEASURE_WITH_UNIT (LENGTH_MEASURE( 1.000000000000000082E-05 ), #151, 'distance_accuracy_value', 'NONE');
#65 = LINE ( 'NONE', #252, #100 ) ;
#66 = STYLED_ITEM ( 'NONE', ( #358 ), #312 ) ;
#67 = DIRECTION ( 'NONE',  ( -1.000000000000000000, 0.0000000000000000000, 1.195183497228115035E-16 ) ) ;
#68 = ORIENTED_EDGE ( 'NONE', *, *, #189, .T. ) ;
#69 = CARTESIAN_POINT ( 'NONE',  ( -0.1250000000000000000, 0.0000000000000000000, 2.000000000000000000 ) ) ;
#70 = ORIENTED_EDGE ( 'NONE', *, *, #396, .T. ) ;
#71 = EDGE_CURVE ( 'NONE', #251, #60, #297, .T. ) ;
#72 = DIRECTION ( 'NONE',  ( 0.8571673007021137769, 0.0000000000000000000, -0.5150380749100517130 ) ) ;
#73 = ORIENTED_EDGE ( 'NONE', *, *, #43, .F. ) ;
#74 = AXIS2_PLACEMENT_3D ( 'NONE', #99, #279, #281 ) ;
#75 = DIRECTION ( 'NONE',  ( 1.195183497228115035E-16, 0.0000000000000000000, -1.000000000000000000 ) ) ;
#76 = ORIENTED_EDGE ( 'NONE', *, *, #396, .F. ) ;
#77 =( CONVERSION_BASED_UNIT ( 'INCH', #115 ) LENGTH_UNIT ( ) NAMED_UNIT ( #149 ) );
#78 = PRODUCT_CONTEXT ( 'NONE', #214, 'mechanical' ) ;
#79 = ORIENTED_EDGE ( 'NONE', *, *, #250, .F. ) ;
#80 = SHAPE_DEFINITION_REPRESENTATION ( #218, #312 ) ;
#81 = ORIENTED_EDGE ( 'NONE', *, *, #309, .T. ) ;
#82 = EDGE_CURVE ( 'NONE', #163, #282, #318, .T. ) ;
#83 = CYLINDRICAL_SURFACE ( 'NONE', #168, 0.1250000000000000000 ) ;
#84 = EDGE_CURVE ( 'NONE', #326, #230, #36, .T. ) ;
#85 =( CONVERSION_BASED_UNIT ( 'INCH', #137 ) LENGTH_UNIT ( ) NAMED_UNIT ( #360 ) );
#86 = EDGE_LOOP ( 'NONE', ( #259, #158, #104, #246 ) ) ;
#87 = FACE_OUTER_BOUND ( 'NONE', #284, .T. ) ;
#88 = DIRECTION ( 'NONE',  ( -1.000000000000000000, 0.0000000000000000000, 0.0000000000000000000 ) ) ;
#89 =( NAMED_UNIT ( * ) SI_UNIT ( $, .STERADIAN. ) SOLID_ANGLE_UNIT ( ) );
#90 = ADVANCED_FACE ( 'NONE', ( #181 ), #268, .T. ) ;
#91 = SURFACE_STYLE_USAGE ( .BOTH. , #177 ) ;
#92 = CARTESIAN_POINT ( 'NONE',  ( -0.05469999999999999862, 0.0000000000000000000, 2.000000000000000000 ) ) ;
#93 = EDGE_CURVE ( 'NONE', #45, #291, #15, .T. ) ;
#94 = CARTESIAN_POINT ( 'NONE',  ( -0.05469999999999999168, 0.0000000000000000000, 1.858132924139192621 ) ) ;
#95 = VECTOR ( 'NONE', #72, 39.37007874015748143 ) ;
#96 = ORIENTED_EDGE ( 'NONE', *, *, #173, .T. ) ;
#97 = FACE_OUTER_BOUND ( 'NONE', #191, .T. ) ;
#98 = EDGE_LOOP ( 'NONE', ( #314, #96, #204 ) ) ;
#99 = CARTESIAN_POINT ( 'NONE',  ( 1.695571878688459941E-17, 0.0000000000000000000, 0.1418670758608073235 ) ) ;
#100 = VECTOR ( 'NONE', #192, 39.37007874015748143 ) ;
#101 = ORIENTED_EDGE ( 'NONE', *, *, #84, .F. ) ;
#102 = AXIS2_PLACEMENT_3D ( 'NONE', #366, #155, #31 ) ;
#103 = CARTESIAN_POINT ( 'NONE',  ( -0.05469999999999999168, -6.698817991336022926E-18, 1.858132924139192621 ) ) ;
#104 = ORIENTED_EDGE ( 'NONE', *, *, #21, .T. ) ;
#105 = VECTOR ( 'NONE', #322, 39.37007874015748143 ) ;
#106 = CARTESIAN_POINT ( 'NONE',  ( 4.705446839480768347E-15, 0.0000000000000000000, 39.37007874015748143 ) ) ;
#107 = ORIENTED_EDGE ( 'NONE', *, *, #136, .F. ) ;
#108 = ADVANCED_FACE ( 'NONE', ( #124 ), #243, .T. ) ;
#109 = DIRECTION ( 'NONE',  ( -1.195183497228115035E-16, -0.0000000000000000000, 1.000000000000000000 ) ) ;
#110 = ORIENTED_EDGE ( 'NONE', *, *, #82, .T. ) ;
#111 = ORIENTED_EDGE ( 'NONE', *, *, #93, .T. ) ;
#112 =( GEOMETRIC_REPRESENTATION_CONTEXT ( 3 ) GLOBAL_UNCERTAINTY_ASSIGNED_CONTEXT ( ( #303 ) ) GLOBAL_UNIT_ASSIGNED_CONTEXT ( ( #77, #325, #315 ) ) REPRESENTATION_CONTEXT ( 'NONE', 'WORKASPACE' ) );
#113 = LINE ( 'NONE', #20, #48 ) ;
#114 = CARTESIAN_POINT ( 'NONE',  ( 3.928218667098147670E-18, 0.0000000000000000000, 1.967132924139192607 ) ) ;
#115 = LENGTH_MEASURE_WITH_UNIT ( LENGTH_MEASURE( 0.02539999999999999897 ), #386 );
#116 = DIRECTION ( 'NONE',  ( 1.195183497228115035E-16, 0.0000000000000000000, 1.000000000000000000 ) ) ;
#117 = AXIS2_PLACEMENT_3D ( 'NONE', #237, #258, #261 ) ;
#118 = DIRECTION ( 'NONE',  ( 1.195183497228115035E-16, 0.0000000000000000000, -1.000000000000000000 ) ) ;
#119 =( NAMED_UNIT ( * ) PLANE_ANGLE_UNIT ( ) SI_UNIT ( $, .RADIAN. ) );
#120 = CARTESIAN_POINT ( 'NONE',  ( 1.695571878688459941E-17, 0.0000000000000000000, 1.858132924139192621 ) ) ;
#121 = COLOUR_RGB ( '',0.7921568627450980005, 0.8196078431372548767, 0.9333333333333333481 ) ;
#122 = DIRECTION ( 'NONE',  ( -1.195183497228115035E-16, -0.0000000000000000000, -1.000000000000000000 ) ) ;
#123 = EDGE_CURVE ( 'NONE', #282, #47, #32, .T. ) ;
#124 = FACE_OUTER_BOUND ( 'NONE', #86, .T. ) ;
#125 = CARTESIAN_POINT ( 'NONE',  ( -0.05469999999999999168, 0.0000000000000000000, 0.1418670758608073235 ) ) ;
#126 = AXIS2_PLACEMENT_3D ( 'NONE', #153, #269, #305 ) ;
#127 = AXIS2_PLACEMENT_3D ( 'NONE', #180, #240, #182 ) ;
#128 = CARTESIAN_POINT ( 'NONE',  ( -0.05469999999999999168, 6.698817991336022926E-18, 0.1418670758608073235 ) ) ;
#129 = EDGE_CURVE ( 'NONE', #282, #163, #154, .T. ) ;
#130 = DIRECTION ( 'NONE',  ( -1.195183497228115035E-16, -0.0000000000000000000, -1.000000000000000000 ) ) ;
#131 = EDGE_LOOP ( 'NONE', ( #236, #380, #42, #107 ) ) ;
#132 = CARTESIAN_POINT ( 'NONE',  ( 0.0000000000000000000, 0.0000000000000000000, 2.000000000000000000 ) ) ;
#133 = ORIENTED_EDGE ( 'NONE', *, *, #208, .F. ) ;
#134 = CARTESIAN_POINT ( 'NONE',  ( 3.150865213410021371E-17, 0.0000000000000000000, 1.736369752367101116 ) ) ;
#135 = ORIENTED_EDGE ( 'NONE', *, *, #129, .F. ) ;
#136 = EDGE_CURVE ( 'NONE', #291, #45, #354, .T. ) ;
#137 = LENGTH_MEASURE_WITH_UNIT ( LENGTH_MEASURE( 0.02539999999999999897 ), #382 );
#138 = FACE_OUTER_BOUND ( 'NONE', #10, .T. ) ;
#139 = ORIENTED_EDGE ( 'NONE', *, *, #129, .T. ) ;
#140 = EDGE_CURVE ( 'NONE', #47, #363, #178, .T. ) ;
#141 = DIRECTION ( 'NONE',  ( -1.000000000000000000, 0.0000000000000000000, 1.560699265118980274E-16 ) ) ;
#142 = CIRCLE ( 'NONE', #74, 0.05470000000000000556 ) ;
#143 = CARTESIAN_POINT ( 'NONE',  ( 0.0000000000000000000, 0.0000000000000000000, 2.000000000000000000 ) ) ;
#144 = MANIFOLD_SOLID_BREP ( 'Mirror1', #364 ) ;
#145 = CYLINDRICAL_SURFACE ( 'NONE', #384, 0.05469999999999999862 ) ;
#146 = CARTESIAN_POINT ( 'NONE',  ( 3.150865213410021371E-17, 0.0000000000000000000, 1.736369752367101116 ) ) ;
#147 = ADVANCED_FACE ( 'NONE', ( #397 ), #209, .T. ) ;
#148 = PRESENTATION_LAYER_ASSIGNMENT (  '', '', ( #66 ) ) ;
#149 = DIMENSIONAL_EXPONENTS ( 1.000000000000000000, 0.0000000000000000000, 0.0000000000000000000, 0.0000000000000000000, 0.0000000000000000000, 0.0000000000000000000, 0.0000000000000000000 ) ;
#150 = ADVANCED_FACE ( 'NONE', ( #62 ), #369, .T. ) ;
#151 =( CONVERSION_BASED_UNIT ( 'INCH', #332 ) LENGTH_UNIT ( ) NAMED_UNIT ( #298 ) );
#152 = EDGE_CURVE ( 'NONE', #193, #374, #203, .T. ) ;
#153 = CARTESIAN_POINT ( 'NONE',  ( 4.705446839480768347E-15, 0.0000000000000000000, -37.37007874015748143 ) ) ;
#154 = CIRCLE ( 'NONE', #127, 0.05470000000000000556 ) ;
#155 = DIRECTION ( 'NONE',  ( -1.195183497228115035E-16, -0.0000000000000000000, 1.000000000000000000 ) ) ;
#156 = LINE ( 'NONE', #69, #24 ) ;
#157 = FACE_OUTER_BOUND ( 'NONE', #226, .T. ) ;
#158 = ORIENTED_EDGE ( 'NONE', *, *, #390, .T. ) ;
#159 = EDGE_CURVE ( 'NONE', #374, #40, #227, .T. ) ;
#160 = CARTESIAN_POINT ( 'NONE',  ( 3.928218667098147670E-18, 0.0000000000000000000, 0.03286707586080734461 ) ) ;
#161 = ORIENTED_EDGE ( 'NONE', *, *, #152, .T. ) ;
#162 = CARTESIAN_POINT ( 'NONE',  ( 0.1250000000000000000, 1.530808498934191509E-17, 1.736369752367101116 ) ) ;
#163 = VERTEX_POINT ( 'NONE', #379 ) ;
#164 = CARTESIAN_POINT ( 'NONE',  ( 0.1250000000000000000, 1.530808498934191509E-17, 0.2636302476328989397 ) ) ;
#165 = EDGE_CURVE ( 'NONE', #326, #291, #65, .T. ) ;
#166 = ORIENTED_EDGE ( 'NONE', *, *, #309, .F. ) ;
#167 = AXIS2_PLACEMENT_3D ( 'NONE', #211, #265, #338 ) ;
#168 = AXIS2_PLACEMENT_3D ( 'NONE', #175, #25, #262 ) ;
#169 = CONICAL_SURFACE ( 'NONE', #310, 65.52281426576882950, 1.029744258676657198 ) ;
#170 = CIRCLE ( 'NONE', #206, 0.05469999999999999862 ) ;
#171 = CARTESIAN_POINT ( 'NONE',  ( -0.05469999999999999862, 0.0000000000000000000, 6.537653729837789286E-18 ) ) ;
#172 = LINE ( 'NONE', #171, #217 ) ;
#173 = EDGE_CURVE ( 'NONE', #306, #363, #313, .T. ) ;
#174 = PRESENTATION_LAYER_ASSIGNMENT (  '', '', ( #346 ) ) ;
#175 = CARTESIAN_POINT ( 'NONE',  ( 0.0000000000000000000, 0.0000000000000000000, 2.000000000000000000 ) ) ;
#176 = EDGE_LOOP ( 'NONE', ( #321, #352, #221 ) ) ;
#177 = SURFACE_SIDE_STYLE ('',( #238 ) ) ;
#178 = CIRCLE ( 'NONE', #212, 0.05469999999999999862 ) ;
#179 = MECHANICAL_DESIGN_GEOMETRIC_PRESENTATION_REPRESENTATION (  '', ( #346 ), #63 ) ;
#180 = CARTESIAN_POINT ( 'NONE',  ( 1.695571878688459941E-17, 0.0000000000000000000, 1.858132924139192621 ) ) ;
#181 = FACE_OUTER_BOUND ( 'NONE', #228, .T. ) ;
#182 = DIRECTION ( 'NONE',  ( -1.000000000000000000, 0.0000000000000000000, 0.0000000000000000000 ) ) ;
#183 = DIRECTION ( 'NONE',  ( -0.8571673007021136659, 1.049727191138620298E-16, 0.5150380749100519351 ) ) ;
#184 = AXIS2_PLACEMENT_3D ( 'NONE', #395, #300, #301 ) ;
#185 = VECTOR ( 'NONE', #343, 39.37007874015748854 ) ;
#186 = CARTESIAN_POINT ( 'NONE',  ( 1.695571878688459941E-17, 0.0000000000000000000, 0.1418670758608073235 ) ) ;
#187 = FACE_OUTER_BOUND ( 'NONE', #188, .T. ) ;
#188 = EDGE_LOOP ( 'NONE', ( #28, #166, #357, #371 ) ) ;
#189 = EDGE_CURVE ( 'NONE', #193, #45, #14, .T. ) ;
#190 = DIRECTION ( 'NONE',  ( 1.000000000000000000, 0.0000000000000000000, 1.334178587669835812E-16 ) ) ;
#191 = EDGE_LOOP ( 'NONE', ( #288, #280, #59, #50 ) ) ;
#192 = DIRECTION ( 'NONE',  ( -0.0000000000000000000, -0.0000000000000000000, -1.000000000000000000 ) ) ;
#193 = VERTEX_POINT ( 'NONE', #125 ) ;
#194 = ADVANCED_FACE ( 'NONE', ( #97 ), #307, .T. ) ;
#195 = DIRECTION ( 'NONE',  ( -1.000000000000000000, 0.0000000000000000000, 0.0000000000000000000 ) ) ;
#196 = ORIENTED_EDGE ( 'NONE', *, *, #71, .T. ) ;
#197 = ORIENTED_EDGE ( 'NONE', *, *, #152, .F. ) ;
#198 = APPLICATION_PROTOCOL_DEFINITION ( 'draft international standard', 'automotive_design', 1998, #256 ) ;
#199 = DIRECTION ( 'NONE',  ( -1.195183497228115035E-16, -0.0000000000000000000, -1.000000000000000000 ) ) ;
#200 = AXIS2_PLACEMENT_3D ( 'NONE', #389, #116, #207 ) ;
#201 = FACE_OUTER_BOUND ( 'NONE', #248, .T. ) ;
#202 = DIRECTION ( 'NONE',  ( -1.195183497228115035E-16, -0.0000000000000000000, 1.000000000000000000 ) ) ;
#203 = CIRCLE ( 'NONE', #239, 0.05470000000000000556 ) ;
#204 = ORIENTED_EDGE ( 'NONE', *, *, #140, .F. ) ;
#205 = VECTOR ( 'NONE', #225, 39.37007874015748854 ) ;
#206 = AXIS2_PLACEMENT_3D ( 'NONE', #52, #199, #141 ) ;
#207 = DIRECTION ( 'NONE',  ( 1.000000000000000000, 0.0000000000000000000, -1.334178587669835812E-16 ) ) ;
#208 = EDGE_CURVE ( 'NONE', #40, #60, #362, .T. ) ;
#209 = CONICAL_SURFACE ( 'NONE', #335, 0.05470000000000000556, 0.5235987755983002589 ) ;
#210 = DIRECTION ( 'NONE',  ( 1.000000000000000000, 0.0000000000000000000, 0.0000000000000000000 ) ) ;
#211 = CARTESIAN_POINT ( 'NONE',  ( 3.150865213410021371E-17, 0.0000000000000000000, 0.2636302476328989397 ) ) ;
#212 = AXIS2_PLACEMENT_3D ( 'NONE', #337, #271, #244 ) ;
#213 = CARTESIAN_POINT ( 'NONE',  ( -0.05469999999999997087, 6.698817991336019844E-18, 0.03286707586080734461 ) ) ;
#214 = APPLICATION_CONTEXT ( 'automotive_design' ) ;
#215 = AXIS2_PLACEMENT_3D ( 'NONE', #9, #130, #67 ) ;
#216 = CARTESIAN_POINT ( 'NONE',  ( 0.0000000000000000000, 0.0000000000000000000, 2.000000000000000000 ) ) ;
#217 = VECTOR ( 'NONE', #361, 39.37007874015748143 ) ;
#218 = PRODUCT_DEFINITION_SHAPE ( 'NONE', 'NONE',  #299 ) ;
#219 = ORIENTED_EDGE ( 'NONE', *, *, #53, .F. ) ;
#220 = LINE ( 'NONE', #103, #185 ) ;
#221 = ORIENTED_EDGE ( 'NONE', *, *, #21, .F. ) ;
#222 = DIRECTION ( 'NONE',  ( 1.195183497228115035E-16, 0.0000000000000000000, 1.000000000000000000 ) ) ;
#223 = EDGE_CURVE ( 'NONE', #282, #230, #220, .T. ) ;
#224 = AXIS2_PLACEMENT_3D ( 'NONE', #349, #46, #195 ) ;
#225 = DIRECTION ( 'NONE',  ( 0.5000000000000013323, 0.0000000000000000000, 0.8660254037844379305 ) ) ;
#226 = EDGE_LOOP ( 'NONE', ( #231, #70, #383 ) ) ;
#227 = LINE ( 'NONE', #345, #4 ) ;
#228 = EDGE_LOOP ( 'NONE', ( #197, #68, #111, #79 ) ) ;
#229 = APPLICATION_PROTOCOL_DEFINITION ( 'draft international standard', 'automotive_design', 1998, #214 ) ;
#230 = VERTEX_POINT ( 'NONE', #247 ) ;
#231 = ORIENTED_EDGE ( 'NONE', *, *, #71, .F. ) ;
#232 = COLOUR_RGB ( '',0.7921568627450980005, 0.8196078431372548767, 0.9333333333333333481 ) ;
#233 = SURFACE_SIDE_STYLE ('',( #260 ) ) ;
#234 = DIRECTION ( 'NONE',  ( 0.5000000000000013323, 0.0000000000000000000, -0.8660254037844379305 ) ) ;
#235 = PRODUCT_RELATED_PRODUCT_CATEGORY ( 'part', '', ( #274 ) ) ;
#236 = ORIENTED_EDGE ( 'NONE', *, *, #165, .F. ) ;
#237 = CARTESIAN_POINT ( 'NONE',  ( 1.695571878688459941E-17, 0.0000000000000000000, 1.858132924139192621 ) ) ;
#238 = SURFACE_STYLE_FILL_AREA ( #368 ) ;
#239 = AXIS2_PLACEMENT_3D ( 'NONE', #186, #37, #249 ) ;
#240 = DIRECTION ( 'NONE',  ( 1.195183497228115035E-16, 0.0000000000000000000, -1.000000000000000000 ) ) ;
#241 = EDGE_CURVE ( 'NONE', #230, #326, #378, .T. ) ;
#242 = PRODUCT_DEFINITION_FORMATION_WITH_SPECIFIED_SOURCE ( 'ANY', '', #274, .NOT_KNOWN. ) ;
#243 = CYLINDRICAL_SURFACE ( 'NONE', #102, 0.05469999999999999862 ) ;
#244 = DIRECTION ( 'NONE',  ( -1.000000000000000000, 0.0000000000000000000, 0.0000000000000000000 ) ) ;
#245 = DIRECTION ( 'NONE',  ( -0.8571673007021136659, -1.049727191138620298E-16, -0.5150380749100519351 ) ) ;
#246 = ORIENTED_EDGE ( 'NONE', *, *, #123, .F. ) ;
#247 = CARTESIAN_POINT ( 'NONE',  ( -0.1249999999999999306, 0.0000000000000000000, 1.736369752367101116 ) ) ;
#248 = EDGE_LOOP ( 'NONE', ( #161, #329, #385, #73 ) ) ;
#249 = DIRECTION ( 'NONE',  ( -1.000000000000000000, 0.0000000000000000000, 0.0000000000000000000 ) ) ;
#250 = EDGE_CURVE ( 'NONE', #374, #291, #304, .T. ) ;
#251 = VERTEX_POINT ( 'NONE', #254 ) ;
#252 = CARTESIAN_POINT ( 'NONE',  ( 0.1250000000000000000, 1.530808498934191509E-17, 2.000000000000000000 ) ) ;
#253 = ORIENTED_EDGE ( 'NONE', *, *, #241, .F. ) ;
#254 = CARTESIAN_POINT ( 'NONE',  ( 0.0000000000000000000, 0.0000000000000000000, 0.0000000000000000000 ) ) ;
#255 = EDGE_LOOP ( 'NONE', ( #110, #308, #101, #219 ) ) ;
#256 = APPLICATION_CONTEXT ( 'automotive_design' ) ;
#257 = DIRECTION ( 'NONE',  ( 1.000000000000000000, 0.0000000000000000000, 0.0000000000000000000 ) ) ;
#258 = DIRECTION ( 'NONE',  ( 1.195183497228115035E-16, 0.0000000000000000000, -1.000000000000000000 ) ) ;
#259 = ORIENTED_EDGE ( 'NONE', *, *, #82, .F. ) ;
#260 = SURFACE_STYLE_FILL_AREA ( #54 ) ;
#261 = DIRECTION ( 'NONE',  ( 1.000000000000000000, 0.0000000000000000000, 0.0000000000000000000 ) ) ;
#262 = DIRECTION ( 'NONE',  ( -1.000000000000000000, 0.0000000000000000000, 0.0000000000000000000 ) ) ;
#263 = SURFACE_STYLE_USAGE ( .BOTH. , #233 ) ;
#264 = DIRECTION ( 'NONE',  ( 1.195183497228115035E-16, 0.0000000000000000000, -1.000000000000000000 ) ) ;
#265 = DIRECTION ( 'NONE',  ( -1.195183497228115035E-16, -0.0000000000000000000, -1.000000000000000000 ) ) ;
#266 = VECTOR ( 'NONE', #109, 39.37007874015748143 ) ;
#267 = EDGE_CURVE ( 'NONE', #230, #45, #156, .T. ) ;
#268 = CONICAL_SURFACE ( 'NONE', #184, 0.05470000000000000556, 0.5235987755983002589 ) ;
#269 = DIRECTION ( 'NONE',  ( 1.195183497228115035E-16, 0.0000000000000000000, -1.000000000000000000 ) ) ;
#270 = CONICAL_SURFACE ( 'NONE', #319, 0.05470000000000000556, 0.5235987755983002589 ) ;
#271 = DIRECTION ( 'NONE',  ( 1.195183497228115035E-16, 0.0000000000000000000, -1.000000000000000000 ) ) ;
#272 = ADVANCED_FACE ( 'NONE', ( #373 ), #169, .T. ) ;
#273 = DIRECTION ( 'NONE',  ( 1.000000000000000000, 0.0000000000000000000, -1.334178587669835812E-16 ) ) ;
#274 = PRODUCT ( 'Micro_DC-3', 'Micro_DC-3', '', ( #78 ) ) ;
#275 = DIRECTION ( 'NONE',  ( -1.000000000000000000, 0.0000000000000000000, 1.560699265118980274E-16 ) ) ;
#276 = ADVANCED_FACE ( 'NONE', ( #157 ), #392, .T. ) ;
#277 = CARTESIAN_POINT ( 'NONE',  ( 0.05470000000000002638, 0.0000000000000000000, 0.1418670758608073235 ) ) ;
#278 = EDGE_LOOP ( 'NONE', ( #76, #196, #350 ) ) ;
#279 = DIRECTION ( 'NONE',  ( -1.195183497228115035E-16, -0.0000000000000000000, -1.000000000000000000 ) ) ;
#280 = ORIENTED_EDGE ( 'NONE', *, *, #165, .T. ) ;
#281 = DIRECTION ( 'NONE',  ( -1.000000000000000000, 0.0000000000000000000, 0.0000000000000000000 ) ) ;
#282 = VERTEX_POINT ( 'NONE', #94 ) ;
#283 = AXIS2_PLACEMENT_3D ( 'NONE', #30, #122, #88 ) ;
#284 = EDGE_LOOP ( 'NONE', ( #344, #135, #342, #377 ) ) ;
#285 = AXIS2_PLACEMENT_3D ( 'NONE', #323, #18, #331 ) ;
#286 = DIRECTION ( 'NONE',  ( 0.0000000000000000000, 0.0000000000000000000, 1.000000000000000000 ) ) ;
#287 = CARTESIAN_POINT ( 'NONE',  ( -0.1249999999999999306, 0.0000000000000000000, 0.2636302476328989397 ) ) ;
#288 = ORIENTED_EDGE ( 'NONE', *, *, #241, .T. ) ;
#289 =( NAMED_UNIT ( * ) PLANE_ANGLE_UNIT ( ) SI_UNIT ( $, .RADIAN. ) );
#290 = MECHANICAL_DESIGN_GEOMETRIC_PRESENTATION_REPRESENTATION (  '', ( #66 ), #112 ) ;
#291 = VERTEX_POINT ( 'NONE', #164 ) ;
#292 = LINE ( 'NONE', #19, #105 ) ;
#293 = DIRECTION ( 'NONE',  ( -1.000000000000000000, 0.0000000000000000000, 0.0000000000000000000 ) ) ;
#294 = FILL_AREA_STYLE_COLOUR ( '', #121 ) ;
#295 =( LENGTH_UNIT ( ) NAMED_UNIT ( * ) SI_UNIT ( $, .METRE. ) );
#296 = AXIS2_PLACEMENT_3D ( 'NONE', #106, #222, #273 ) ;
#297 = LINE ( 'NONE', #393, #391 ) ;
#298 = DIMENSIONAL_EXPONENTS ( 1.000000000000000000, 0.0000000000000000000, 0.0000000000000000000, 0.0000000000000000000, 0.0000000000000000000, 0.0000000000000000000, 0.0000000000000000000 ) ;
#299 = PRODUCT_DEFINITION ( 'UNKNOWN', '', #242, #367 ) ;
#300 = DIRECTION ( 'NONE',  ( 1.195183497228115035E-16, 0.0000000000000000000, 1.000000000000000000 ) ) ;
#301 = DIRECTION ( 'NONE',  ( 1.000000000000000000, 0.0000000000000000000, 0.0000000000000000000 ) ) ;
#302 = AXIS2_PLACEMENT_3D ( 'NONE', #146, #365, #336 ) ;
#303 = UNCERTAINTY_MEASURE_WITH_UNIT (LENGTH_MEASURE( 1.000000000000000082E-05 ), #77, 'distance_accuracy_value', 'NONE');
#304 = LINE ( 'NONE', #277, #205 ) ;
#305 = DIRECTION ( 'NONE',  ( 1.000000000000000000, 0.0000000000000000000, 1.334178587669835812E-16 ) ) ;
#306 = VERTEX_POINT ( 'NONE', #216 ) ;
#307 = CYLINDRICAL_SURFACE ( 'NONE', #224, 0.1250000000000000000 ) ;
#308 = ORIENTED_EDGE ( 'NONE', *, *, #223, .T. ) ;
#309 = EDGE_CURVE ( 'NONE', #374, #193, #142, .T. ) ;
#310 = AXIS2_PLACEMENT_3D ( 'NONE', #311, #75, #190 ) ;
#311 = CARTESIAN_POINT ( 'NONE',  ( 4.705446839480768347E-15, 0.0000000000000000000, -37.37007874015748143 ) ) ;
#312 = ADVANCED_BREP_SHAPE_REPRESENTATION ( 'Micro_DC-3', ( #144, #348 ), #7 ) ;
#313 = LINE ( 'NONE', #132, #95 ) ;
#314 = ORIENTED_EDGE ( 'NONE', *, *, #316, .F. ) ;
#315 =( NAMED_UNIT ( * ) SI_UNIT ( $, .STERADIAN. ) SOLID_ANGLE_UNIT ( ) );
#316 = EDGE_CURVE ( 'NONE', #306, #47, #44, .T. ) ;
#317 = EDGE_LOOP ( 'NONE', ( #347, #81, #3, #133 ) ) ;
#318 = CIRCLE ( 'NONE', #372, 0.05470000000000000556 ) ;
#319 = AXIS2_PLACEMENT_3D ( 'NONE', #320, #353, #22 ) ;
#320 = CARTESIAN_POINT ( 'NONE',  ( 1.695571878688459941E-17, 0.0000000000000000000, 0.1418670758608073235 ) ) ;
#321 = ORIENTED_EDGE ( 'NONE', *, *, #173, .F. ) ;
#322 = DIRECTION ( 'NONE',  ( 0.8571673007021137769, 0.0000000000000000000, 0.5150380749100517130 ) ) ;
#323 = CARTESIAN_POINT ( 'NONE',  ( 0.0000000000000000000, 0.0000000000000000000, 0.0000000000000000000 ) ) ;
#324 = ADVANCED_FACE ( 'NONE', ( #6 ), #341, .T. ) ;
#325 =( NAMED_UNIT ( * ) PLANE_ANGLE_UNIT ( ) SI_UNIT ( $, .RADIAN. ) );
#326 = VERTEX_POINT ( 'NONE', #162 ) ;
#327 = VECTOR ( 'NONE', #1, 39.37007874015748143 ) ;
#328 = CARTESIAN_POINT ( 'NONE',  ( 0.05469999999999985985, 0.0000000000000000000, 1.967132924139192607 ) ) ;
#329 = ORIENTED_EDGE ( 'NONE', *, *, #159, .T. ) ;
#330 = CONICAL_SURFACE ( 'NONE', #117, 0.05470000000000000556, 0.5235987755983002589 ) ;
#331 = DIRECTION ( 'NONE',  ( -1.000000000000000000, 0.0000000000000000000, 1.195183497228115035E-16 ) ) ;
#332 = LENGTH_MEASURE_WITH_UNIT ( LENGTH_MEASURE( 0.02539999999999999897 ), #295 );
#333 = DIRECTION ( 'NONE',  ( 1.195183497228115035E-16, 0.0000000000000000000, -1.000000000000000000 ) ) ;
#334 = AXIS2_PLACEMENT_3D ( 'NONE', #160, #11, #275 ) ;
#335 = AXIS2_PLACEMENT_3D ( 'NONE', #120, #118, #210 ) ;
#336 = DIRECTION ( 'NONE',  ( -1.000000000000000000, 0.0000000000000000000, 0.0000000000000000000 ) ) ;
#337 = CARTESIAN_POINT ( 'NONE',  ( 3.928218667098147670E-18, 0.0000000000000000000, 1.967132924139192607 ) ) ;
#338 = DIRECTION ( 'NONE',  ( -1.000000000000000000, 0.0000000000000000000, 0.0000000000000000000 ) ) ;
#339 = AXIS2_PLACEMENT_3D ( 'NONE', #134, #375, #376 ) ;
#340 = AXIS2_PLACEMENT_3D ( 'NONE', #114, #264, #381 ) ;
#341 = CYLINDRICAL_SURFACE ( 'NONE', #215, 0.05469999999999999862 ) ;
#342 = ORIENTED_EDGE ( 'NONE', *, *, #123, .T. ) ;
#343 = DIRECTION ( 'NONE',  ( -0.5000000000000009992, -6.123233995736779594E-17, -0.8660254037844379305 ) ) ;
#344 = ORIENTED_EDGE ( 'NONE', *, *, #390, .F. ) ;
#345 = CARTESIAN_POINT ( 'NONE',  ( 0.05469999999999999862, 6.698817991336022155E-18, -6.537653729837789286E-18 ) ) ;
#346 = STYLED_ITEM ( 'NONE', ( #33 ), #144 ) ;
#347 = ORIENTED_EDGE ( 'NONE', *, *, #159, .F. ) ;
#348 = AXIS2_PLACEMENT_3D ( 'NONE', #17, #286, #257 ) ;
#349 = CARTESIAN_POINT ( 'NONE',  ( 0.0000000000000000000, 0.0000000000000000000, 2.000000000000000000 ) ) ;
#350 = ORIENTED_EDGE ( 'NONE', *, *, #29, .T. ) ;
#351 = ADVANCED_FACE ( 'NONE', ( #187 ), #270, .T. ) ;
#352 = ORIENTED_EDGE ( 'NONE', *, *, #316, .T. ) ;
#353 = DIRECTION ( 'NONE',  ( 1.195183497228115035E-16, 0.0000000000000000000, 1.000000000000000000 ) ) ;
#354 = CIRCLE ( 'NONE', #167, 0.1249999999999999584 ) ;
#355 = CARTESIAN_POINT ( 'NONE',  ( 0.05469999999999999168, 0.0000000000000000000, 0.03286707586080733073 ) ) ;
#356 = VECTOR ( 'NONE', #245, 39.37007874015748854 ) ;
#357 = ORIENTED_EDGE ( 'NONE', *, *, #250, .T. ) ;
#358 = PRESENTATION_STYLE_ASSIGNMENT (( #263 ) ) ;
#359 = FACE_OUTER_BOUND ( 'NONE', #131, .T. ) ;
#360 = DIMENSIONAL_EXPONENTS ( 1.000000000000000000, 0.0000000000000000000, 0.0000000000000000000, 0.0000000000000000000, 0.0000000000000000000, 0.0000000000000000000, 0.0000000000000000000 ) ;
#361 = DIRECTION ( 'NONE',  ( -1.195183497228115035E-16, -0.0000000000000000000, -1.000000000000000000 ) ) ;
#362 = CIRCLE ( 'NONE', #334, 0.05469999999999999862 ) ;
#363 = VERTEX_POINT ( 'NONE', #328 ) ;
#364 = CLOSED_SHELL ( 'NONE', ( #147, #108, #272, #90, #8, #38, #194, #58, #276, #324, #351, #150, #5, #12 ) ) ;
#365 = DIRECTION ( 'NONE',  ( 1.195183497228115035E-16, 0.0000000000000000000, -1.000000000000000000 ) ) ;
#366 = CARTESIAN_POINT ( 'NONE',  ( 0.0000000000000000000, 0.0000000000000000000, 2.000000000000000000 ) ) ;
#367 = PRODUCT_DEFINITION_CONTEXT ( 'detailed design', #256, 'design' ) ;
#368 = FILL_AREA_STYLE ('',( #294 ) ) ;
#369 = CONICAL_SURFACE ( 'NONE', #126, 65.52281426576882950, 1.029744258676657198 ) ;
#370 = DIRECTION ( 'NONE',  ( -0.0000000000000000000, -0.0000000000000000000, -1.000000000000000000 ) ) ;
#371 = ORIENTED_EDGE ( 'NONE', *, *, #136, .T. ) ;
#372 = AXIS2_PLACEMENT_3D ( 'NONE', #61, #333, #35 ) ;
#373 = FACE_OUTER_BOUND ( 'NONE', #176, .T. ) ;
#374 = VERTEX_POINT ( 'NONE', #57 ) ;
#375 = DIRECTION ( 'NONE',  ( 1.195183497228115035E-16, 0.0000000000000000000, -1.000000000000000000 ) ) ;
#376 = DIRECTION ( 'NONE',  ( -1.000000000000000000, 0.0000000000000000000, 0.0000000000000000000 ) ) ;
#377 = ORIENTED_EDGE ( 'NONE', *, *, #140, .T. ) ;
#378 = CIRCLE ( 'NONE', #339, 0.1249999999999999584 ) ;
#379 = CARTESIAN_POINT ( 'NONE',  ( 0.05470000000000001944, -6.698817991336023696E-18, 1.858132924139192621 ) ) ;
#380 = ORIENTED_EDGE ( 'NONE', *, *, #84, .T. ) ;
#381 = DIRECTION ( 'NONE',  ( -1.000000000000000000, 0.0000000000000000000, 0.0000000000000000000 ) ) ;
#382 =( LENGTH_UNIT ( ) NAMED_UNIT ( * ) SI_UNIT ( $, .METRE. ) );
#383 = ORIENTED_EDGE ( 'NONE', *, *, #208, .T. ) ;
#384 = AXIS2_PLACEMENT_3D ( 'NONE', #143, #202, #293 ) ;
#385 = ORIENTED_EDGE ( 'NONE', *, *, #29, .F. ) ;
#386 =( LENGTH_UNIT ( ) NAMED_UNIT ( * ) SI_UNIT ( $, .METRE. ) );
#387 = CYLINDRICAL_SURFACE ( 'NONE', #285, 0.05469999999999999862 ) ;
#388 = CARTESIAN_POINT ( 'NONE',  ( 0.05469999999999999862, -6.698817991336022155E-18, 2.000000000000000000 ) ) ;
#389 = CARTESIAN_POINT ( 'NONE',  ( 4.705446839480768347E-15, 0.0000000000000000000, 39.37007874015748143 ) ) ;
#390 = EDGE_CURVE ( 'NONE', #163, #363, #51, .T. ) ;
#391 = VECTOR ( 'NONE', #183, 39.37007874015748854 ) ;
#392 = CONICAL_SURFACE ( 'NONE', #296, 65.52281426576882950, 1.029744258676657198 ) ;
#393 = CARTESIAN_POINT ( 'NONE',  ( 0.0000000000000000000, 0.0000000000000000000, 0.0000000000000000000 ) ) ;
#394 = CONICAL_SURFACE ( 'NONE', #200, 65.52281426576882950, 1.029744258676657198 ) ;
#395 = CARTESIAN_POINT ( 'NONE',  ( 1.695571878688459941E-17, 0.0000000000000000000, 0.1418670758608073235 ) ) ;
#396 = EDGE_CURVE ( 'NONE', #251, #40, #292, .T. ) ;
#397 = FACE_OUTER_BOUND ( 'NONE', #255, .T. ) ;
ENDSEC;
END-ISO-10303-21;
