ISO-10303-21;
HEADER;
FILE_DESCRIPTION (( 'STEP AP214' ),
    '1' );
FILE_NAME ('Micro_SD-031.STEP',
    '2021-09-02T13:22:45',
    ( '' ),
    ( '' ),
    'SwSTEP 2.0',
    'SolidWorks 2020',
    '' );
FILE_SCHEMA (( 'AUTOMOTIVE_DESIGN' ));
ENDSEC;

DATA;
#1 = CARTESIAN_POINT ( 'NONE',  ( 0.01559999999999999928, 1.910449006669871164E-18, 0.2500499999999999945 ) ) ;
#2 = PRESENTATION_LAYER_ASSIGNMENT (  '', '', ( #295 ) ) ;
#3 = CARTESIAN_POINT ( 'NONE',  ( 0.01555000000000003949, 0.0000000000000000000, 0.2500000000000000000 ) ) ;
#4 = AXIS2_PLACEMENT_3D ( 'NONE', #250, #196, #50 ) ;
#5 = ORIENTED_EDGE ( 'NONE', *, *, #46, .T. ) ;
#6 = ADVANCED_BREP_SHAPE_REPRESENTATION ( 'Micro_SD-031', ( #69, #291 ), #287 ) ;
#7 = FACE_OUTER_BOUND ( 'NONE', #314, .T. ) ;
#8 = FACE_OUTER_BOUND ( 'NONE', #10, .T. ) ;
#9 = CYLINDRICAL_SURFACE ( 'NONE', #140, 0.01555000000000002214 ) ;
#10 = EDGE_LOOP ( 'NONE', ( #112, #200, #114, #136 ) ) ;
#11 = FACE_OUTER_BOUND ( 'NONE', #249, .T. ) ;
#12 = VERTEX_POINT ( 'NONE', #310 ) ;
#13 =( NAMED_UNIT ( * ) PLANE_ANGLE_UNIT ( ) SI_UNIT ( $, .RADIAN. ) );
#14 = ORIENTED_EDGE ( 'NONE', *, *, #268, .T. ) ;
#15 = SURFACE_STYLE_USAGE ( .BOTH. , #36 ) ;
#16 = FILL_AREA_STYLE ('',( #228 ) ) ;
#17 = DIRECTION ( 'NONE',  ( 1.000000000000000000, 0.0000000000000000000, 0.0000000000000000000 ) ) ;
#18 = SURFACE_STYLE_FILL_AREA ( #16 ) ;
#19 = CARTESIAN_POINT ( 'NONE',  ( 0.0000000000000000000, 0.0000000000000000000, 0.0000000000000000000 ) ) ;
#20 = ORIENTED_EDGE ( 'NONE', *, *, #167, .T. ) ;
#21 = UNCERTAINTY_MEASURE_WITH_UNIT (LENGTH_MEASURE( 1.000000000000000082E-05 ), #225, 'distance_accuracy_value', 'NONE');
#22 = ORIENTED_EDGE ( 'NONE', *, *, #175, .F. ) ;
#23 = DIRECTION ( 'NONE',  ( 0.0000000000000000000, 0.0000000000000000000, 1.000000000000000000 ) ) ;
#24 = EDGE_CURVE ( 'NONE', #272, #12, #138, .T. ) ;
#25 = CONICAL_SURFACE ( 'NONE', #100, 0.0005999999999999902980, 0.7853981633974492782 ) ;
#26 = DIRECTION ( 'NONE',  ( 0.0000000000000000000, 0.0000000000000000000, -1.000000000000000000 ) ) ;
#27 = LINE ( 'NONE', #106, #247 ) ;
#28 = DIRECTION ( 'NONE',  ( -0.0000000000000000000, -0.0000000000000000000, -1.000000000000000000 ) ) ;
#29 = CARTESIAN_POINT ( 'NONE',  ( 0.0000000000000000000, 0.0000000000000000000, 0.0000000000000000000 ) ) ;
#30 = EDGE_LOOP ( 'NONE', ( #172, #104, #251 ) ) ;
#31 = DIRECTION ( 'NONE',  ( -1.000000000000000000, 0.0000000000000000000, 0.0000000000000000000 ) ) ;
#32 = ORIENTED_EDGE ( 'NONE', *, *, #24, .F. ) ;
#33 = DIMENSIONAL_EXPONENTS ( 1.000000000000000000, 0.0000000000000000000, 0.0000000000000000000, 0.0000000000000000000, 0.0000000000000000000, 0.0000000000000000000, 0.0000000000000000000 ) ;
#34 = FACE_OUTER_BOUND ( 'NONE', #148, .T. ) ;
#35 = ORIENTED_EDGE ( 'NONE', *, *, #124, .F. ) ;
#36 = SURFACE_SIDE_STYLE ('',( #190 ) ) ;
#37 = ORIENTED_EDGE ( 'NONE', *, *, #118, .T. ) ;
#38 = CONICAL_SURFACE ( 'NONE', #145, 0.01555000000000003949, 0.7853981633974482790 ) ;
#39 = PRODUCT_DEFINITION_SHAPE ( 'NONE', 'NONE',  #305 ) ;
#40 = DIRECTION ( 'NONE',  ( -0.0000000000000000000, -0.0000000000000000000, -1.000000000000000000 ) ) ;
#41 = CARTESIAN_POINT ( 'NONE',  ( -0.01559999999999999928, 0.0000000000000000000, 1.235000000000000098 ) ) ;
#42 = CIRCLE ( 'NONE', #134, 0.0005999999999999902980 ) ;
#43 = CIRCLE ( 'NONE', #170, 0.01555000000000003949 ) ;
#44 = DIRECTION ( 'NONE',  ( -0.0000000000000000000, -0.0000000000000000000, -1.000000000000000000 ) ) ;
#45 = ORIENTED_EDGE ( 'NONE', *, *, #213, .T. ) ;
#46 = EDGE_CURVE ( 'NONE', #272, #109, #191, .T. ) ;
#47 = LINE ( 'NONE', #236, #269 ) ;
#48 = DIRECTION ( 'NONE',  ( 1.000000000000000000, 0.0000000000000000000, 0.0000000000000000000 ) ) ;
#49 = EDGE_CURVE ( 'NONE', #315, #202, #53, .T. ) ;
#50 = DIRECTION ( 'NONE',  ( -1.000000000000000000, 0.0000000000000000000, 0.0000000000000000000 ) ) ;
#51 = LINE ( 'NONE', #240, #266 ) ;
#52 = ORIENTED_EDGE ( 'NONE', *, *, #183, .T. ) ;
#53 = CIRCLE ( 'NONE', #274, 0.01559999999999999928 ) ;
#54 = DIRECTION ( 'NONE',  ( 1.000000000000000000, 0.0000000000000000000, 0.0000000000000000000 ) ) ;
#55 = ORIENTED_EDGE ( 'NONE', *, *, #239, .T. ) ;
#56 = DIRECTION ( 'NONE',  ( 0.0000000000000000000, 0.0000000000000000000, 1.000000000000000000 ) ) ;
#57 = ADVANCED_FACE ( 'NONE', ( #110 ), #89, .T. ) ;
#58 = DIRECTION ( 'NONE',  ( -0.8571673007021139989, 1.049727191138620545E-16, 0.5150380749100514910 ) ) ;
#59 = ORIENTED_EDGE ( 'NONE', *, *, #237, .T. ) ;
#60 = AXIS2_PLACEMENT_3D ( 'NONE', #281, #157, #17 ) ;
#61 = EDGE_CURVE ( 'NONE', #12, #285, #243, .T. ) ;
#62 = DIRECTION ( 'NONE',  ( 1.000000000000000000, 0.0000000000000000000, 0.0000000000000000000 ) ) ;
#63 = SHAPE_DEFINITION_REPRESENTATION ( #39, #6 ) ;
#64 = PRESENTATION_STYLE_ASSIGNMENT (( #15 ) ) ;
#65 = DIRECTION ( 'NONE',  ( -0.0000000000000000000, -0.0000000000000000000, -1.000000000000000000 ) ) ;
#66 = CIRCLE ( 'NONE', #306, 0.01555000000000003949 ) ;
#67 = ORIENTED_EDGE ( 'NONE', *, *, #68, .T. ) ;
#68 = EDGE_CURVE ( 'NONE', #109, #300, #111, .T. ) ;
#69 = MANIFOLD_SOLID_BREP ( 'Cut-Revolve2', #82 ) ;
#70 = LENGTH_MEASURE_WITH_UNIT ( LENGTH_MEASURE( 0.02539999999999999897 ), #73 );
#71 = ADVANCED_FACE ( 'NONE', ( #166 ), #246, .T. ) ;
#72 =( NAMED_UNIT ( * ) SI_UNIT ( $, .STERADIAN. ) SOLID_ANGLE_UNIT ( ) );
#73 =( LENGTH_UNIT ( ) NAMED_UNIT ( * ) SI_UNIT ( $, .METRE. ) );
#74 = AXIS2_PLACEMENT_3D ( 'NONE', #221, #304, #197 ) ;
#75 = DIRECTION ( 'NONE',  ( -0.0000000000000000000, -0.0000000000000000000, -1.000000000000000000 ) ) ;
#76 = ORIENTED_EDGE ( 'NONE', *, *, #131, .F. ) ;
#77 = DIRECTION ( 'NONE',  ( -0.0000000000000000000, -0.0000000000000000000, -1.000000000000000000 ) ) ;
#78 = ORIENTED_EDGE ( 'NONE', *, *, #24, .T. ) ;
#79 = DIMENSIONAL_EXPONENTS ( 1.000000000000000000, 0.0000000000000000000, 0.0000000000000000000, 0.0000000000000000000, 0.0000000000000000000, 0.0000000000000000000, 0.0000000000000000000 ) ;
#80 = CARTESIAN_POINT ( 'NONE',  ( 0.0000000000000000000, 0.0000000000000000000, 1.250000000000000000 ) ) ;
#81 = ORIENTED_EDGE ( 'NONE', *, *, #213, .F. ) ;
#82 = CLOSED_SHELL ( 'NONE', ( #186, #209, #71, #115, #265, #220, #234, #278, #322, #57, #168 ) ) ;
#83 = LINE ( 'NONE', #199, #238 ) ;
#84 = STYLED_ITEM ( 'NONE', ( #64 ), #6 ) ;
#85 = EDGE_LOOP ( 'NONE', ( #52, #20 ) ) ;
#86 = DIRECTION ( 'NONE',  ( 0.7071067811865483499, 8.659560562354943952E-17, -0.7071067811865467956 ) ) ;
#87 = LENGTH_MEASURE_WITH_UNIT ( LENGTH_MEASURE( 0.02539999999999999897 ), #261 );
#88 = CARTESIAN_POINT ( 'NONE',  ( 0.0000000000000000000, 0.0000000000000000000, 0.009343382625878502573 ) ) ;
#89 = CYLINDRICAL_SURFACE ( 'NONE', #206, 0.01555000000000002214 ) ;
#90 = PRODUCT_CONTEXT ( 'NONE', #161, 'mechanical' ) ;
#91 = SURFACE_STYLE_USAGE ( .BOTH. , #312 ) ;
#92 = ORIENTED_EDGE ( 'NONE', *, *, #294, .T. ) ;
#93 = FILL_AREA_STYLE_COLOUR ( '', #320 ) ;
#94 = CARTESIAN_POINT ( 'NONE',  ( -0.01555000000000003949, 1.904325772674139342E-18, 0.2500000000000000000 ) ) ;
#95 =( NAMED_UNIT ( * ) PLANE_ANGLE_UNIT ( ) SI_UNIT ( $, .RADIAN. ) );
#96 = VECTOR ( 'NONE', #289, 39.37007874015748143 ) ;
#97 = DIRECTION ( 'NONE',  ( 1.000000000000000000, 0.0000000000000000000, 0.0000000000000000000 ) ) ;
#98 = DIRECTION ( 'NONE',  ( 0.0000000000000000000, 0.0000000000000000000, 1.000000000000000000 ) ) ;
#99 = VECTOR ( 'NONE', #44, 39.37007874015748143 ) ;
#100 = AXIS2_PLACEMENT_3D ( 'NONE', #195, #26, #210 ) ;
#101 = AXIS2_PLACEMENT_3D ( 'NONE', #296, #77, #271 ) ;
#102 = CARTESIAN_POINT ( 'NONE',  ( -0.01559999999999999928, 0.0000000000000000000, 1.250000000000000000 ) ) ;
#103 = DIRECTION ( 'NONE',  ( 0.0000000000000000000, 0.0000000000000000000, -1.000000000000000000 ) ) ;
#104 = ORIENTED_EDGE ( 'NONE', *, *, #286, .T. ) ;
#105 = CARTESIAN_POINT ( 'NONE',  ( 0.0000000000000000000, 0.0000000000000000000, 1.250000000000000000 ) ) ;
#106 = CARTESIAN_POINT ( 'NONE',  ( 0.0005999999999999902980, 7.347880794884000417E-20, 1.250000000000000000 ) ) ;
#107 = PRESENTATION_LAYER_ASSIGNMENT (  '', '', ( #84 ) ) ;
#108 =( NAMED_UNIT ( * ) PLANE_ANGLE_UNIT ( ) SI_UNIT ( $, .RADIAN. ) );
#109 = VERTEX_POINT ( 'NONE', #317 ) ;
#110 = FACE_OUTER_BOUND ( 'NONE', #298, .T. ) ;
#111 = CIRCLE ( 'NONE', #229, 0.01559999999999999928 ) ;
#112 = ORIENTED_EDGE ( 'NONE', *, *, #49, .T. ) ;
#113 = DIRECTION ( 'NONE',  ( 1.000000000000000000, 0.0000000000000000000, 0.0000000000000000000 ) ) ;
#114 = ORIENTED_EDGE ( 'NONE', *, *, #68, .F. ) ;
#115 = ADVANCED_FACE ( 'NONE', ( #119 ), #25, .T. ) ;
#116 = CONICAL_SURFACE ( 'NONE', #153, 65.52281426576888634, 1.029744258676657642 ) ;
#117 = PRODUCT ( 'Micro_SD-031', 'Micro_SD-031', '', ( #90 ) ) ;
#118 = EDGE_CURVE ( 'NONE', #133, #315, #323, .T. ) ;
#119 = FACE_OUTER_BOUND ( 'NONE', #241, .T. ) ;
#120 = CARTESIAN_POINT ( 'NONE',  ( 0.0000000000000000000, 0.0000000000000000000, 1.250000000000000000 ) ) ;
#121 = COLOUR_RGB ( '',0.7921568627450980005, 0.8196078431372548767, 0.9333333333333333481 ) ;
#122 =( GEOMETRIC_REPRESENTATION_CONTEXT ( 3 ) GLOBAL_UNCERTAINTY_ASSIGNED_CONTEXT ( ( #21 ) ) GLOBAL_UNIT_ASSIGNED_CONTEXT ( ( #225, #13, #207 ) ) REPRESENTATION_CONTEXT ( 'NONE', 'WORKASPACE' ) );
#123 = CARTESIAN_POINT ( 'NONE',  ( -0.01555000000000003949, 1.907387389672004868E-18, 0.2500000000000000000 ) ) ;
#124 = EDGE_CURVE ( 'NONE', #226, #285, #293, .T. ) ;
#125 = CARTESIAN_POINT ( 'NONE',  ( 0.01555000000000000479, 1.904325772674136260E-18, 0.009343382625878502573 ) ) ;
#126 = VERTEX_POINT ( 'NONE', #169 ) ;
#127 = CIRCLE ( 'NONE', #203, 0.0005999999999999902980 ) ;
#128 = CARTESIAN_POINT ( 'NONE',  ( 0.0000000000000000000, 0.0000000000000000000, 0.2500000000000000000 ) ) ;
#129 = ORIENTED_EDGE ( 'NONE', *, *, #175, .T. ) ;
#130 = CARTESIAN_POINT ( 'NONE',  ( 0.0000000000000000000, 0.0000000000000000000, 39.37007874015748143 ) ) ;
#131 = EDGE_CURVE ( 'NONE', #300, #109, #297, .T. ) ;
#132 = CARTESIAN_POINT ( 'NONE',  ( 0.0000000000000000000, 0.0000000000000000000, 0.0000000000000000000 ) ) ;
#133 = VERTEX_POINT ( 'NONE', #163 ) ;
#134 = AXIS2_PLACEMENT_3D ( 'NONE', #120, #321, #97 ) ;
#135 =( NAMED_UNIT ( * ) SI_UNIT ( $, .STERADIAN. ) SOLID_ANGLE_UNIT ( ) );
#136 = ORIENTED_EDGE ( 'NONE', *, *, #239, .F. ) ;
#137 = CARTESIAN_POINT ( 'NONE',  ( 0.0000000000000000000, 0.0000000000000000000, 0.2500000000000000000 ) ) ;
#138 = LINE ( 'NONE', #262, #99 ) ;
#139 = DIRECTION ( 'NONE',  ( -0.0000000000000000000, -0.0000000000000000000, -1.000000000000000000 ) ) ;
#140 = AXIS2_PLACEMENT_3D ( 'NONE', #132, #75, #151 ) ;
#141 = CARTESIAN_POINT ( 'NONE',  ( 0.01555000000000002214, 1.904325772674137031E-18, 0.0000000000000000000 ) ) ;
#142 = CARTESIAN_POINT ( 'NONE',  ( 0.0000000000000000000, 0.0000000000000000000, 1.250000000000000000 ) ) ;
#143 = DIRECTION ( 'NONE',  ( -0.0000000000000000000, -0.0000000000000000000, -1.000000000000000000 ) ) ;
#144 = ORIENTED_EDGE ( 'NONE', *, *, #268, .F. ) ;
#145 = AXIS2_PLACEMENT_3D ( 'NONE', #232, #188, #252 ) ;
#146 = VECTOR ( 'NONE', #273, 39.37007874015748854 ) ;
#147 = CARTESIAN_POINT ( 'NONE',  ( 0.0000000000000000000, 0.0000000000000000000, 0.2500000000000000000 ) ) ;
#148 = EDGE_LOOP ( 'NONE', ( #129, #307, #208, #32 ) ) ;
#149 = PRODUCT_RELATED_PRODUCT_CATEGORY ( 'part', '', ( #117 ) ) ;
#150 = CYLINDRICAL_SURFACE ( 'NONE', #74, 0.01559999999999999928 ) ;
#151 = DIRECTION ( 'NONE',  ( -1.000000000000000000, 0.0000000000000000000, 0.0000000000000000000 ) ) ;
#152 = ORIENTED_EDGE ( 'NONE', *, *, #183, .F. ) ;
#153 = AXIS2_PLACEMENT_3D ( 'NONE', #130, #98, #54 ) ;
#154 =( CONVERSION_BASED_UNIT ( 'INCH', #254 ) LENGTH_UNIT ( ) NAMED_UNIT ( #33 ) );
#155 = ORIENTED_EDGE ( 'NONE', *, *, #313, .T. ) ;
#156 = DIRECTION ( 'NONE',  ( -1.000000000000000000, 0.0000000000000000000, 0.0000000000000000000 ) ) ;
#157 = DIRECTION ( 'NONE',  ( 0.0000000000000000000, 0.0000000000000000000, -1.000000000000000000 ) ) ;
#158 = ORIENTED_EDGE ( 'NONE', *, *, #309, .F. ) ;
#159 = CARTESIAN_POINT ( 'NONE',  ( 0.0000000000000000000, 0.0000000000000000000, 1.235000000000000098 ) ) ;
#160 = DIRECTION ( 'NONE',  ( -0.0000000000000000000, -0.0000000000000000000, -1.000000000000000000 ) ) ;
#161 = APPLICATION_CONTEXT ( 'automotive_design' ) ;
#162 = EDGE_CURVE ( 'NONE', #202, #300, #47, .T. ) ;
#163 = CARTESIAN_POINT ( 'NONE',  ( -0.0005999999999999902980, 0.0000000000000000000, 1.250000000000000000 ) ) ;
#164 = AXIS2_PLACEMENT_3D ( 'NONE', #142, #171, #308 ) ;
#165 = AXIS2_PLACEMENT_3D ( 'NONE', #80, #103, #181 ) ;
#166 = FACE_OUTER_BOUND ( 'NONE', #198, .T. ) ;
#167 = EDGE_CURVE ( 'NONE', #126, #133, #42, .T. ) ;
#168 = ADVANCED_FACE ( 'NONE', ( #194 ), #177, .T. ) ;
#169 = CARTESIAN_POINT ( 'NONE',  ( 0.0005999999999999902980, 9.919639073093555961E-19, 1.250000000000000000 ) ) ;
#170 = AXIS2_PLACEMENT_3D ( 'NONE', #147, #248, #31 ) ;
#171 = DIRECTION ( 'NONE',  ( 0.0000000000000000000, 0.0000000000000000000, 1.000000000000000000 ) ) ;
#172 = ORIENTED_EDGE ( 'NONE', *, *, #237, .F. ) ;
#173 = FACE_OUTER_BOUND ( 'NONE', #176, .T. ) ;
#174 = LINE ( 'NONE', #214, #146 ) ;
#175 = EDGE_CURVE ( 'NONE', #272, #226, #66, .T. ) ;
#176 = EDGE_LOOP ( 'NONE', ( #218, #155, #55, #76 ) ) ;
#177 = CONICAL_SURFACE ( 'NONE', #212, 65.52281426576888634, 1.029744258676657642 ) ;
#178 = CONICAL_SURFACE ( 'NONE', #165, 0.0005999999999999902980, 0.7853981633974492782 ) ;
#179 = CARTESIAN_POINT ( 'NONE',  ( 0.01559999999999999928, 1.910449006669871164E-18, 1.235000000000000098 ) ) ;
#180 = VERTEX_POINT ( 'NONE', #29 ) ;
#181 = DIRECTION ( 'NONE',  ( -1.000000000000000000, 0.0000000000000000000, 0.0000000000000000000 ) ) ;
#182 = ORIENTED_EDGE ( 'NONE', *, *, #309, .T. ) ;
#183 = EDGE_CURVE ( 'NONE', #133, #126, #127, .T. ) ;
#184 = DIRECTION ( 'NONE',  ( -1.000000000000000000, 0.0000000000000000000, 0.0000000000000000000 ) ) ;
#185 = ORIENTED_EDGE ( 'NONE', *, *, #118, .F. ) ;
#186 = ADVANCED_FACE ( 'NONE', ( #201 ), #116, .T. ) ;
#187 = APPLICATION_PROTOCOL_DEFINITION ( 'draft international standard', 'automotive_design', 1998, #227 ) ;
#188 = DIRECTION ( 'NONE',  ( 0.0000000000000000000, 0.0000000000000000000, 1.000000000000000000 ) ) ;
#189 = CARTESIAN_POINT ( 'NONE',  ( 0.0000000000000000000, 0.0000000000000000000, 0.2500499999999999945 ) ) ;
#190 = SURFACE_STYLE_FILL_AREA ( #223 ) ;
#191 = LINE ( 'NONE', #94, #216 ) ;
#192 =( CONVERSION_BASED_UNIT ( 'INCH', #70 ) LENGTH_UNIT ( ) NAMED_UNIT ( #303 ) );
#193 = UNCERTAINTY_MEASURE_WITH_UNIT (LENGTH_MEASURE( 1.000000000000000082E-05 ), #192, 'distance_accuracy_value', 'NONE');
#194 = FACE_OUTER_BOUND ( 'NONE', #205, .T. ) ;
#195 = CARTESIAN_POINT ( 'NONE',  ( 0.0000000000000000000, 0.0000000000000000000, 1.250000000000000000 ) ) ;
#196 = DIRECTION ( 'NONE',  ( -0.0000000000000000000, -0.0000000000000000000, -1.000000000000000000 ) ) ;
#197 = DIRECTION ( 'NONE',  ( -1.000000000000000000, 0.0000000000000000000, 0.0000000000000000000 ) ) ;
#198 = EDGE_LOOP ( 'NONE', ( #22, #5, #67, #302 ) ) ;
#199 = CARTESIAN_POINT ( 'NONE',  ( 0.0000000000000000000, 0.0000000000000000000, 0.0000000000000000000 ) ) ;
#200 = ORIENTED_EDGE ( 'NONE', *, *, #162, .T. ) ;
#201 = FACE_OUTER_BOUND ( 'NONE', #30, .T. ) ;
#202 = VERTEX_POINT ( 'NONE', #179 ) ;
#203 = AXIS2_PLACEMENT_3D ( 'NONE', #105, #277, #204 ) ;
#204 = DIRECTION ( 'NONE',  ( 1.000000000000000000, 0.0000000000000000000, 0.0000000000000000000 ) ) ;
#205 = EDGE_LOOP ( 'NONE', ( #224, #59, #45 ) ) ;
#206 = AXIS2_PLACEMENT_3D ( 'NONE', #263, #65, #156 ) ;
#207 =( NAMED_UNIT ( * ) SI_UNIT ( $, .STERADIAN. ) SOLID_ANGLE_UNIT ( ) );
#208 = ORIENTED_EDGE ( 'NONE', *, *, #61, .F. ) ;
#209 = ADVANCED_FACE ( 'NONE', ( #34 ), #9, .T. ) ;
#210 = DIRECTION ( 'NONE',  ( -1.000000000000000000, 0.0000000000000000000, 0.0000000000000000000 ) ) ;
#211 = CARTESIAN_POINT ( 'NONE',  ( -0.0005999999999999902980, 0.0000000000000000000, 1.250000000000000000 ) ) ;
#212 = AXIS2_PLACEMENT_3D ( 'NONE', #279, #56, #299 ) ;
#213 = EDGE_CURVE ( 'NONE', #285, #12, #283, .T. ) ;
#214 = CARTESIAN_POINT ( 'NONE',  ( 0.01555000000000003949, 0.0000000000000000000, 0.2500000000000000000 ) ) ;
#215 = PLANE ( 'NONE',  #164 ) ;
#216 = VECTOR ( 'NONE', #288, 39.37007874015748854 ) ;
#217 = FACE_OUTER_BOUND ( 'NONE', #85, .T. ) ;
#218 = ORIENTED_EDGE ( 'NONE', *, *, #162, .F. ) ;
#219 = LINE ( 'NONE', #102, #253 ) ;
#220 = ADVANCED_FACE ( 'NONE', ( #173 ), #301, .T. ) ;
#221 = CARTESIAN_POINT ( 'NONE',  ( 0.0000000000000000000, 0.0000000000000000000, 1.250000000000000000 ) ) ;
#222 =( GEOMETRIC_REPRESENTATION_CONTEXT ( 3 ) GLOBAL_UNCERTAINTY_ASSIGNED_CONTEXT ( ( #193 ) ) GLOBAL_UNIT_ASSIGNED_CONTEXT ( ( #192, #95, #72 ) ) REPRESENTATION_CONTEXT ( 'NONE', 'WORKASPACE' ) );
#223 = FILL_AREA_STYLE ('',( #93 ) ) ;
#224 = ORIENTED_EDGE ( 'NONE', *, *, #286, .F. ) ;
#225 =( CONVERSION_BASED_UNIT ( 'INCH', #87 ) LENGTH_UNIT ( ) NAMED_UNIT ( #79 ) );
#226 = VERTEX_POINT ( 'NONE', #3 ) ;
#227 = APPLICATION_CONTEXT ( 'automotive_design' ) ;
#228 = FILL_AREA_STYLE_COLOUR ( '', #121 ) ;
#229 = AXIS2_PLACEMENT_3D ( 'NONE', #189, #40, #282 ) ;
#230 = MECHANICAL_DESIGN_GEOMETRIC_PRESENTATION_REPRESENTATION (  '', ( #295 ), #222 ) ;
#231 = PRODUCT_DEFINITION_FORMATION_WITH_SPECIFIED_SOURCE ( 'ANY', '', #117, .NOT_KNOWN. ) ;
#232 = CARTESIAN_POINT ( 'NONE',  ( 0.0000000000000000000, 0.0000000000000000000, 0.2500000000000000000 ) ) ;
#233 = ORIENTED_EDGE ( 'NONE', *, *, #313, .F. ) ;
#234 = ADVANCED_FACE ( 'NONE', ( #217 ), #215, .T. ) ;
#235 = DIRECTION ( 'NONE',  ( 0.0000000000000000000, 0.0000000000000000000, -1.000000000000000000 ) ) ;
#236 = CARTESIAN_POINT ( 'NONE',  ( 0.01559999999999999928, 1.910449006669871164E-18, 1.250000000000000000 ) ) ;
#237 = EDGE_CURVE ( 'NONE', #180, #285, #51, .T. ) ;
#238 = VECTOR ( 'NONE', #58, 39.37007874015748143 ) ;
#239 = EDGE_CURVE ( 'NONE', #315, #109, #219, .T. ) ;
#240 = CARTESIAN_POINT ( 'NONE',  ( 0.0000000000000000000, 0.0000000000000000000, 0.0000000000000000000 ) ) ;
#241 = EDGE_LOOP ( 'NONE', ( #276, #14, #280, #185 ) ) ;
#242 = DIRECTION ( 'NONE',  ( -1.000000000000000000, 0.0000000000000000000, 0.0000000000000000000 ) ) ;
#243 = CIRCLE ( 'NONE', #259, 0.01555000000000000479 ) ;
#244 = AXIS2_PLACEMENT_3D ( 'NONE', #137, #23, #267 ) ;
#245 = ORIENTED_EDGE ( 'NONE', *, *, #46, .F. ) ;
#246 = CONICAL_SURFACE ( 'NONE', #244, 0.01555000000000003949, 0.7853981633974482790 ) ;
#247 = VECTOR ( 'NONE', #86, 39.37007874015748143 ) ;
#248 = DIRECTION ( 'NONE',  ( -0.0000000000000000000, -0.0000000000000000000, -1.000000000000000000 ) ) ;
#249 = EDGE_LOOP ( 'NONE', ( #245, #158, #92, #255 ) ) ;
#250 = CARTESIAN_POINT ( 'NONE',  ( 0.0000000000000000000, 0.0000000000000000000, 0.009343382625878502573 ) ) ;
#251 = ORIENTED_EDGE ( 'NONE', *, *, #61, .T. ) ;
#252 = DIRECTION ( 'NONE',  ( 1.000000000000000000, 0.0000000000000000000, 0.0000000000000000000 ) ) ;
#253 = VECTOR ( 'NONE', #28, 39.37007874015748143 ) ;
#254 = LENGTH_MEASURE_WITH_UNIT ( LENGTH_MEASURE( 0.02539999999999999897 ), #284 );
#255 = ORIENTED_EDGE ( 'NONE', *, *, #131, .T. ) ;
#256 = DIRECTION ( 'NONE',  ( 0.0000000000000000000, 0.0000000000000000000, 1.000000000000000000 ) ) ;
#257 = DIRECTION ( 'NONE',  ( -0.0000000000000000000, -0.0000000000000000000, -1.000000000000000000 ) ) ;
#258 = PRESENTATION_STYLE_ASSIGNMENT (( #91 ) ) ;
#259 = AXIS2_PLACEMENT_3D ( 'NONE', #88, #257, #184 ) ;
#260 = MECHANICAL_DESIGN_GEOMETRIC_PRESENTATION_REPRESENTATION (  '', ( #84 ), #122 ) ;
#261 =( LENGTH_UNIT ( ) NAMED_UNIT ( * ) SI_UNIT ( $, .METRE. ) );
#262 = CARTESIAN_POINT ( 'NONE',  ( -0.01555000000000002214, 0.0000000000000000000, 0.0000000000000000000 ) ) ;
#263 = CARTESIAN_POINT ( 'NONE',  ( 0.0000000000000000000, 0.0000000000000000000, 0.0000000000000000000 ) ) ;
#264 = CARTESIAN_POINT ( 'NONE',  ( 0.0000000000000000000, 0.0000000000000000000, 0.2500499999999999945 ) ) ;
#265 = ADVANCED_FACE ( 'NONE', ( #8 ), #150, .T. ) ;
#266 = VECTOR ( 'NONE', #270, 39.37007874015748143 ) ;
#267 = DIRECTION ( 'NONE',  ( 1.000000000000000000, 0.0000000000000000000, 0.0000000000000000000 ) ) ;
#268 = EDGE_CURVE ( 'NONE', #126, #202, #27, .T. ) ;
#269 = VECTOR ( 'NONE', #319, 39.37007874015748143 ) ;
#270 = DIRECTION ( 'NONE',  ( 0.8571673007021139989, 0.0000000000000000000, 0.5150380749100514910 ) ) ;
#271 = DIRECTION ( 'NONE',  ( -1.000000000000000000, 0.0000000000000000000, 0.0000000000000000000 ) ) ;
#272 = VERTEX_POINT ( 'NONE', #123 ) ;
#273 = DIRECTION ( 'NONE',  ( 0.7071067811865474617, 0.0000000000000000000, 0.7071067811865474617 ) ) ;
#274 = AXIS2_PLACEMENT_3D ( 'NONE', #159, #235, #62 ) ;
#275 = VECTOR ( 'NONE', #160, 39.37007874015748143 ) ;
#276 = ORIENTED_EDGE ( 'NONE', *, *, #167, .F. ) ;
#277 = DIRECTION ( 'NONE',  ( 0.0000000000000000000, 0.0000000000000000000, 1.000000000000000000 ) ) ;
#278 = ADVANCED_FACE ( 'NONE', ( #7 ), #178, .T. ) ;
#279 = CARTESIAN_POINT ( 'NONE',  ( 0.0000000000000000000, 0.0000000000000000000, 39.37007874015748143 ) ) ;
#280 = ORIENTED_EDGE ( 'NONE', *, *, #49, .F. ) ;
#281 = CARTESIAN_POINT ( 'NONE',  ( 0.0000000000000000000, 0.0000000000000000000, 1.235000000000000098 ) ) ;
#282 = DIRECTION ( 'NONE',  ( 1.000000000000000000, 0.0000000000000000000, 0.0000000000000000000 ) ) ;
#283 = CIRCLE ( 'NONE', #4, 0.01555000000000000479 ) ;
#284 =( LENGTH_UNIT ( ) NAMED_UNIT ( * ) SI_UNIT ( $, .METRE. ) );
#285 = VERTEX_POINT ( 'NONE', #125 ) ;
#286 = EDGE_CURVE ( 'NONE', #180, #12, #83, .T. ) ;
#287 =( GEOMETRIC_REPRESENTATION_CONTEXT ( 3 ) GLOBAL_UNCERTAINTY_ASSIGNED_CONTEXT ( ( #292 ) ) GLOBAL_UNIT_ASSIGNED_CONTEXT ( ( #154, #108, #135 ) ) REPRESENTATION_CONTEXT ( 'NONE', 'WORKASPACE' ) );
#288 = DIRECTION ( 'NONE',  ( -0.7071067811865474617, 8.659560562354932858E-17, 0.7071067811865474617 ) ) ;
#289 = DIRECTION ( 'NONE',  ( -0.7071067811865483499, 0.0000000000000000000, -0.7071067811865467956 ) ) ;
#290 = CIRCLE ( 'NONE', #60, 0.01559999999999999928 ) ;
#291 = AXIS2_PLACEMENT_3D ( 'NONE', #19, #256, #113 ) ;
#292 = UNCERTAINTY_MEASURE_WITH_UNIT (LENGTH_MEASURE( 1.000000000000000082E-05 ), #154, 'distance_accuracy_value', 'NONE');
#293 = LINE ( 'NONE', #141, #275 ) ;
#294 = EDGE_CURVE ( 'NONE', #226, #300, #174, .T. ) ;
#295 = STYLED_ITEM ( 'NONE', ( #258 ), #69 ) ;
#296 = CARTESIAN_POINT ( 'NONE',  ( 0.0000000000000000000, 0.0000000000000000000, 1.250000000000000000 ) ) ;
#297 = CIRCLE ( 'NONE', #316, 0.01559999999999999928 ) ;
#298 = EDGE_LOOP ( 'NONE', ( #35, #182, #78, #81 ) ) ;
#299 = DIRECTION ( 'NONE',  ( 1.000000000000000000, 0.0000000000000000000, 0.0000000000000000000 ) ) ;
#300 = VERTEX_POINT ( 'NONE', #1 ) ;
#301 = CYLINDRICAL_SURFACE ( 'NONE', #101, 0.01559999999999999928 ) ;
#302 = ORIENTED_EDGE ( 'NONE', *, *, #294, .F. ) ;
#303 = DIMENSIONAL_EXPONENTS ( 1.000000000000000000, 0.0000000000000000000, 0.0000000000000000000, 0.0000000000000000000, 0.0000000000000000000, 0.0000000000000000000, 0.0000000000000000000 ) ;
#304 = DIRECTION ( 'NONE',  ( -0.0000000000000000000, -0.0000000000000000000, -1.000000000000000000 ) ) ;
#305 = PRODUCT_DEFINITION ( 'UNKNOWN', '', #231, #318 ) ;
#306 = AXIS2_PLACEMENT_3D ( 'NONE', #128, #143, #242 ) ;
#307 = ORIENTED_EDGE ( 'NONE', *, *, #124, .T. ) ;
#308 = DIRECTION ( 'NONE',  ( 1.000000000000000000, 0.0000000000000000000, -0.0000000000000000000 ) ) ;
#309 = EDGE_CURVE ( 'NONE', #226, #272, #43, .T. ) ;
#310 = CARTESIAN_POINT ( 'NONE',  ( -0.01555000000000000479, 0.0000000000000000000, 0.009343382625878502573 ) ) ;
#311 = APPLICATION_PROTOCOL_DEFINITION ( 'draft international standard', 'automotive_design', 1998, #161 ) ;
#312 = SURFACE_SIDE_STYLE ('',( #18 ) ) ;
#313 = EDGE_CURVE ( 'NONE', #202, #315, #290, .T. ) ;
#314 = EDGE_LOOP ( 'NONE', ( #144, #152, #37, #233 ) ) ;
#315 = VERTEX_POINT ( 'NONE', #41 ) ;
#316 = AXIS2_PLACEMENT_3D ( 'NONE', #264, #139, #48 ) ;
#317 = CARTESIAN_POINT ( 'NONE',  ( -0.01559999999999999928, 0.0000000000000000000, 0.2500499999999999945 ) ) ;
#318 = PRODUCT_DEFINITION_CONTEXT ( 'detailed design', #227, 'design' ) ;
#319 = DIRECTION ( 'NONE',  ( -0.0000000000000000000, -0.0000000000000000000, -1.000000000000000000 ) ) ;
#320 = COLOUR_RGB ( '',0.7921568627450980005, 0.8196078431372548767, 0.9333333333333333481 ) ;
#321 = DIRECTION ( 'NONE',  ( 0.0000000000000000000, 0.0000000000000000000, 1.000000000000000000 ) ) ;
#322 = ADVANCED_FACE ( 'NONE', ( #11 ), #38, .T. ) ;
#323 = LINE ( 'NONE', #211, #96 ) ;
ENDSEC;
END-ISO-10303-21;
