ISO-10303-21;
HEADER;
FILE_DESCRIPTION (( 'STEP AP214' ),
    '1' );
FILE_NAME ('Micro_SBMM-120-236X.STEP',
    '2021-09-02T17:25:08',
    ( '' ),
    ( '' ),
    'SwSTEP 2.0',
    'SolidWorks 2020',
    '' );
FILE_SCHEMA (( 'AUTOMOTIVE_DESIGN' ));
ENDSEC;

DATA;
#1 = VERTEX_POINT ( 'NONE', #166 ) ;
#2 = FACE_OUTER_BOUND ( 'NONE', #9, .T. ) ;
#3 = PRODUCT_RELATED_PRODUCT_CATEGORY ( 'part', '', ( #289 ) ) ;
#4 = ORIENTED_EDGE ( 'NONE', *, *, #169, .F. ) ;
#5 = CARTESIAN_POINT ( 'NONE',  ( 0.0000000000000000000, 0.0000000000000000000, 2.543308150001266199 ) ) ;
#6 = LINE ( 'NONE', #313, #223 ) ;
#7 = AXIS2_PLACEMENT_3D ( 'NONE', #64, #293, #113 ) ;
#8 = CARTESIAN_POINT ( 'NONE',  ( 0.0000000000000000000, 0.0000000000000000000, 0.0000000000000000000 ) ) ;
#9 = EDGE_LOOP ( 'NONE', ( #160, #278, #84, #189 ) ) ;
#10 = CIRCLE ( 'NONE', #237, 0.1574804999999998012 ) ;
#11 = LINE ( 'NONE', #38, #254 ) ;
#12 = DIRECTION ( 'NONE',  ( -1.000000000000000000, 0.0000000000000000000, 0.0000000000000000000 ) ) ;
#13 = ADVANCED_BREP_SHAPE_REPRESENTATION ( 'Micro_SBMM-120-236X', ( #26, #71 ), #331 ) ;
#14 = ADVANCED_FACE ( 'NONE', ( #141 ), #196, .T. ) ;
#15 = FACE_OUTER_BOUND ( 'NONE', #300, .T. ) ;
#16 = PRODUCT_DEFINITION_SHAPE ( 'NONE', 'NONE',  #78 ) ;
#17 = DIRECTION ( 'NONE',  ( 1.000000000000000000, 0.0000000000000000000, 0.0000000000000000000 ) ) ;
#18 = CIRCLE ( 'NONE', #238, 0.1574804999999999122 ) ;
#19 = DIRECTION ( 'NONE',  ( 0.0000000000000000000, 0.0000000000000000000, -1.000000000000000000 ) ) ;
#20 = EDGE_CURVE ( 'NONE', #1, #219, #11, .T. ) ;
#21 = CARTESIAN_POINT ( 'NONE',  ( 0.0000000000000000000, 0.0000000000000000000, 1.417323000000000333 ) ) ;
#22 = CIRCLE ( 'NONE', #221, 0.2362199999999999855 ) ;
#23 = PRESENTATION_LAYER_ASSIGNMENT (  '', '', ( #306 ) ) ;
#24 = CARTESIAN_POINT ( 'NONE',  ( -0.2212204999999994870, 0.0000000000000000000, 3.937007999999999619 ) ) ;
#25 = ORIENTED_EDGE ( 'NONE', *, *, #33, .T. ) ;
#26 = MANIFOLD_SOLID_BREP ( 'Cut-Revolve3', #208 ) ;
#27 = DIRECTION ( 'NONE',  ( -1.000000000000000000, 0.0000000000000000000, 0.0000000000000000000 ) ) ;
#28 = DIRECTION ( 'NONE',  ( -0.0000000000000000000, -0.0000000000000000000, -1.000000000000000000 ) ) ;
#29 = ORIENTED_EDGE ( 'NONE', *, *, #271, .T. ) ;
#30 = AXIS2_PLACEMENT_3D ( 'NONE', #163, #103, #75 ) ;
#31 = DIRECTION ( 'NONE',  ( 1.000000000000000000, 0.0000000000000000000, 0.0000000000000000000 ) ) ;
#32 = CARTESIAN_POINT ( 'NONE',  ( 0.0000000000000000000, 0.0000000000000000000, 3.922007999999999495 ) ) ;
#33 = EDGE_CURVE ( 'NONE', #72, #185, #6, .T. ) ;
#34 = ORIENTED_EDGE ( 'NONE', *, *, #206, .F. ) ;
#35 = SURFACE_STYLE_USAGE ( .BOTH. , #227 ) ;
#36 = AXIS2_PLACEMENT_3D ( 'NONE', #311, #17, #239 ) ;
#37 = MECHANICAL_DESIGN_GEOMETRIC_PRESENTATION_REPRESENTATION (  '', ( #229 ), #201 ) ;
#38 = CARTESIAN_POINT ( 'NONE',  ( 0.1574804999999998845, 1.928579902531246179E-17, 0.0000000000000000000 ) ) ;
#39 = EDGE_CURVE ( 'NONE', #1, #277, #251, .T. ) ;
#40 = CARTESIAN_POINT ( 'NONE',  ( 0.0000000000000000000, 0.0000000000000000000, 3.937007999999999619 ) ) ;
#41 = DIRECTION ( 'NONE',  ( 0.0000000000000000000, 0.0000000000000000000, 1.000000000000000000 ) ) ;
#42 = DIRECTION ( 'NONE',  ( 0.7071067811865540120, 8.659560562355011744E-17, -0.7071067811865410224 ) ) ;
#43 = CIRCLE ( 'NONE', #179, 0.2362199999999999578 ) ;
#44 = ADVANCED_FACE ( 'NONE', ( #144 ), #204, .T. ) ;
#45 = DIRECTION ( 'NONE',  ( 0.0000000000000000000, 0.0000000000000000000, 1.000000000000000000 ) ) ;
#46 = EDGE_CURVE ( 'NONE', #309, #275, #231, .T. ) ;
#47 = DIRECTION ( 'NONE',  ( -1.000000000000000000, 0.0000000000000000000, 0.0000000000000000000 ) ) ;
#48 = ORIENTED_EDGE ( 'NONE', *, *, #206, .T. ) ;
#49 = AXIS2_PLACEMENT_3D ( 'NONE', #8, #248, #62 ) ;
#50 = CARTESIAN_POINT ( 'NONE',  ( 0.0000000000000000000, 0.0000000000000000000, 2.283465000000000966 ) ) ;
#51 = ORIENTED_EDGE ( 'NONE', *, *, #285, .T. ) ;
#52 = CARTESIAN_POINT ( 'NONE',  ( 0.0000000000000000000, 0.1574804999999999122, 0.4122875453334601259 ) ) ;
#53 = EDGE_LOOP ( 'NONE', ( #4, #302, #328, #225 ) ) ;
#54 = VERTEX_POINT ( 'NONE', #200 ) ;
#55 = EDGE_CURVE ( 'NONE', #275, #193, #18, .T. ) ;
#56 =( NAMED_UNIT ( * ) PLANE_ANGLE_UNIT ( ) SI_UNIT ( $, .RADIAN. ) );
#57 = EDGE_LOOP ( 'NONE', ( #48, #162, #104, #270 ) ) ;
#58 = EDGE_CURVE ( 'NONE', #219, #309, #342, .T. ) ;
#59 = ORIENTED_EDGE ( 'NONE', *, *, #283, .F. ) ;
#60 = PRESENTATION_LAYER_ASSIGNMENT (  '', '', ( #229 ) ) ;
#61 = ORIENTED_EDGE ( 'NONE', *, *, #260, .T. ) ;
#62 = DIRECTION ( 'NONE',  ( -1.000000000000000000, 0.0000000000000000000, 0.0000000000000000000 ) ) ;
#63 = DIRECTION ( 'NONE',  ( -0.0000000000000000000, -0.0000000000000000000, -1.000000000000000000 ) ) ;
#64 = CARTESIAN_POINT ( 'NONE',  ( 0.0000000000000000000, 0.0000000000000000000, 0.4122875453334601259 ) ) ;
#65 = CARTESIAN_POINT ( 'NONE',  ( 0.0000000000000000000, 0.0000000000000000000, 2.543308150001266199 ) ) ;
#66 = AXIS2_PLACEMENT_3D ( 'NONE', #32, #133, #122 ) ;
#67 = DIRECTION ( 'NONE',  ( -0.0000000000000000000, -0.0000000000000000000, -1.000000000000000000 ) ) ;
#68 = VECTOR ( 'NONE', #211, 39.37007874015748143 ) ;
#69 = UNCERTAINTY_MEASURE_WITH_UNIT (LENGTH_MEASURE( 1.000000000000000082E-05 ), #82, 'distance_accuracy_value', 'NONE');
#70 = LINE ( 'NONE', #297, #136 ) ;
#71 = AXIS2_PLACEMENT_3D ( 'NONE', #87, #287, #176 ) ;
#72 = VERTEX_POINT ( 'NONE', #264 ) ;
#73 =( CONVERSION_BASED_UNIT ( 'INCH', #171 ) LENGTH_UNIT ( ) NAMED_UNIT ( #94 ) );
#74 = EDGE_LOOP ( 'NONE', ( #138, #153 ) ) ;
#75 = DIRECTION ( 'NONE',  ( 0.0000000000000000000, 1.000000000000000000, 0.0000000000000000000 ) ) ;
#76 = CARTESIAN_POINT ( 'NONE',  ( -0.2362204999999999999, 0.0000000000000000000, 3.922007999999999495 ) ) ;
#77 = DIMENSIONAL_EXPONENTS ( 1.000000000000000000, 0.0000000000000000000, 0.0000000000000000000, 0.0000000000000000000, 0.0000000000000000000, 0.0000000000000000000, 0.0000000000000000000 ) ;
#78 = PRODUCT_DEFINITION ( 'UNKNOWN', '', #150, #181 ) ;
#79 = ORIENTED_EDGE ( 'NONE', *, *, #255, .F. ) ;
#80 = LENGTH_MEASURE_WITH_UNIT ( LENGTH_MEASURE( 0.02539999999999999897 ), #222 );
#81 = EDGE_CURVE ( 'NONE', #172, #185, #146, .T. ) ;
#82 =( CONVERSION_BASED_UNIT ( 'INCH', #80 ) LENGTH_UNIT ( ) NAMED_UNIT ( #77 ) );
#83 = VECTOR ( 'NONE', #329, 39.37007874015748143 ) ;
#84 = ORIENTED_EDGE ( 'NONE', *, *, #168, .T. ) ;
#85 = ADVANCED_FACE ( 'NONE', ( #148 ), #262, .T. ) ;
#86 = FACE_OUTER_BOUND ( 'NONE', #332, .T. ) ;
#87 = CARTESIAN_POINT ( 'NONE',  ( 0.0000000000000000000, 0.0000000000000000000, 0.0000000000000000000 ) ) ;
#88 = DIRECTION ( 'NONE',  ( -0.09053553870087650834, 1.108740576791097430E-17, 0.9958932253169222593 ) ) ;
#89 = FACE_OUTER_BOUND ( 'NONE', #53, .T. ) ;
#90 = FACE_OUTER_BOUND ( 'NONE', #112, .T. ) ;
#91 = SURFACE_SIDE_STYLE ('',( #123 ) ) ;
#92 = CARTESIAN_POINT ( 'NONE',  ( 0.2362204999999999999, 2.892866792179873879E-17, 3.937007999999999619 ) ) ;
#93 = CONICAL_SURFACE ( 'NONE', #197, 0.2598425499999996169, 0.09065967900408435087 ) ;
#94 = DIMENSIONAL_EXPONENTS ( 1.000000000000000000, 0.0000000000000000000, 0.0000000000000000000, 0.0000000000000000000, 0.0000000000000000000, 0.0000000000000000000, 0.0000000000000000000 ) ;
#95 = ORIENTED_EDGE ( 'NONE', *, *, #33, .F. ) ;
#96 = UNCERTAINTY_MEASURE_WITH_UNIT (LENGTH_MEASURE( 1.000000000000000082E-05 ), #73, 'distance_accuracy_value', 'NONE');
#97 = AXIS2_PLACEMENT_3D ( 'NONE', #50, #159, #274 ) ;
#98 = DIRECTION ( 'NONE',  ( -1.000000000000000000, 0.0000000000000000000, 0.0000000000000000000 ) ) ;
#99 = ORIENTED_EDGE ( 'NONE', *, *, #226, .F. ) ;
#100 = AXIS2_PLACEMENT_3D ( 'NONE', #21, #180, #47 ) ;
#101 = EDGE_CURVE ( 'NONE', #277, #305, #178, .T. ) ;
#102 = ORIENTED_EDGE ( 'NONE', *, *, #81, .F. ) ;
#103 = DIRECTION ( 'NONE',  ( 1.000000000000000000, 0.0000000000000000000, 0.0000000000000000000 ) ) ;
#104 = ORIENTED_EDGE ( 'NONE', *, *, #169, .T. ) ;
#105 = LENGTH_MEASURE_WITH_UNIT ( LENGTH_MEASURE( 0.02539999999999999897 ), #218 );
#106 = PRESENTATION_STYLE_ASSIGNMENT (( #35 ) ) ;
#107 = DIRECTION ( 'NONE',  ( -0.0000000000000000000, -0.0000000000000000000, -1.000000000000000000 ) ) ;
#108 = FILL_AREA_STYLE_COLOUR ( '', #174 ) ;
#109 = FILL_AREA_STYLE ('',( #108 ) ) ;
#110 = AXIS2_PLACEMENT_3D ( 'NONE', #147, #19, #240 ) ;
#111 = ADVANCED_FACE ( 'NONE', ( #173 ), #93, .T. ) ;
#112 = EDGE_LOOP ( 'NONE', ( #191, #25, #102, #79 ) ) ;
#113 = DIRECTION ( 'NONE',  ( -1.000000000000000000, 0.0000000000000000000, 0.0000000000000000000 ) ) ;
#114 = ADVANCED_FACE ( 'NONE', ( #86 ), #143, .T. ) ;
#115 = CYLINDRICAL_SURFACE ( 'NONE', #321, 0.1574804999999998845 ) ;
#116 = EDGE_CURVE ( 'NONE', #72, #267, #246, .T. ) ;
#117 = AXIS2_PLACEMENT_3D ( 'NONE', #288, #63, #203 ) ;
#118 = DIRECTION ( 'NONE',  ( 1.000000000000000000, 0.0000000000000000000, 0.0000000000000000000 ) ) ;
#119 = CARTESIAN_POINT ( 'NONE',  ( -0.2598425499999996169, 3.182153471397855967E-17, 2.543308150001266199 ) ) ;
#120 = CARTESIAN_POINT ( 'NONE',  ( 0.0000000000000000000, 1.446430334472938776E-17, 3.414809992080329023E-17 ) ) ;
#121 = AXIS2_PLACEMENT_3D ( 'NONE', #299, #295, #344 ) ;
#122 = DIRECTION ( 'NONE',  ( 1.000000000000000000, 0.0000000000000000000, 0.0000000000000000000 ) ) ;
#123 = SURFACE_STYLE_FILL_AREA ( #310 ) ;
#124 = DIRECTION ( 'NONE',  ( 0.09053553870087650834, 0.0000000000000000000, 0.9958932253169222593 ) ) ;
#125 = ORIENTED_EDGE ( 'NONE', *, *, #101, .T. ) ;
#126 =( CONVERSION_BASED_UNIT ( 'INCH', #105 ) LENGTH_UNIT ( ) NAMED_UNIT ( #216 ) );
#127 = COLOUR_RGB ( '',0.7921568627450980005, 0.8196078431372548767, 0.9333333333333333481 ) ;
#128 = DIRECTION ( 'NONE',  ( -1.000000000000000000, 0.0000000000000000000, 0.0000000000000000000 ) ) ;
#129 = ORIENTED_EDGE ( 'NONE', *, *, #260, .F. ) ;
#130 = ADVANCED_FACE ( 'NONE', ( #15 ), #115, .T. ) ;
#131 = DIRECTION ( 'NONE',  ( 0.0000000000000000000, 0.0000000000000000000, 1.000000000000000000 ) ) ;
#132 = ORIENTED_EDGE ( 'NONE', *, *, #58, .F. ) ;
#133 = DIRECTION ( 'NONE',  ( 0.0000000000000000000, 0.0000000000000000000, -1.000000000000000000 ) ) ;
#134 = ORIENTED_EDGE ( 'NONE', *, *, #46, .F. ) ;
#135 = ORIENTED_EDGE ( 'NONE', *, *, #140, .T. ) ;
#136 = VECTOR ( 'NONE', #124, 39.37007874015748143 ) ;
#137 = ADVANCED_FACE ( 'NONE', ( #89 ), #290, .T. ) ;
#138 = ORIENTED_EDGE ( 'NONE', *, *, #283, .T. ) ;
#139 = ORIENTED_EDGE ( 'NONE', *, *, #20, .F. ) ;
#140 = EDGE_CURVE ( 'NONE', #305, #54, #161, .T. ) ;
#141 = FACE_OUTER_BOUND ( 'NONE', #164, .T. ) ;
#142 = CARTESIAN_POINT ( 'NONE',  ( 0.0000000000000000000, 0.0000000000000000000, 0.4122875453334601259 ) ) ;
#143 = CYLINDRICAL_SURFACE ( 'NONE', #292, 0.2362204999999999999 ) ;
#144 = FACE_OUTER_BOUND ( 'NONE', #74, .T. ) ;
#145 = VECTOR ( 'NONE', #186, 39.37007874015748143 ) ;
#146 = CIRCLE ( 'NONE', #202, 0.2362204999999999999 ) ;
#147 = CARTESIAN_POINT ( 'NONE',  ( 0.0000000000000000000, 0.0000000000000000000, 3.937007999999999619 ) ) ;
#148 = FACE_OUTER_BOUND ( 'NONE', #187, .T. ) ;
#149 = ADVANCED_FACE ( 'NONE', ( #90 ), #273, .T. ) ;
#150 = PRODUCT_DEFINITION_FORMATION_WITH_SPECIFIED_SOURCE ( 'ANY', '', #289, .NOT_KNOWN. ) ;
#151 = LINE ( 'NONE', #24, #158 ) ;
#152 = AXIS2_PLACEMENT_3D ( 'NONE', #142, #256, #12 ) ;
#153 = ORIENTED_EDGE ( 'NONE', *, *, #116, .T. ) ;
#154 = DIRECTION ( 'NONE',  ( -0.7071067811865540120, 0.0000000000000000000, -0.7071067811865410224 ) ) ;
#155 = CARTESIAN_POINT ( 'NONE',  ( -0.2362204999999999999, 0.0000000000000000000, 3.937007999999999619 ) ) ;
#156 = ORIENTED_EDGE ( 'NONE', *, *, #330, .F. ) ;
#157 = CARTESIAN_POINT ( 'NONE',  ( -0.1574804999999998012, 2.410723347355559413E-17, 1.417323000000000333 ) ) ;
#158 = VECTOR ( 'NONE', #154, 39.37007874015748143 ) ;
#159 = DIRECTION ( 'NONE',  ( 0.0000000000000000000, 0.0000000000000000000, 1.000000000000000000 ) ) ;
#160 = ORIENTED_EDGE ( 'NONE', *, *, #101, .F. ) ;
#161 = CIRCLE ( 'NONE', #235, 0.2362204999999999999 ) ;
#162 = ORIENTED_EDGE ( 'NONE', *, *, #58, .T. ) ;
#163 = CARTESIAN_POINT ( 'NONE',  ( 0.0000000000000000000, 0.0000000000000000000, 0.2362200000000000133 ) ) ;
#164 = EDGE_LOOP ( 'NONE', ( #61, #252, #34, #280, #156 ) ) ;
#165 = EDGE_CURVE ( 'NONE', #185, #54, #340, .T. ) ;
#166 = CARTESIAN_POINT ( 'NONE',  ( 0.1574804999999998012, 0.0000000000000000000, 1.417323000000000333 ) ) ;
#167 = VECTOR ( 'NONE', #88, 39.37007874015748143 ) ;
#168 = EDGE_CURVE ( 'NONE', #1, #54, #70, .T. ) ;
#169 = EDGE_CURVE ( 'NONE', #309, #242, #22, .T. ) ;
#170 = PRODUCT_CONTEXT ( 'NONE', #228, 'mechanical' ) ;
#171 = LENGTH_MEASURE_WITH_UNIT ( LENGTH_MEASURE( 0.02539999999999999897 ), #335 );
#172 = VERTEX_POINT ( 'NONE', #76 ) ;
#173 = FACE_OUTER_BOUND ( 'NONE', #282, .T. ) ;
#174 = COLOUR_RGB ( '',0.7921568627450980005, 0.8196078431372548767, 0.9333333333333333481 ) ;
#175 = DIRECTION ( 'NONE',  ( 1.000000000000000000, 0.0000000000000000000, 0.0000000000000000000 ) ) ;
#176 = DIRECTION ( 'NONE',  ( 1.000000000000000000, 0.0000000000000000000, 0.0000000000000000000 ) ) ;
#177 = CARTESIAN_POINT ( 'NONE',  ( 0.0000000000000000000, 0.0000000000000000000, 2.283465000000000966 ) ) ;
#178 = LINE ( 'NONE', #119, #167 ) ;
#179 = AXIS2_PLACEMENT_3D ( 'NONE', #324, #27, #131 ) ;
#180 = DIRECTION ( 'NONE',  ( -0.0000000000000000000, -0.0000000000000000000, -1.000000000000000000 ) ) ;
#181 = PRODUCT_DEFINITION_CONTEXT ( 'detailed design', #263, 'design' ) ;
#182 = CARTESIAN_POINT ( 'NONE',  ( 0.0000000000000000000, 0.0000000000000000000, 0.2362200000000000133 ) ) ;
#183 = CARTESIAN_POINT ( 'NONE',  ( -0.1574804999999999122, 0.0000000000000000000, 0.4122875453334601259 ) ) ;
#184 = CIRCLE ( 'NONE', #97, 0.2362204999999999999 ) ;
#185 = VERTEX_POINT ( 'NONE', #188 ) ;
#186 = DIRECTION ( 'NONE',  ( -0.0000000000000000000, -0.0000000000000000000, -1.000000000000000000 ) ) ;
#187 = EDGE_LOOP ( 'NONE', ( #210, #51, #29, #135 ) ) ;
#188 = CARTESIAN_POINT ( 'NONE',  ( 0.2362204999999999999, 2.892866792179873879E-17, 3.922007999999999495 ) ) ;
#189 = ORIENTED_EDGE ( 'NONE', *, *, #140, .F. ) ;
#190 = AXIS2_PLACEMENT_3D ( 'NONE', #5, #345, #247 ) ;
#191 = ORIENTED_EDGE ( 'NONE', *, *, #116, .F. ) ;
#192 = MECHANICAL_DESIGN_GEOMETRIC_PRESENTATION_REPRESENTATION (  '', ( #306 ), #325 ) ;
#193 = VERTEX_POINT ( 'NONE', #52 ) ;
#194 = ORIENTED_EDGE ( 'NONE', *, *, #165, .T. ) ;
#195 = CONICAL_SURFACE ( 'NONE', #190, 0.2598425499999996169, 0.09065967900408435087 ) ;
#196 = CYLINDRICAL_SURFACE ( 'NONE', #49, 0.1574804999999998845 ) ;
#197 = AXIS2_PLACEMENT_3D ( 'NONE', #65, #286, #118 ) ;
#198 = SURFACE_STYLE_FILL_AREA ( #109 ) ;
#199 = DIRECTION ( 'NONE',  ( -0.0000000000000000000, -0.0000000000000000000, -1.000000000000000000 ) ) ;
#200 = CARTESIAN_POINT ( 'NONE',  ( 0.2362204999999999999, 2.892866792179873879E-17, 2.283465000000000966 ) ) ;
#201 =( GEOMETRIC_REPRESENTATION_CONTEXT ( 3 ) GLOBAL_UNCERTAINTY_ASSIGNED_CONTEXT ( ( #96 ) ) GLOBAL_UNIT_ASSIGNED_CONTEXT ( ( #73, #334, #257 ) ) REPRESENTATION_CONTEXT ( 'NONE', 'WORKASPACE' ) );
#202 = AXIS2_PLACEMENT_3D ( 'NONE', #233, #336, #175 ) ;
#203 = DIRECTION ( 'NONE',  ( -1.000000000000000000, 0.0000000000000000000, 0.0000000000000000000 ) ) ;
#204 = PLANE ( 'NONE',  #314 ) ;
#205 = SURFACE_STYLE_USAGE ( .BOTH. , #91 ) ;
#206 = EDGE_CURVE ( 'NONE', #193, #219, #291, .T. ) ;
#207 = CARTESIAN_POINT ( 'NONE',  ( 0.0000000000000000000, 0.0000000000000000000, 3.937007999999999619 ) ) ;
#208 = CLOSED_SHELL ( 'NONE', ( #14, #265, #111, #149, #114, #85, #44, #258, #308, #137, #130 ) ) ;
#209 = DIRECTION ( 'NONE',  ( 0.0000000000000000000, 0.0000000000000000000, -1.000000000000000000 ) ) ;
#210 = ORIENTED_EDGE ( 'NONE', *, *, #165, .F. ) ;
#211 = DIRECTION ( 'NONE',  ( -0.0000000000000000000, -0.0000000000000000000, -1.000000000000000000 ) ) ;
#212 = ORIENTED_EDGE ( 'NONE', *, *, #255, .T. ) ;
#213 = CARTESIAN_POINT ( 'NONE',  ( -0.1574804999999998845, 0.0000000000000000000, 0.0000000000000000000 ) ) ;
#214 = CIRCLE ( 'NONE', #279, 0.2212204999999994870 ) ;
#215 = CARTESIAN_POINT ( 'NONE',  ( 0.0000000000000000000, 0.0000000000000000000, 1.417323000000000333 ) ) ;
#216 = DIMENSIONAL_EXPONENTS ( 1.000000000000000000, 0.0000000000000000000, 0.0000000000000000000, 0.0000000000000000000, 0.0000000000000000000, 0.0000000000000000000, 0.0000000000000000000 ) ;
#217 = FILL_AREA_STYLE_COLOUR ( '', #127 ) ;
#218 =( LENGTH_UNIT ( ) NAMED_UNIT ( * ) SI_UNIT ( $, .METRE. ) );
#219 = VERTEX_POINT ( 'NONE', #268 ) ;
#220 = CARTESIAN_POINT ( 'NONE',  ( -0.2212204999999994870, 0.0000000000000000000, 3.937007999999999619 ) ) ;
#221 = AXIS2_PLACEMENT_3D ( 'NONE', #182, #343, #266 ) ;
#222 =( LENGTH_UNIT ( ) NAMED_UNIT ( * ) SI_UNIT ( $, .METRE. ) );
#223 = VECTOR ( 'NONE', #42, 39.37007874015748143 ) ;
#224 = SPHERICAL_SURFACE ( 'NONE', #30, 0.2362199999999999855 ) ;
#225 = ORIENTED_EDGE ( 'NONE', *, *, #341, .T. ) ;
#226 = EDGE_CURVE ( 'NONE', #54, #305, #184, .T. ) ;
#227 = SURFACE_SIDE_STYLE ('',( #198 ) ) ;
#228 = APPLICATION_CONTEXT ( 'automotive_design' ) ;
#229 = STYLED_ITEM ( 'NONE', ( #315 ), #13 ) ;
#230 = ORIENTED_EDGE ( 'NONE', *, *, #330, .T. ) ;
#231 = CIRCLE ( 'NONE', #152, 0.1574804999999999122 ) ;
#232 = CARTESIAN_POINT ( 'NONE',  ( 0.0000000000000000000, 0.0000000000000000000, 3.937007999999999619 ) ) ;
#233 = CARTESIAN_POINT ( 'NONE',  ( 0.0000000000000000000, 0.0000000000000000000, 3.922007999999999495 ) ) ;
#234 = CARTESIAN_POINT ( 'NONE',  ( 0.0000000000000000000, 0.0000000000000000000, 0.0000000000000000000 ) ) ;
#235 = AXIS2_PLACEMENT_3D ( 'NONE', #177, #45, #339 ) ;
#236 = APPLICATION_PROTOCOL_DEFINITION ( 'draft international standard', 'automotive_design', 1998, #228 ) ;
#237 = AXIS2_PLACEMENT_3D ( 'NONE', #215, #28, #128 ) ;
#238 = AXIS2_PLACEMENT_3D ( 'NONE', #261, #284, #318 ) ;
#239 = DIRECTION ( 'NONE',  ( 0.0000000000000000000, 1.000000000000000000, 0.0000000000000000000 ) ) ;
#240 = DIRECTION ( 'NONE',  ( -1.000000000000000000, 0.0000000000000000000, 0.0000000000000000000 ) ) ;
#241 = FACE_OUTER_BOUND ( 'NONE', #322, .T. ) ;
#242 = VERTEX_POINT ( 'NONE', #120 ) ;
#243 = CARTESIAN_POINT ( 'NONE',  ( 0.0000000000000000000, 0.0000000000000000000, 3.937007999999999619 ) ) ;
#244 = ORIENTED_EDGE ( 'NONE', *, *, #285, .F. ) ;
#245 = FACE_OUTER_BOUND ( 'NONE', #57, .T. ) ;
#246 = CIRCLE ( 'NONE', #301, 0.2212204999999994870 ) ;
#247 = DIRECTION ( 'NONE',  ( 1.000000000000000000, 0.0000000000000000000, 0.0000000000000000000 ) ) ;
#248 = DIRECTION ( 'NONE',  ( -0.0000000000000000000, -0.0000000000000000000, -1.000000000000000000 ) ) ;
#249 = CARTESIAN_POINT ( 'NONE',  ( 1.928579902531246179E-17, -0.1574804999999999122, 0.4122875453334601259 ) ) ;
#250 = ORIENTED_EDGE ( 'NONE', *, *, #226, .T. ) ;
#251 = CIRCLE ( 'NONE', #100, 0.1574804999999998012 ) ;
#252 = ORIENTED_EDGE ( 'NONE', *, *, #20, .T. ) ;
#253 =( NAMED_UNIT ( * ) SI_UNIT ( $, .STERADIAN. ) SOLID_ANGLE_UNIT ( ) );
#254 = VECTOR ( 'NONE', #107, 39.37007874015748143 ) ;
#255 = EDGE_CURVE ( 'NONE', #267, #172, #151, .T. ) ;
#256 = DIRECTION ( 'NONE',  ( -0.0000000000000000000, -0.0000000000000000000, -1.000000000000000000 ) ) ;
#257 =( NAMED_UNIT ( * ) SI_UNIT ( $, .STERADIAN. ) SOLID_ANGLE_UNIT ( ) );
#258 = ADVANCED_FACE ( 'NONE', ( #241 ), #312, .T. ) ;
#259 = DIRECTION ( 'NONE',  ( -1.000000000000000000, 0.0000000000000000000, 0.0000000000000000000 ) ) ;
#260 = EDGE_CURVE ( 'NONE', #277, #1, #10, .T. ) ;
#261 = CARTESIAN_POINT ( 'NONE',  ( 0.0000000000000000000, 0.0000000000000000000, 0.4122875453334601259 ) ) ;
#262 = CYLINDRICAL_SURFACE ( 'NONE', #117, 0.2362204999999999999 ) ;
#263 = APPLICATION_CONTEXT ( 'automotive_design' ) ;
#264 = CARTESIAN_POINT ( 'NONE',  ( 0.2212204999999994870, 2.801018282243818278E-17, 3.937007999999999619 ) ) ;
#265 = ADVANCED_FACE ( 'NONE', ( #245 ), #224, .T. ) ;
#266 = DIRECTION ( 'NONE',  ( -1.224646799147353207E-16, 1.000000000000000000, 0.0000000000000000000 ) ) ;
#267 = VERTEX_POINT ( 'NONE', #220 ) ;
#268 = CARTESIAN_POINT ( 'NONE',  ( 0.1574804999999999122, 1.928579902531246488E-17, 0.4122875453334601259 ) ) ;
#269 = DIRECTION ( 'NONE',  ( 0.0000000000000000000, 0.0000000000000000000, 1.000000000000000000 ) ) ;
#270 = ORIENTED_EDGE ( 'NONE', *, *, #341, .F. ) ;
#271 = EDGE_CURVE ( 'NONE', #172, #305, #276, .T. ) ;
#272 = CARTESIAN_POINT ( 'NONE',  ( 0.0000000000000000000, 0.0000000000000000000, 3.937007999999999619 ) ) ;
#273 = CONICAL_SURFACE ( 'NONE', #110, 0.2212204999999994870, 0.7853981633974573828 ) ;
#274 = DIRECTION ( 'NONE',  ( 1.000000000000000000, 0.0000000000000000000, 0.0000000000000000000 ) ) ;
#275 = VERTEX_POINT ( 'NONE', #183 ) ;
#276 = LINE ( 'NONE', #155, #83 ) ;
#277 = VERTEX_POINT ( 'NONE', #157 ) ;
#278 = ORIENTED_EDGE ( 'NONE', *, *, #39, .F. ) ;
#279 = AXIS2_PLACEMENT_3D ( 'NONE', #272, #269, #31 ) ;
#280 = ORIENTED_EDGE ( 'NONE', *, *, #55, .F. ) ;
#281 =( NAMED_UNIT ( * ) PLANE_ANGLE_UNIT ( ) SI_UNIT ( $, .RADIAN. ) );
#282 = EDGE_LOOP ( 'NONE', ( #129, #125, #99, #304 ) ) ;
#283 = EDGE_CURVE ( 'NONE', #267, #72, #214, .T. ) ;
#284 = DIRECTION ( 'NONE',  ( -0.0000000000000000000, -0.0000000000000000000, -1.000000000000000000 ) ) ;
#285 = EDGE_CURVE ( 'NONE', #185, #172, #320, .T. ) ;
#286 = DIRECTION ( 'NONE',  ( 0.0000000000000000000, 0.0000000000000000000, 1.000000000000000000 ) ) ;
#287 = DIRECTION ( 'NONE',  ( 0.0000000000000000000, 0.0000000000000000000, 1.000000000000000000 ) ) ;
#288 = CARTESIAN_POINT ( 'NONE',  ( 0.0000000000000000000, 0.0000000000000000000, 3.937007999999999619 ) ) ;
#289 = PRODUCT ( 'Micro_SBMM-120-236X', 'Micro_SBMM-120-236X', '', ( #170 ) ) ;
#290 = SPHERICAL_SURFACE ( 'NONE', #36, 0.2362199999999999855 ) ;
#291 = CIRCLE ( 'NONE', #121, 0.1574804999999999122 ) ;
#292 = AXIS2_PLACEMENT_3D ( 'NONE', #207, #67, #259 ) ;
#293 = DIRECTION ( 'NONE',  ( -0.0000000000000000000, -0.0000000000000000000, -1.000000000000000000 ) ) ;
#294 = UNCERTAINTY_MEASURE_WITH_UNIT (LENGTH_MEASURE( 1.000000000000000082E-05 ), #126, 'distance_accuracy_value', 'NONE');
#295 = DIRECTION ( 'NONE',  ( -0.0000000000000000000, -0.0000000000000000000, -1.000000000000000000 ) ) ;
#296 = ORIENTED_EDGE ( 'NONE', *, *, #271, .F. ) ;
#297 = CARTESIAN_POINT ( 'NONE',  ( 0.2598425499999996169, 0.0000000000000000000, 2.543308150001266199 ) ) ;
#298 = LINE ( 'NONE', #213, #145 ) ;
#299 = CARTESIAN_POINT ( 'NONE',  ( 0.0000000000000000000, 0.0000000000000000000, 0.4122875453334601259 ) ) ;
#300 = EDGE_LOOP ( 'NONE', ( #139, #323, #230, #134, #132 ) ) ;
#301 = AXIS2_PLACEMENT_3D ( 'NONE', #232, #338, #333 ) ;
#302 = ORIENTED_EDGE ( 'NONE', *, *, #46, .T. ) ;
#303 = CARTESIAN_POINT ( 'NONE',  ( -0.2362204999999999999, 0.0000000000000000000, 2.283465000000000966 ) ) ;
#304 = ORIENTED_EDGE ( 'NONE', *, *, #168, .F. ) ;
#305 = VERTEX_POINT ( 'NONE', #303 ) ;
#306 = STYLED_ITEM ( 'NONE', ( #106 ), #26 ) ;
#307 = SHAPE_DEFINITION_REPRESENTATION ( #16, #13 ) ;
#308 = ADVANCED_FACE ( 'NONE', ( #2 ), #195, .T. ) ;
#309 = VERTEX_POINT ( 'NONE', #249 ) ;
#310 = FILL_AREA_STYLE ('',( #217 ) ) ;
#311 = CARTESIAN_POINT ( 'NONE',  ( 0.0000000000000000000, 0.0000000000000000000, 0.2362200000000000133 ) ) ;
#312 = CONICAL_SURFACE ( 'NONE', #337, 0.2212204999999994870, 0.7853981633974573828 ) ;
#313 = CARTESIAN_POINT ( 'NONE',  ( 0.2212204999999994870, 2.709169772307763601E-17, 3.937007999999999619 ) ) ;
#314 = AXIS2_PLACEMENT_3D ( 'NONE', #40, #41, #316 ) ;
#315 = PRESENTATION_STYLE_ASSIGNMENT (( #205 ) ) ;
#316 = DIRECTION ( 'NONE',  ( 1.000000000000000000, 0.0000000000000000000, -0.0000000000000000000 ) ) ;
#317 = APPLICATION_PROTOCOL_DEFINITION ( 'draft international standard', 'automotive_design', 1998, #263 ) ;
#318 = DIRECTION ( 'NONE',  ( -1.000000000000000000, 0.0000000000000000000, 0.0000000000000000000 ) ) ;
#319 = DIRECTION ( 'NONE',  ( -1.000000000000000000, 0.0000000000000000000, 0.0000000000000000000 ) ) ;
#320 = CIRCLE ( 'NONE', #66, 0.2362204999999999999 ) ;
#321 = AXIS2_PLACEMENT_3D ( 'NONE', #234, #199, #319 ) ;
#322 = EDGE_LOOP ( 'NONE', ( #95, #59, #212, #244 ) ) ;
#323 = ORIENTED_EDGE ( 'NONE', *, *, #39, .T. ) ;
#324 = CARTESIAN_POINT ( 'NONE',  ( 0.0000000000000000000, 0.0000000000000000000, 0.2362200000000000133 ) ) ;
#325 =( GEOMETRIC_REPRESENTATION_CONTEXT ( 3 ) GLOBAL_UNCERTAINTY_ASSIGNED_CONTEXT ( ( #69 ) ) GLOBAL_UNIT_ASSIGNED_CONTEXT ( ( #82, #281, #253 ) ) REPRESENTATION_CONTEXT ( 'NONE', 'WORKASPACE' ) );
#326 = ORIENTED_EDGE ( 'NONE', *, *, #81, .T. ) ;
#327 =( NAMED_UNIT ( * ) SI_UNIT ( $, .STERADIAN. ) SOLID_ANGLE_UNIT ( ) );
#328 = ORIENTED_EDGE ( 'NONE', *, *, #55, .T. ) ;
#329 = DIRECTION ( 'NONE',  ( -0.0000000000000000000, -0.0000000000000000000, -1.000000000000000000 ) ) ;
#330 = EDGE_CURVE ( 'NONE', #277, #275, #298, .T. ) ;
#331 =( GEOMETRIC_REPRESENTATION_CONTEXT ( 3 ) GLOBAL_UNCERTAINTY_ASSIGNED_CONTEXT ( ( #294 ) ) GLOBAL_UNIT_ASSIGNED_CONTEXT ( ( #126, #56, #327 ) ) REPRESENTATION_CONTEXT ( 'NONE', 'WORKASPACE' ) );
#332 = EDGE_LOOP ( 'NONE', ( #326, #194, #250, #296 ) ) ;
#333 = DIRECTION ( 'NONE',  ( 1.000000000000000000, 0.0000000000000000000, 0.0000000000000000000 ) ) ;
#334 =( NAMED_UNIT ( * ) PLANE_ANGLE_UNIT ( ) SI_UNIT ( $, .RADIAN. ) );
#335 =( LENGTH_UNIT ( ) NAMED_UNIT ( * ) SI_UNIT ( $, .METRE. ) );
#336 = DIRECTION ( 'NONE',  ( 0.0000000000000000000, 0.0000000000000000000, -1.000000000000000000 ) ) ;
#337 = AXIS2_PLACEMENT_3D ( 'NONE', #243, #209, #98 ) ;
#338 = DIRECTION ( 'NONE',  ( 0.0000000000000000000, 0.0000000000000000000, 1.000000000000000000 ) ) ;
#339 = DIRECTION ( 'NONE',  ( 1.000000000000000000, 0.0000000000000000000, 0.0000000000000000000 ) ) ;
#340 = LINE ( 'NONE', #92, #68 ) ;
#341 = EDGE_CURVE ( 'NONE', #193, #242, #43, .T. ) ;
#342 = CIRCLE ( 'NONE', #7, 0.1574804999999999122 ) ;
#343 = DIRECTION ( 'NONE',  ( 1.000000000000000000, 1.224646799147353207E-16, -0.0000000000000000000 ) ) ;
#344 = DIRECTION ( 'NONE',  ( -1.000000000000000000, 0.0000000000000000000, 0.0000000000000000000 ) ) ;
#345 = DIRECTION ( 'NONE',  ( 0.0000000000000000000, 0.0000000000000000000, 1.000000000000000000 ) ) ;
ENDSEC;
END-ISO-10303-21;
