ISO-10303-21;
HEADER;
FILE_DESCRIPTION (( 'STEP AP214' ),
    '1' );
FILE_NAME ('Micro_RMEM-005-2X.STEP',
    '2021-09-01T23:37:42',
    ( '' ),
    ( '' ),
    'SwSTEP 2.0',
    'SolidWorks 2020',
    '' );
FILE_SCHEMA (( 'AUTOMOTIVE_DESIGN' ));
ENDSEC;

DATA;
#1 = DIRECTION ( 'NONE',  ( -0.0000000000000000000, -0.0000000000000000000, -1.000000000000000000 ) ) ;
#2 = ADVANCED_FACE ( 'NONE', ( #69 ), #254, .T. ) ;
#3 = DIRECTION ( 'NONE',  ( -0.0000000000000000000, -0.0000000000000000000, -1.000000000000000000 ) ) ;
#4 = AXIS2_PLACEMENT_3D ( 'NONE', #29, #25, #191 ) ;
#5 = PRODUCT_DEFINITION_FORMATION_WITH_SPECIFIED_SOURCE ( 'ANY', '', #166, .NOT_KNOWN. ) ;
#6 = CARTESIAN_POINT ( 'NONE',  ( 1.474662427518848649E-34, 0.0000000000000000000, 1.204153253448721743E-18 ) ) ;
#7 = DIRECTION ( 'NONE',  ( 1.000000000000000000, 0.0000000000000000000, -0.0000000000000000000 ) ) ;
#8 = DIRECTION ( 'NONE',  ( 0.0000000000000000000, 0.0000000000000000000, -1.000000000000000000 ) ) ;
#9 = VERTEX_POINT ( 'NONE', #39 ) ;
#10 = DIRECTION ( 'NONE',  ( 1.000000000000000000, 0.0000000000000000000, 0.0000000000000000000 ) ) ;
#11 = CYLINDRICAL_SURFACE ( 'NONE', #119, 0.05905500000000000332 ) ;
#12 = AXIS2_PLACEMENT_3D ( 'NONE', #271, #223, #10 ) ;
#13 = EDGE_CURVE ( 'NONE', #123, #248, #225, .T. ) ;
#14 = ORIENTED_EDGE ( 'NONE', *, *, #59, .F. ) ;
#15 = VERTEX_POINT ( 'NONE', #105 ) ;
#16 =( NAMED_UNIT ( * ) SI_UNIT ( $, .STERADIAN. ) SOLID_ANGLE_UNIT ( ) );
#17 = APPLICATION_CONTEXT ( 'automotive_design' ) ;
#18 = EDGE_LOOP ( 'NONE', ( #30, #102, #55, #128 ) ) ;
#19 = CIRCLE ( 'NONE', #204, 0.009832657500000001327 ) ;
#20 = AXIS2_PLACEMENT_3D ( 'NONE', #92, #282, #72 ) ;
#21 = CARTESIAN_POINT ( 'NONE',  ( 7.232151672364695422E-18, 0.0000000000000000000, 0.05905500000000000332 ) ) ;
#22 = PRODUCT_DEFINITION ( 'UNKNOWN', '', #5, #229 ) ;
#23 = AXIS2_PLACEMENT_3D ( 'NONE', #99, #8, #101 ) ;
#24 = CARTESIAN_POINT ( 'NONE',  ( 0.0000000000000000000, 0.0000000000000000000, 0.0000000000000000000 ) ) ;
#25 = DIRECTION ( 'NONE',  ( -0.0000000000000000000, -0.0000000000000000000, -1.000000000000000000 ) ) ;
#26 = DIRECTION ( 'NONE',  ( 0.0000000000000000000, 0.0000000000000000000, 1.000000000000000000 ) ) ;
#27 = COLOUR_RGB ( '',0.7921568627450980005, 0.8196078431372548767, 0.9333333333333333481 ) ;
#28 = ORIENTED_EDGE ( 'NONE', *, *, #220, .F. ) ;
#29 = CARTESIAN_POINT ( 'NONE',  ( 0.0000000000000000000, 0.0000000000000000000, 1.496062999999999921 ) ) ;
#30 = ORIENTED_EDGE ( 'NONE', *, *, #13, .F. ) ;
#31 = PLANE ( 'NONE',  #46 ) ;
#32 = VECTOR ( 'NONE', #91, 39.37007874015748143 ) ;
#33 = AXIS2_PLACEMENT_3D ( 'NONE', #124, #79, #57 ) ;
#34 = EDGE_LOOP ( 'NONE', ( #242, #196, #144, #28 ) ) ;
#35 = SURFACE_SIDE_STYLE ('',( #243 ) ) ;
#36 = PRODUCT_DEFINITION_SHAPE ( 'NONE', 'NONE',  #22 ) ;
#37 = ORIENTED_EDGE ( 'NONE', *, *, #212, .T. ) ;
#38 = EDGE_CURVE ( 'NONE', #15, #149, #146, .T. ) ;
#39 = CARTESIAN_POINT ( 'NONE',  ( 0.04405499999999973326, 6.313666573004162521E-18, 1.496062999999999921 ) ) ;
#40 = CIRCLE ( 'NONE', #228, 0.009832657500000001327 ) ;
#41 = PRESENTATION_STYLE_ASSIGNMENT (( #201 ) ) ;
#42 = ORIENTED_EDGE ( 'NONE', *, *, #88, .T. ) ;
#43 = VERTEX_POINT ( 'NONE', #110 ) ;
#44 = DIRECTION ( 'NONE',  ( 0.0000000000000000000, 0.0000000000000000000, 1.000000000000000000 ) ) ;
#45 = AXIS2_PLACEMENT_3D ( 'NONE', #49, #231, #7 ) ;
#46 = AXIS2_PLACEMENT_3D ( 'NONE', #122, #213, #186 ) ;
#47 = DIRECTION ( 'NONE',  ( 1.000000000000000000, 0.0000000000000000000, 0.0000000000000000000 ) ) ;
#48 = CARTESIAN_POINT ( 'NONE',  ( 0.0000000000000000000, 0.0000000000000000000, 0.0000000000000000000 ) ) ;
#49 = CARTESIAN_POINT ( 'NONE',  ( 0.0000000000000000000, 0.0000000000000000000, 1.496062999999999921 ) ) ;
#50 = CYLINDRICAL_SURFACE ( 'NONE', #125, 0.009832657500000001327 ) ;
#51 = CARTESIAN_POINT ( 'NONE',  ( 0.009832657500000004797, 0.0000000000000000000, 0.05905500000000000332 ) ) ;
#52 = CIRCLE ( 'NONE', #281, 0.05905500000000000332 ) ;
#53 = ORIENTED_EDGE ( 'NONE', *, *, #241, .T. ) ;
#54 = DIRECTION ( 'NONE',  ( 0.1736481776669313581, 0.0000000000000000000, 0.9848077530122077983 ) ) ;
#55 = ORIENTED_EDGE ( 'NONE', *, *, #199, .T. ) ;
#56 = ADVANCED_FACE ( 'NONE', ( #109 ), #11, .T. ) ;
#57 = DIRECTION ( 'NONE',  ( 1.000000000000000000, 0.0000000000000000000, 0.0000000000000000000 ) ) ;
#58 = DIMENSIONAL_EXPONENTS ( 1.000000000000000000, 0.0000000000000000000, 0.0000000000000000000, 0.0000000000000000000, 0.0000000000000000000, 0.0000000000000000000, 0.0000000000000000000 ) ;
#59 = EDGE_CURVE ( 'NONE', #234, #179, #40, .T. ) ;
#60 = DIRECTION ( 'NONE',  ( -0.0000000000000000000, -0.0000000000000000000, -1.000000000000000000 ) ) ;
#61 = ORIENTED_EDGE ( 'NONE', *, *, #297, .T. ) ;
#62 = ORIENTED_EDGE ( 'NONE', *, *, #170, .F. ) ;
#63 = AXIS2_PLACEMENT_3D ( 'NONE', #21, #299, #244 ) ;
#64 = SHAPE_DEFINITION_REPRESENTATION ( #36, #177 ) ;
#65 = CARTESIAN_POINT ( 'NONE',  ( -0.04405499999999973326, 0.0000000000000000000, 1.496062999999999921 ) ) ;
#66 = APPLICATION_PROTOCOL_DEFINITION ( 'draft international standard', 'automotive_design', 1998, #118 ) ;
#67 =( LENGTH_UNIT ( ) NAMED_UNIT ( * ) SI_UNIT ( $, .METRE. ) );
#68 = PRESENTATION_LAYER_ASSIGNMENT (  '', '', ( #136 ) ) ;
#69 = FACE_OUTER_BOUND ( 'NONE', #176, .T. ) ;
#70 = CYLINDRICAL_SURFACE ( 'NONE', #4, 0.05905500000000000332 ) ;
#71 = VECTOR ( 'NONE', #3, 39.37007874015748143 ) ;
#72 = DIRECTION ( 'NONE',  ( -1.000000000000000000, 0.0000000000000000000, 0.0000000000000000000 ) ) ;
#73 = DIMENSIONAL_EXPONENTS ( 1.000000000000000000, 0.0000000000000000000, 0.0000000000000000000, 0.0000000000000000000, 0.0000000000000000000, 0.0000000000000000000, 0.0000000000000000000 ) ;
#74 = LINE ( 'NONE', #169, #111 ) ;
#75 = CARTESIAN_POINT ( 'NONE',  ( 7.232151672364695422E-18, 0.0000000000000000000, 0.05905500000000000332 ) ) ;
#76 = CARTESIAN_POINT ( 'NONE',  ( -0.05905500000000000332, 0.0000000000000000000, 1.481062999999999574 ) ) ;
#77 = AXIS2_PLACEMENT_3D ( 'NONE', #298, #26, #256 ) ;
#78 = EDGE_CURVE ( 'NONE', #134, #149, #268, .T. ) ;
#79 = DIRECTION ( 'NONE',  ( 0.0000000000000000000, 0.0000000000000000000, 1.000000000000000000 ) ) ;
#80 = ORIENTED_EDGE ( 'NONE', *, *, #88, .F. ) ;
#81 = ADVANCED_FACE ( 'NONE', ( #115 ), #266, .T. ) ;
#82 =( GEOMETRIC_REPRESENTATION_CONTEXT ( 3 ) GLOBAL_UNCERTAINTY_ASSIGNED_CONTEXT ( ( #108 ) ) GLOBAL_UNIT_ASSIGNED_CONTEXT ( ( #264, #84, #198 ) ) REPRESENTATION_CONTEXT ( 'NONE', 'WORKASPACE' ) );
#83 = ORIENTED_EDGE ( 'NONE', *, *, #78, .T. ) ;
#84 =( NAMED_UNIT ( * ) PLANE_ANGLE_UNIT ( ) SI_UNIT ( $, .RADIAN. ) );
#85 = DIRECTION ( 'NONE',  ( 1.000000000000000000, 0.0000000000000000000, 0.0000000000000000000 ) ) ;
#86 = ADVANCED_FACE ( 'NONE', ( #200 ), #93, .T. ) ;
#87 = ORIENTED_EDGE ( 'NONE', *, *, #199, .F. ) ;
#88 = EDGE_CURVE ( 'NONE', #9, #134, #209, .T. ) ;
#89 =( GEOMETRIC_REPRESENTATION_CONTEXT ( 3 ) GLOBAL_UNCERTAINTY_ASSIGNED_CONTEXT ( ( #180 ) ) GLOBAL_UNIT_ASSIGNED_CONTEXT ( ( #239, #158, #265 ) ) REPRESENTATION_CONTEXT ( 'NONE', 'WORKASPACE' ) );
#90 = ORIENTED_EDGE ( 'NONE', *, *, #38, .F. ) ;
#91 = DIRECTION ( 'NONE',  ( -1.224646799147353207E-16, -0.0000000000000000000, -1.000000000000000000 ) ) ;
#92 = CARTESIAN_POINT ( 'NONE',  ( 7.232151672364695422E-18, 0.0000000000000000000, 0.05905500000000000332 ) ) ;
#93 = CONICAL_SURFACE ( 'NONE', #247, 0.009832657499999999592, 0.1745329251994338637 ) ;
#94 = DIRECTION ( 'NONE',  ( -1.224646799147353207E-16, -0.0000000000000000000, -1.000000000000000000 ) ) ;
#95 = CARTESIAN_POINT ( 'NONE',  ( -0.009832657499999992654, 4.218152462906707620E-18, 0.05905500000000000332 ) ) ;
#96 = DIRECTION ( 'NONE',  ( -1.224646799147353207E-16, -0.0000000000000000000, -1.000000000000000000 ) ) ;
#97 = FILL_AREA_STYLE ('',( #129 ) ) ;
#98 = AXIS2_PLACEMENT_3D ( 'NONE', #48, #258, #283 ) ;
#99 = CARTESIAN_POINT ( 'NONE',  ( 0.0000000000000000000, 0.0000000000000000000, 1.496062999999999921 ) ) ;
#100 = ORIENTED_EDGE ( 'NONE', *, *, #140, .F. ) ;
#101 = DIRECTION ( 'NONE',  ( -1.000000000000000000, 0.0000000000000000000, 0.0000000000000000000 ) ) ;
#102 = ORIENTED_EDGE ( 'NONE', *, *, #241, .F. ) ;
#103 = AXIS2_PLACEMENT_3D ( 'NONE', #131, #163, #252 ) ;
#104 =( GEOMETRIC_REPRESENTATION_CONTEXT ( 3 ) GLOBAL_UNCERTAINTY_ASSIGNED_CONTEXT ( ( #295 ) ) GLOBAL_UNIT_ASSIGNED_CONTEXT ( ( #250, #183, #16 ) ) REPRESENTATION_CONTEXT ( 'NONE', 'WORKASPACE' ) );
#105 = CARTESIAN_POINT ( 'NONE',  ( 0.05905500000000000332, 7.232151672364695422E-18, 1.481062999999999574 ) ) ;
#106 = SURFACE_SIDE_STYLE ('',( #215 ) ) ;
#107 = CARTESIAN_POINT ( 'NONE',  ( -0.009832657499999992654, 1.204153253448721358E-18, 0.05905500000000000332 ) ) ;
#108 = UNCERTAINTY_MEASURE_WITH_UNIT (LENGTH_MEASURE( 1.000000000000000082E-05 ), #264, 'distance_accuracy_value', 'NONE');
#109 = FACE_OUTER_BOUND ( 'NONE', #151, .T. ) ;
#110 = CARTESIAN_POINT ( 'NONE',  ( 0.009832657500000004797, 0.0000000000000000000, 0.05905500000000000332 ) ) ;
#111 = VECTOR ( 'NONE', #96, 39.37007874015748143 ) ;
#112 = CONICAL_SURFACE ( 'NONE', #23, 0.04405499999999973326, 0.7853981633974491672 ) ;
#113 = LENGTH_MEASURE_WITH_UNIT ( LENGTH_MEASURE( 0.02539999999999999897 ), #67 );
#114 = MECHANICAL_DESIGN_GEOMETRIC_PRESENTATION_REPRESENTATION (  '', ( #184 ), #82 ) ;
#115 = FACE_OUTER_BOUND ( 'NONE', #18, .T. ) ;
#116 = DIRECTION ( 'NONE',  ( -1.000000000000000000, 0.0000000000000000000, 1.224646799147353207E-16 ) ) ;
#117 = DIRECTION ( 'NONE',  ( -1.224646799147353207E-16, -0.0000000000000000000, -1.000000000000000000 ) ) ;
#118 = APPLICATION_CONTEXT ( 'automotive_design' ) ;
#119 = AXIS2_PLACEMENT_3D ( 'NONE', #203, #60, #205 ) ;
#120 = CARTESIAN_POINT ( 'NONE',  ( 0.05905500000000000332, 7.232151672364695422E-18, 1.496062999999999921 ) ) ;
#121 = LINE ( 'NONE', #192, #262 ) ;
#122 = CARTESIAN_POINT ( 'NONE',  ( 0.0000000000000000000, 0.0000000000000000000, 0.0000000000000000000 ) ) ;
#123 = VERTEX_POINT ( 'NONE', #95 ) ;
#124 = CARTESIAN_POINT ( 'NONE',  ( 0.0000000000000000000, 0.0000000000000000000, 1.496062999999999921 ) ) ;
#125 = AXIS2_PLACEMENT_3D ( 'NONE', #24, #150, #116 ) ;
#126 = EDGE_LOOP ( 'NONE', ( #61, #42 ) ) ;
#127 = CARTESIAN_POINT ( 'NONE',  ( 4.141862951424696924E-17, 0.0000000000000000000, 0.3382087761392446046 ) ) ;
#128 = ORIENTED_EDGE ( 'NONE', *, *, #197, .T. ) ;
#129 = FILL_AREA_STYLE_COLOUR ( '', #27 ) ;
#130 = COLOUR_RGB ( '',0.7921568627450980005, 0.8196078431372548767, 0.9333333333333333481 ) ;
#131 = CARTESIAN_POINT ( 'NONE',  ( 0.0000000000000000000, 0.0000000000000000000, 1.496062999999999921 ) ) ;
#132 = DIRECTION ( 'NONE',  ( -1.224646799147353207E-16, -0.0000000000000000000, -1.000000000000000000 ) ) ;
#133 = DIRECTION ( 'NONE',  ( -1.000000000000000000, 0.0000000000000000000, 1.224646799147353207E-16 ) ) ;
#134 = VERTEX_POINT ( 'NONE', #139 ) ;
#135 = VECTOR ( 'NONE', #222, 39.37007874015748143 ) ;
#136 = STYLED_ITEM ( 'NONE', ( #41 ), #177 ) ;
#137 = DIRECTION ( 'NONE',  ( 0.0000000000000000000, 0.0000000000000000000, -1.000000000000000000 ) ) ;
#138 = AXIS2_PLACEMENT_3D ( 'NONE', #168, #117, #173 ) ;
#139 = CARTESIAN_POINT ( 'NONE',  ( -0.04405499999999973326, 0.0000000000000000000, 1.496062999999999921 ) ) ;
#140 = EDGE_CURVE ( 'NONE', #43, #234, #171, .T. ) ;
#141 = CARTESIAN_POINT ( 'NONE',  ( -0.05905500000000000332, 0.0000000000000000000, 1.496062999999999921 ) ) ;
#142 = ADVANCED_FACE ( 'NONE', ( #232 ), #70, .T. ) ;
#143 = CARTESIAN_POINT ( 'NONE',  ( 0.009832657500000001327, 1.204153253448721743E-18, 0.0000000000000000000 ) ) ;
#144 = ORIENTED_EDGE ( 'NONE', *, *, #212, .F. ) ;
#145 = ADVANCED_FACE ( 'NONE', ( #165 ), #187, .T. ) ;
#146 = CIRCLE ( 'NONE', #172, 0.05905500000000000332 ) ;
#147 = CIRCLE ( 'NONE', #33, 0.04405499999999973326 ) ;
#148 = DIRECTION ( 'NONE',  ( -1.000000000000000000, 0.0000000000000000000, 0.0000000000000000000 ) ) ;
#149 = VERTEX_POINT ( 'NONE', #76 ) ;
#150 = DIRECTION ( 'NONE',  ( -1.224646799147353207E-16, -0.0000000000000000000, -1.000000000000000000 ) ) ;
#151 = EDGE_LOOP ( 'NONE', ( #270, #182, #154, #160 ) ) ;
#152 = VECTOR ( 'NONE', #1, 39.37007874015748143 ) ;
#153 = CIRCLE ( 'NONE', #288, 0.009832657499999999592 ) ;
#154 = ORIENTED_EDGE ( 'NONE', *, *, #289, .F. ) ;
#155 = ADVANCED_FACE ( 'NONE', ( #233 ), #211, .T. ) ;
#156 = FILL_AREA_STYLE ('',( #293 ) ) ;
#157 = ORIENTED_EDGE ( 'NONE', *, *, #251, .F. ) ;
#158 =( NAMED_UNIT ( * ) PLANE_ANGLE_UNIT ( ) SI_UNIT ( $, .RADIAN. ) );
#159 = CARTESIAN_POINT ( 'NONE',  ( 0.0000000000000000000, 0.0000000000000000000, 1.481062999999999574 ) ) ;
#160 = ORIENTED_EDGE ( 'NONE', *, *, #217, .F. ) ;
#161 = DIRECTION ( 'NONE',  ( 1.000000000000000000, 0.0000000000000000000, 0.0000000000000000000 ) ) ;
#162 = ADVANCED_FACE ( 'NONE', ( #207 ), #50, .T. ) ;
#163 = DIRECTION ( 'NONE',  ( 0.0000000000000000000, 0.0000000000000000000, -1.000000000000000000 ) ) ;
#164 = PRODUCT_RELATED_PRODUCT_CATEGORY ( 'part', '', ( #166 ) ) ;
#165 = FACE_OUTER_BOUND ( 'NONE', #238, .T. ) ;
#166 = PRODUCT ( 'Micro_RMEM-005-2X', 'Micro_RMEM-005-2X', '', ( #274 ) ) ;
#167 = VECTOR ( 'NONE', #54, 39.37007874015748143 ) ;
#168 = CARTESIAN_POINT ( 'NONE',  ( 4.141862951424696924E-17, 0.0000000000000000000, 0.3382087761392446046 ) ) ;
#169 = CARTESIAN_POINT ( 'NONE',  ( -0.009832657500000001327, 0.0000000000000000000, 1.204153253448721743E-18 ) ) ;
#170 = EDGE_CURVE ( 'NONE', #15, #219, #210, .T. ) ;
#171 = LINE ( 'NONE', #253, #32 ) ;
#172 = AXIS2_PLACEMENT_3D ( 'NONE', #159, #137, #47 ) ;
#173 = DIRECTION ( 'NONE',  ( 1.000000000000000000, 0.0000000000000000000, 0.0000000000000000000 ) ) ;
#174 = LENGTH_MEASURE_WITH_UNIT ( LENGTH_MEASURE( 0.02539999999999999897 ), #291 );
#175 = AXIS2_PLACEMENT_3D ( 'NONE', #181, #44, #161 ) ;
#176 = EDGE_LOOP ( 'NONE', ( #157, #287, #83, #90 ) ) ;
#177 = ADVANCED_BREP_SHAPE_REPRESENTATION ( 'Micro_RMEM-005-2X', ( #279, #175 ), #89 ) ;
#178 = ORIENTED_EDGE ( 'NONE', *, *, #217, .T. ) ;
#179 = VERTEX_POINT ( 'NONE', #280 ) ;
#180 = UNCERTAINTY_MEASURE_WITH_UNIT (LENGTH_MEASURE( 1.000000000000000082E-05 ), #239, 'distance_accuracy_value', 'NONE');
#181 = CARTESIAN_POINT ( 'NONE',  ( 0.0000000000000000000, 0.0000000000000000000, 0.0000000000000000000 ) ) ;
#182 = ORIENTED_EDGE ( 'NONE', *, *, #170, .T. ) ;
#183 =( NAMED_UNIT ( * ) PLANE_ANGLE_UNIT ( ) SI_UNIT ( $, .RADIAN. ) );
#184 = STYLED_ITEM ( 'NONE', ( #195 ), #279 ) ;
#185 = ORIENTED_EDGE ( 'NONE', *, *, #78, .F. ) ;
#186 = DIRECTION ( 'NONE',  ( 1.000000000000000000, 0.0000000000000000000, -0.0000000000000000000 ) ) ;
#187 = CYLINDRICAL_SURFACE ( 'NONE', #98, 0.009832657500000001327 ) ;
#188 = VECTOR ( 'NONE', #227, 39.37007874015747433 ) ;
#189 = EDGE_CURVE ( 'NONE', #123, #43, #286, .T. ) ;
#190 = CARTESIAN_POINT ( 'NONE',  ( 0.05905500000000004496, 7.232151672364700045E-18, 0.3382087761392446046 ) ) ;
#191 = DIRECTION ( 'NONE',  ( -1.000000000000000000, 0.0000000000000000000, 0.0000000000000000000 ) ) ;
#192 = CARTESIAN_POINT ( 'NONE',  ( 0.04405499999999973326, 5.395181473643630390E-18, 1.496062999999999921 ) ) ;
#193 = ORIENTED_EDGE ( 'NONE', *, *, #289, .T. ) ;
#194 = CIRCLE ( 'NONE', #138, 0.05905500000000000332 ) ;
#195 = PRESENTATION_STYLE_ASSIGNMENT (( #245 ) ) ;
#196 = ORIENTED_EDGE ( 'NONE', *, *, #140, .T. ) ;
#197 = EDGE_CURVE ( 'NONE', #219, #248, #194, .T. ) ;
#198 =( NAMED_UNIT ( * ) SI_UNIT ( $, .STERADIAN. ) SOLID_ANGLE_UNIT ( ) );
#199 = EDGE_CURVE ( 'NONE', #43, #219, #285, .T. ) ;
#200 = FACE_OUTER_BOUND ( 'NONE', #277, .T. ) ;
#201 = SURFACE_STYLE_USAGE ( .BOTH. , #35 ) ;
#202 = CARTESIAN_POINT ( 'NONE',  ( 7.232151672364695422E-18, 0.0000000000000000000, 0.05905500000000000332 ) ) ;
#203 = CARTESIAN_POINT ( 'NONE',  ( 0.0000000000000000000, 0.0000000000000000000, 1.496062999999999921 ) ) ;
#204 = AXIS2_PLACEMENT_3D ( 'NONE', #6, #94, #208 ) ;
#205 = DIRECTION ( 'NONE',  ( -1.000000000000000000, 0.0000000000000000000, 0.0000000000000000000 ) ) ;
#206 = ORIENTED_EDGE ( 'NONE', *, *, #13, .T. ) ;
#207 = FACE_OUTER_BOUND ( 'NONE', #34, .T. ) ;
#208 = DIRECTION ( 'NONE',  ( -1.000000000000000000, 0.0000000000000000000, 1.224646799147353207E-16 ) ) ;
#209 = CIRCLE ( 'NONE', #77, 0.04405499999999973326 ) ;
#210 = LINE ( 'NONE', #120, #152 ) ;
#211 = PLANE ( 'NONE',  #45 ) ;
#212 = EDGE_CURVE ( 'NONE', #179, #234, #19, .T. ) ;
#213 = DIRECTION ( 'NONE',  ( 0.0000000000000000000, 0.0000000000000000000, 1.000000000000000000 ) ) ;
#214 = ORIENTED_EDGE ( 'NONE', *, *, #189, .F. ) ;
#215 = SURFACE_STYLE_FILL_AREA ( #97 ) ;
#216 = ORIENTED_EDGE ( 'NONE', *, *, #38, .T. ) ;
#217 = EDGE_CURVE ( 'NONE', #149, #248, #255, .T. ) ;
#218 = APPLICATION_PROTOCOL_DEFINITION ( 'draft international standard', 'automotive_design', 1998, #17 ) ;
#219 = VERTEX_POINT ( 'NONE', #190 ) ;
#220 = EDGE_CURVE ( 'NONE', #123, #179, #74, .T. ) ;
#221 = LENGTH_MEASURE_WITH_UNIT ( LENGTH_MEASURE( 0.02539999999999999897 ), #269 );
#222 = DIRECTION ( 'NONE',  ( -0.7071067811865482389, 0.0000000000000000000, -0.7071067811865469066 ) ) ;
#223 = DIRECTION ( 'NONE',  ( 0.0000000000000000000, 0.0000000000000000000, -1.000000000000000000 ) ) ;
#224 = CIRCLE ( 'NONE', #12, 0.05905500000000000332 ) ;
#225 = LINE ( 'NONE', #107, #188 ) ;
#226 = ORIENTED_EDGE ( 'NONE', *, *, #251, .T. ) ;
#227 = DIRECTION ( 'NONE',  ( -0.1736481776669311639, 2.126576849575783008E-17, 0.9848077530122080203 ) ) ;
#228 = AXIS2_PLACEMENT_3D ( 'NONE', #230, #296, #133 ) ;
#229 = PRODUCT_DEFINITION_CONTEXT ( 'detailed design', #118, 'design' ) ;
#230 = CARTESIAN_POINT ( 'NONE',  ( 1.474662427518848649E-34, 0.0000000000000000000, 1.204153253448721743E-18 ) ) ;
#231 = DIRECTION ( 'NONE',  ( 0.0000000000000000000, 0.0000000000000000000, 1.000000000000000000 ) ) ;
#232 = FACE_OUTER_BOUND ( 'NONE', #246, .T. ) ;
#233 = FACE_OUTER_BOUND ( 'NONE', #126, .T. ) ;
#234 = VERTEX_POINT ( 'NONE', #143 ) ;
#235 = MECHANICAL_DESIGN_GEOMETRIC_PRESENTATION_REPRESENTATION (  '', ( #136 ), #104 ) ;
#236 = CARTESIAN_POINT ( 'NONE',  ( -0.05905499999999996169, 0.0000000000000000000, 0.3382087761392446046 ) ) ;
#237 = FACE_OUTER_BOUND ( 'NONE', #249, .T. ) ;
#238 = EDGE_LOOP ( 'NONE', ( #100, #53, #272, #14 ) ) ;
#239 =( CONVERSION_BASED_UNIT ( 'INCH', #174 ) LENGTH_UNIT ( ) NAMED_UNIT ( #73 ) );
#240 = FACE_OUTER_BOUND ( 'NONE', #292, .T. ) ;
#241 = EDGE_CURVE ( 'NONE', #43, #123, #153, .T. ) ;
#242 = ORIENTED_EDGE ( 'NONE', *, *, #189, .T. ) ;
#243 = SURFACE_STYLE_FILL_AREA ( #156 ) ;
#244 = DIRECTION ( 'NONE',  ( 1.000000000000000000, 0.0000000000000000000, 0.0000000000000000000 ) ) ;
#245 = SURFACE_STYLE_USAGE ( .BOTH. , #106 ) ;
#246 = EDGE_LOOP ( 'NONE', ( #62, #216, #178, #273 ) ) ;
#247 = AXIS2_PLACEMENT_3D ( 'NONE', #202, #294, #85 ) ;
#248 = VERTEX_POINT ( 'NONE', #236 ) ;
#249 = EDGE_LOOP ( 'NONE', ( #37, #290 ) ) ;
#250 =( CONVERSION_BASED_UNIT ( 'INCH', #113 ) LENGTH_UNIT ( ) NAMED_UNIT ( #257 ) );
#251 = EDGE_CURVE ( 'NONE', #9, #15, #121, .T. ) ;
#252 = DIRECTION ( 'NONE',  ( -1.000000000000000000, 0.0000000000000000000, 0.0000000000000000000 ) ) ;
#253 = CARTESIAN_POINT ( 'NONE',  ( 0.009832657500000001327, 1.204153253448721743E-18, -1.204153253448721743E-18 ) ) ;
#254 = CONICAL_SURFACE ( 'NONE', #103, 0.04405499999999973326, 0.7853981633974491672 ) ;
#255 = LINE ( 'NONE', #141, #71 ) ;
#256 = DIRECTION ( 'NONE',  ( 1.000000000000000000, 0.0000000000000000000, 0.0000000000000000000 ) ) ;
#257 = DIMENSIONAL_EXPONENTS ( 1.000000000000000000, 0.0000000000000000000, 0.0000000000000000000, 0.0000000000000000000, 0.0000000000000000000, 0.0000000000000000000, 0.0000000000000000000 ) ;
#258 = DIRECTION ( 'NONE',  ( -1.224646799147353207E-16, -0.0000000000000000000, -1.000000000000000000 ) ) ;
#259 = CLOSED_SHELL ( 'NONE', ( #162, #86, #284, #56, #142, #155, #2, #81, #145, #261 ) ) ;
#260 = ORIENTED_EDGE ( 'NONE', *, *, #275, .F. ) ;
#261 = ADVANCED_FACE ( 'NONE', ( #237 ), #31, .F. ) ;
#262 = VECTOR ( 'NONE', #263, 39.37007874015748143 ) ;
#263 = DIRECTION ( 'NONE',  ( 0.7071067811865482389, 8.659560562354941486E-17, -0.7071067811865469066 ) ) ;
#264 =( CONVERSION_BASED_UNIT ( 'INCH', #221 ) LENGTH_UNIT ( ) NAMED_UNIT ( #58 ) );
#265 =( NAMED_UNIT ( * ) SI_UNIT ( $, .STERADIAN. ) SOLID_ANGLE_UNIT ( ) );
#266 = CONICAL_SURFACE ( 'NONE', #63, 0.009832657499999999592, 0.1745329251994338637 ) ;
#267 = DIRECTION ( 'NONE',  ( 1.000000000000000000, 0.0000000000000000000, 0.0000000000000000000 ) ) ;
#268 = LINE ( 'NONE', #65, #135 ) ;
#269 =( LENGTH_UNIT ( ) NAMED_UNIT ( * ) SI_UNIT ( $, .METRE. ) );
#270 = ORIENTED_EDGE ( 'NONE', *, *, #275, .T. ) ;
#271 = CARTESIAN_POINT ( 'NONE',  ( 0.0000000000000000000, 0.0000000000000000000, 1.481062999999999574 ) ) ;
#272 = ORIENTED_EDGE ( 'NONE', *, *, #220, .T. ) ;
#273 = ORIENTED_EDGE ( 'NONE', *, *, #197, .F. ) ;
#274 = PRODUCT_CONTEXT ( 'NONE', #17, 'mechanical' ) ;
#275 = EDGE_CURVE ( 'NONE', #149, #15, #224, .T. ) ;
#276 = PRESENTATION_LAYER_ASSIGNMENT (  '', '', ( #184 ) ) ;
#277 = EDGE_LOOP ( 'NONE', ( #214, #206, #193, #87 ) ) ;
#278 = DIRECTION ( 'NONE',  ( -1.224646799147353207E-16, -0.0000000000000000000, -1.000000000000000000 ) ) ;
#279 = MANIFOLD_SOLID_BREP ( 'Cut-Revolve1', #259 ) ;
#280 = CARTESIAN_POINT ( 'NONE',  ( -0.009832657500000001327, 0.0000000000000000000, 2.408306506897443486E-18 ) ) ;
#281 = AXIS2_PLACEMENT_3D ( 'NONE', #127, #132, #267 ) ;
#282 = DIRECTION ( 'NONE',  ( -1.224646799147353207E-16, -0.0000000000000000000, -1.000000000000000000 ) ) ;
#283 = DIRECTION ( 'NONE',  ( -1.000000000000000000, 0.0000000000000000000, 1.224646799147353207E-16 ) ) ;
#284 = ADVANCED_FACE ( 'NONE', ( #240 ), #112, .T. ) ;
#285 = LINE ( 'NONE', #51, #167 ) ;
#286 = CIRCLE ( 'NONE', #20, 0.009832657499999999592 ) ;
#287 = ORIENTED_EDGE ( 'NONE', *, *, #297, .F. ) ;
#288 = AXIS2_PLACEMENT_3D ( 'NONE', #75, #278, #148 ) ;
#289 = EDGE_CURVE ( 'NONE', #248, #219, #52, .T. ) ;
#290 = ORIENTED_EDGE ( 'NONE', *, *, #59, .T. ) ;
#291 =( LENGTH_UNIT ( ) NAMED_UNIT ( * ) SI_UNIT ( $, .METRE. ) );
#292 = EDGE_LOOP ( 'NONE', ( #80, #226, #260, #185 ) ) ;
#293 = FILL_AREA_STYLE_COLOUR ( '', #130 ) ;
#294 = DIRECTION ( 'NONE',  ( 1.224646799147353207E-16, 0.0000000000000000000, 1.000000000000000000 ) ) ;
#295 = UNCERTAINTY_MEASURE_WITH_UNIT (LENGTH_MEASURE( 1.000000000000000082E-05 ), #250, 'distance_accuracy_value', 'NONE');
#296 = DIRECTION ( 'NONE',  ( -1.224646799147353207E-16, -0.0000000000000000000, -1.000000000000000000 ) ) ;
#297 = EDGE_CURVE ( 'NONE', #134, #9, #147, .T. ) ;
#298 = CARTESIAN_POINT ( 'NONE',  ( 0.0000000000000000000, 0.0000000000000000000, 1.496062999999999921 ) ) ;
#299 = DIRECTION ( 'NONE',  ( 1.224646799147353207E-16, 0.0000000000000000000, 1.000000000000000000 ) ) ;
ENDSEC;
END-ISO-10303-21;
