ISO-10303-21;
HEADER;
FILE_DESCRIPTION (( 'STEP AP214' ),
    '1' );
FILE_NAME ('Micro_MMBM-005-10X.STEP',
    '2021-09-03T16:22:51',
    ( '' ),
    ( '' ),
    'SwSTEP 2.0',
    'SolidWorks 2020',
    '' );
FILE_SCHEMA (( 'AUTOMOTIVE_DESIGN' ));
ENDSEC;

DATA;
#1 = CARTESIAN_POINT ( 'NONE',  ( 0.0000000000000000000, 0.0000000000000000000, 1.953504000000000129 ) ) ;
#2 = CIRCLE ( 'NONE', #145, 0.009449000000000002536 ) ;
#3 = DIRECTION ( 'NONE',  ( -0.0000000000000000000, -0.0000000000000000000, -1.000000000000000000 ) ) ;
#4 = DIMENSIONAL_EXPONENTS ( 1.000000000000000000, 0.0000000000000000000, 0.0000000000000000000, 0.0000000000000000000, 0.0000000000000000000, 0.0000000000000000000, 0.0000000000000000000 ) ;
#5 = CARTESIAN_POINT ( 'NONE',  ( -0.07874000000000001831, 0.0000000000000000000, 1.968503999999999809 ) ) ;
#6 = DIRECTION ( 'NONE',  ( -0.0000000000000000000, -0.0000000000000000000, -1.000000000000000000 ) ) ;
#7 = AXIS2_PLACEMENT_3D ( 'NONE', #56, #319, #139 ) ;
#8 = PLANE ( 'NONE',  #32 ) ;
#9 = PRODUCT_RELATED_PRODUCT_CATEGORY ( 'part', '', ( #175 ) ) ;
#10 = DIRECTION ( 'NONE',  ( -0.0000000000000000000, -0.0000000000000000000, -1.000000000000000000 ) ) ;
#11 = EDGE_LOOP ( 'NONE', ( #212, #192, #355, #206 ) ) ;
#12 = FACE_OUTER_BOUND ( 'NONE', #359, .T. ) ;
#13 = VERTEX_POINT ( 'NONE', #37 ) ;
#14 = AXIS2_PLACEMENT_3D ( 'NONE', #324, #372, #195 ) ;
#15 = CARTESIAN_POINT ( 'NONE',  ( -0.06374000000000018540, 0.0000000000000000000, 1.968503999999999809 ) ) ;
#16 = ORIENTED_EDGE ( 'NONE', *, *, #78, .F. ) ;
#17 = ORIENTED_EDGE ( 'NONE', *, *, #130, .F. ) ;
#18 = ORIENTED_EDGE ( 'NONE', *, *, #148, .T. ) ;
#19 = CYLINDRICAL_SURFACE ( 'NONE', #287, 0.07874000000000001831 ) ;
#20 = AXIS2_PLACEMENT_3D ( 'NONE', #219, #163, #276 ) ;
#21 = EDGE_CURVE ( 'NONE', #311, #13, #42, .T. ) ;
#22 = CARTESIAN_POINT ( 'NONE',  ( 0.0000000000000000000, 0.0000000000000000000, 0.3937009999999999676 ) ) ;
#23 = AXIS2_PLACEMENT_3D ( 'NONE', #22, #50, #288 ) ;
#24 = DIRECTION ( 'NONE',  ( 0.7071067811865507924, 8.659560562354973534E-17, -0.7071067811865443531 ) ) ;
#25 = CARTESIAN_POINT ( 'NONE',  ( 0.0000000000000000000, 0.0000000000000000000, 0.0000000000000000000 ) ) ;
#26 = DIRECTION ( 'NONE',  ( -0.0000000000000000000, -0.0000000000000000000, -1.000000000000000000 ) ) ;
#27 = CARTESIAN_POINT ( 'NONE',  ( -0.009449000000000025087, 0.0000000000000000000, 0.0000000000000000000 ) ) ;
#28 = VERTEX_POINT ( 'NONE', #41 ) ;
#29 = DIRECTION ( 'NONE',  ( 0.0000000000000000000, 0.0000000000000000000, 1.000000000000000000 ) ) ;
#30 = DIRECTION ( 'NONE',  ( -0.0000000000000000000, -0.0000000000000000000, -1.000000000000000000 ) ) ;
#31 = ADVANCED_FACE ( 'NONE', ( #129 ), #98, .F. ) ;
#32 = AXIS2_PLACEMENT_3D ( 'NONE', #207, #327, #179 ) ;
#33 = LINE ( 'NONE', #15, #178 ) ;
#34 = EDGE_LOOP ( 'NONE', ( #124, #298, #61, #244 ) ) ;
#35 = EDGE_CURVE ( 'NONE', #28, #132, #246, .T. ) ;
#36 = CARTESIAN_POINT ( 'NONE',  ( 0.0000000000000000000, 0.0000000000000000000, 1.968503999999999809 ) ) ;
#37 = CARTESIAN_POINT ( 'NONE',  ( 0.009841515750000005142, 1.205238076199577027E-18, 0.01968500000000000111 ) ) ;
#38 = AXIS2_PLACEMENT_3D ( 'NONE', #25, #138, #142 ) ;
#39 = CARTESIAN_POINT ( 'NONE',  ( 0.0000000000000000000, 0.0000000000000000000, 1.953504000000000129 ) ) ;
#40 = FILL_AREA_STYLE_COLOUR ( '', #352 ) ;
#41 = CARTESIAN_POINT ( 'NONE',  ( 0.07874000000000001831, 9.642868896486260050E-18, 0.3937009999999999121 ) ) ;
#42 = LINE ( 'NONE', #312, #292 ) ;
#43 = ADVANCED_FACE ( 'NONE', ( #280 ), #19, .T. ) ;
#44 = VERTEX_POINT ( 'NONE', #104 ) ;
#45 = AXIS2_PLACEMENT_3D ( 'NONE', #325, #3, #377 ) ;
#46 = EDGE_LOOP ( 'NONE', ( #217, #266 ) ) ;
#47 = FACE_OUTER_BOUND ( 'NONE', #34, .T. ) ;
#48 = ADVANCED_FACE ( 'NONE', ( #225 ), #223, .T. ) ;
#49 = CIRCLE ( 'NONE', #240, 0.009449000000000002536 ) ;
#50 = DIRECTION ( 'NONE',  ( -0.0000000000000000000, -0.0000000000000000000, -1.000000000000000000 ) ) ;
#51 = CYLINDRICAL_SURFACE ( 'NONE', #7, 0.07874000000000001831 ) ;
#52 = EDGE_CURVE ( 'NONE', #44, #248, #110, .T. ) ;
#53 = DIRECTION ( 'NONE',  ( -0.0000000000000000000, -0.0000000000000000000, -1.000000000000000000 ) ) ;
#54 = DIRECTION ( 'NONE',  ( -1.000000000000000000, 0.0000000000000000000, 0.0000000000000000000 ) ) ;
#55 = CIRCLE ( 'NONE', #272, 0.07874000000000001831 ) ;
#56 = CARTESIAN_POINT ( 'NONE',  ( 0.0000000000000000000, 0.0000000000000000000, 1.968503999999999809 ) ) ;
#57 = DIRECTION ( 'NONE',  ( -0.0000000000000000000, -0.0000000000000000000, -1.000000000000000000 ) ) ;
#58 = EDGE_LOOP ( 'NONE', ( #249, #333, #237, #90 ) ) ;
#59 = DIRECTION ( 'NONE',  ( 1.000000000000000000, 0.0000000000000000000, 0.0000000000000000000 ) ) ;
#60 = DIRECTION ( 'NONE',  ( -0.0000000000000000000, -0.0000000000000000000, -1.000000000000000000 ) ) ;
#61 = ORIENTED_EDGE ( 'NONE', *, *, #190, .F. ) ;
#62 = STYLED_ITEM ( 'NONE', ( #164 ), #307 ) ;
#63 = MANIFOLD_SOLID_BREP ( 'Cut-Revolve1', #283 ) ;
#64 =( CONVERSION_BASED_UNIT ( 'INCH', #332 ) LENGTH_UNIT ( ) NAMED_UNIT ( #4 ) );
#65 = ORIENTED_EDGE ( 'NONE', *, *, #35, .F. ) ;
#66 =( NAMED_UNIT ( * ) PLANE_ANGLE_UNIT ( ) SI_UNIT ( $, .RADIAN. ) );
#67 = ORIENTED_EDGE ( 'NONE', *, *, #258, .T. ) ;
#68 = EDGE_LOOP ( 'NONE', ( #99, #149 ) ) ;
#69 = CONICAL_SURFACE ( 'NONE', #134, 0.06374000000000018540, 0.7853981633974528309 ) ;
#70 = DIRECTION ( 'NONE',  ( 1.000000000000000000, 0.0000000000000000000, 0.0000000000000000000 ) ) ;
#71 = ORIENTED_EDGE ( 'NONE', *, *, #186, .F. ) ;
#72 = EDGE_LOOP ( 'NONE', ( #95, #274, #326, #65 ) ) ;
#73 = PRODUCT_DEFINITION ( 'UNKNOWN', '', #316, #143 ) ;
#74 = ORIENTED_EDGE ( 'NONE', *, *, #21, .T. ) ;
#75 = ADVANCED_FACE ( 'NONE', ( #348 ), #231, .T. ) ;
#76 = CIRCLE ( 'NONE', #38, 0.009841515750000005142 ) ;
#77 = LENGTH_MEASURE_WITH_UNIT ( LENGTH_MEASURE( 0.02539999999999999897 ), #353 );
#78 = EDGE_CURVE ( 'NONE', #340, #271, #330, .T. ) ;
#79 = EDGE_CURVE ( 'NONE', #300, #364, #291, .T. ) ;
#80 = CARTESIAN_POINT ( 'NONE',  ( -0.06374000000000018540, 0.0000000000000000000, 1.968503999999999809 ) ) ;
#81 = FACE_OUTER_BOUND ( 'NONE', #361, .T. ) ;
#82 =( GEOMETRIC_REPRESENTATION_CONTEXT ( 3 ) GLOBAL_UNCERTAINTY_ASSIGNED_CONTEXT ( ( #323 ) ) GLOBAL_UNIT_ASSIGNED_CONTEXT ( ( #226, #203, #173 ) ) REPRESENTATION_CONTEXT ( 'NONE', 'WORKASPACE' ) );
#83 = CARTESIAN_POINT ( 'NONE',  ( 0.009841515750000005142, 1.205238076199577027E-18, 0.0000000000000000000 ) ) ;
#84 = ADVANCED_FACE ( 'NONE', ( #47 ), #69, .T. ) ;
#85 = DIRECTION ( 'NONE',  ( -1.000000000000000000, 0.0000000000000000000, 0.0000000000000000000 ) ) ;
#86 = PRESENTATION_LAYER_ASSIGNMENT (  '', '', ( #62 ) ) ;
#87 = ORIENTED_EDGE ( 'NONE', *, *, #147, .T. ) ;
#88 = EDGE_CURVE ( 'NONE', #271, #340, #278, .T. ) ;
#89 = CARTESIAN_POINT ( 'NONE',  ( 0.0000000000000000000, 0.0000000000000000000, 0.01968500000000000111 ) ) ;
#90 = ORIENTED_EDGE ( 'NONE', *, *, #216, .F. ) ;
#91 = DIRECTION ( 'NONE',  ( -0.0000000000000000000, -0.0000000000000000000, -1.000000000000000000 ) ) ;
#92 =( LENGTH_UNIT ( ) NAMED_UNIT ( * ) SI_UNIT ( $, .METRE. ) );
#93 = AXIS2_PLACEMENT_3D ( 'NONE', #131, #370, #222 ) ;
#94 = CARTESIAN_POINT ( 'NONE',  ( 0.0000000000000000000, 0.0000000000000000000, 0.0000000000000000000 ) ) ;
#95 = ORIENTED_EDGE ( 'NONE', *, *, #258, .F. ) ;
#96 = APPLICATION_CONTEXT ( 'automotive_design' ) ;
#97 = CARTESIAN_POINT ( 'NONE',  ( 0.009449000000000025087, 1.157168760514336944E-18, 0.0000000000000000000 ) ) ;
#98 = PLANE ( 'NONE',  #20 ) ;
#99 = ORIENTED_EDGE ( 'NONE', *, *, #130, .T. ) ;
#100 = AXIS2_PLACEMENT_3D ( 'NONE', #94, #91, #262 ) ;
#101 = SURFACE_STYLE_USAGE ( .BOTH. , #252 ) ;
#102 = CARTESIAN_POINT ( 'NONE',  ( 0.0000000000000000000, 0.0000000000000000000, 0.3937009999999999121 ) ) ;
#103 =( NAMED_UNIT ( * ) PLANE_ANGLE_UNIT ( ) SI_UNIT ( $, .RADIAN. ) );
#104 = CARTESIAN_POINT ( 'NONE',  ( 0.06374000000000018540, 8.724383797125754882E-18, 1.968503999999999809 ) ) ;
#105 = APPLICATION_CONTEXT ( 'automotive_design' ) ;
#106 = CARTESIAN_POINT ( 'NONE',  ( 0.06374000000000018540, 7.805898697765251255E-18, 1.968503999999999809 ) ) ;
#107 = PRESENTATION_LAYER_ASSIGNMENT (  '', '', ( #193 ) ) ;
#108 = DIRECTION ( 'NONE',  ( -1.000000000000000000, 0.0000000000000000000, 0.0000000000000000000 ) ) ;
#109 = FACE_OUTER_BOUND ( 'NONE', #72, .T. ) ;
#110 = LINE ( 'NONE', #106, #215 ) ;
#111 = COLOUR_RGB ( '',0.7921568627450980005, 0.8196078431372548767, 0.9333333333333333481 ) ;
#112 = VECTOR ( 'NONE', #53, 39.37007874015748143 ) ;
#113 = SURFACE_SIDE_STYLE ('',( #376 ) ) ;
#114 = PRODUCT_DEFINITION_SHAPE ( 'NONE', 'NONE',  #73 ) ;
#115 = DIRECTION ( 'NONE',  ( -0.0000000000000000000, -0.0000000000000000000, -1.000000000000000000 ) ) ;
#116 = CARTESIAN_POINT ( 'NONE',  ( -0.009841515750000005142, 0.0000000000000000000, 0.0000000000000000000 ) ) ;
#117 = AXIS2_PLACEMENT_3D ( 'NONE', #102, #315, #189 ) ;
#118 = ORIENTED_EDGE ( 'NONE', *, *, #289, .T. ) ;
#119 = EDGE_CURVE ( 'NONE', #157, #343, #76, .T. ) ;
#120 = VECTOR ( 'NONE', #241, 39.37007874015748143 ) ;
#121 = DIRECTION ( 'NONE',  ( -0.7071067811865507924, 0.0000000000000000000, -0.7071067811865443531 ) ) ;
#122 = FACE_OUTER_BOUND ( 'NONE', #275, .T. ) ;
#123 = ORIENTED_EDGE ( 'NONE', *, *, #216, .T. ) ;
#124 = ORIENTED_EDGE ( 'NONE', *, *, #369, .F. ) ;
#125 = DIRECTION ( 'NONE',  ( -0.0000000000000000000, -0.0000000000000000000, -1.000000000000000000 ) ) ;
#126 = ORIENTED_EDGE ( 'NONE', *, *, #334, .F. ) ;
#127 = CIRCLE ( 'NONE', #346, 0.07874000000000001831 ) ;
#128 = CARTESIAN_POINT ( 'NONE',  ( 0.0000000000000000000, 0.0000000000000000000, 0.01968500000000000111 ) ) ;
#129 = FACE_OUTER_BOUND ( 'NONE', #46, .T. ) ;
#130 = EDGE_CURVE ( 'NONE', #242, #44, #166, .T. ) ;
#131 = CARTESIAN_POINT ( 'NONE',  ( 0.0000000000000000000, 0.0000000000000000000, 0.0000000000000000000 ) ) ;
#132 = VERTEX_POINT ( 'NONE', #137 ) ;
#133 = ORIENTED_EDGE ( 'NONE', *, *, #88, .F. ) ;
#134 = AXIS2_PLACEMENT_3D ( 'NONE', #170, #320, #169 ) ;
#135 = AXIS2_PLACEMENT_3D ( 'NONE', #268, #57, #273 ) ;
#136 = CARTESIAN_POINT ( 'NONE',  ( 0.0000000000000000000, 0.0000000000000000000, 1.968503999999999809 ) ) ;
#137 = CARTESIAN_POINT ( 'NONE',  ( -0.07874000000000001831, 0.0000000000000000000, 0.3937009999999999121 ) ) ;
#138 = DIRECTION ( 'NONE',  ( -0.0000000000000000000, -0.0000000000000000000, -1.000000000000000000 ) ) ;
#139 = DIRECTION ( 'NONE',  ( -1.000000000000000000, 0.0000000000000000000, 0.0000000000000000000 ) ) ;
#140 = FILL_AREA_STYLE_COLOUR ( '', #111 ) ;
#141 = FACE_OUTER_BOUND ( 'NONE', #58, .T. ) ;
#142 = DIRECTION ( 'NONE',  ( -1.000000000000000000, 0.0000000000000000000, 0.0000000000000000000 ) ) ;
#143 = PRODUCT_DEFINITION_CONTEXT ( 'detailed design', #105, 'design' ) ;
#144 = CARTESIAN_POINT ( 'NONE',  ( 0.009841515750000005142, 1.205238076199577027E-18, 0.0000000000000000000 ) ) ;
#145 = AXIS2_PLACEMENT_3D ( 'NONE', #374, #227, #108 ) ;
#146 = VECTOR ( 'NONE', #379, 39.37007874015748143 ) ;
#147 = EDGE_CURVE ( 'NONE', #300, #311, #2, .T. ) ;
#148 = EDGE_CURVE ( 'NONE', #13, #157, #257, .T. ) ;
#149 = ORIENTED_EDGE ( 'NONE', *, *, #369, .T. ) ;
#150 = CYLINDRICAL_SURFACE ( 'NONE', #100, 0.009449000000000025087 ) ;
#151 = CIRCLE ( 'NONE', #281, 0.009841515750000005142 ) ;
#152 = DIRECTION ( 'NONE',  ( -1.000000000000000000, 0.0000000000000000000, 0.0000000000000000000 ) ) ;
#153 = ORIENTED_EDGE ( 'NONE', *, *, #341, .F. ) ;
#154 = LINE ( 'NONE', #297, #120 ) ;
#155 = CARTESIAN_POINT ( 'NONE',  ( -0.009841515750000005142, 0.0000000000000000000, 0.0000000000000000000 ) ) ;
#156 = CARTESIAN_POINT ( 'NONE',  ( -0.009449000000000047639, 0.0000000000000000000, 0.3937009999999999676 ) ) ;
#157 = VERTEX_POINT ( 'NONE', #144 ) ;
#158 = AXIS2_PLACEMENT_3D ( 'NONE', #172, #322, #285 ) ;
#159 = DIRECTION ( 'NONE',  ( -1.000000000000000000, 0.0000000000000000000, 0.0000000000000000000 ) ) ;
#160 = ORIENTED_EDGE ( 'NONE', *, *, #254, .F. ) ;
#161 =( CONVERSION_BASED_UNIT ( 'INCH', #191 ) LENGTH_UNIT ( ) NAMED_UNIT ( #174 ) );
#162 = ORIENTED_EDGE ( 'NONE', *, *, #338, .T. ) ;
#163 = DIRECTION ( 'NONE',  ( 0.0000000000000000000, 0.0000000000000000000, 1.000000000000000000 ) ) ;
#164 = PRESENTATION_STYLE_ASSIGNMENT (( #101 ) ) ;
#165 = DIRECTION ( 'NONE',  ( 0.1736481776669307475, 2.126576849575776537E-17, -0.9848077530122077983 ) ) ;
#166 = CIRCLE ( 'NONE', #177, 0.06374000000000018540 ) ;
#167 = SURFACE_STYLE_FILL_AREA ( #344 ) ;
#168 = EDGE_LOOP ( 'NONE', ( #188, #123, #282, #313 ) ) ;
#169 = DIRECTION ( 'NONE',  ( -1.000000000000000000, 0.0000000000000000000, 0.0000000000000000000 ) ) ;
#170 = CARTESIAN_POINT ( 'NONE',  ( 0.0000000000000000000, 0.0000000000000000000, 1.968503999999999809 ) ) ;
#171 = UNCERTAINTY_MEASURE_WITH_UNIT (LENGTH_MEASURE( 1.000000000000000082E-05 ), #64, 'distance_accuracy_value', 'NONE');
#172 = CARTESIAN_POINT ( 'NONE',  ( 0.0000000000000000000, 0.0000000000000000000, 0.0000000000000000000 ) ) ;
#173 =( NAMED_UNIT ( * ) SI_UNIT ( $, .STERADIAN. ) SOLID_ANGLE_UNIT ( ) );
#174 = DIMENSIONAL_EXPONENTS ( 1.000000000000000000, 0.0000000000000000000, 0.0000000000000000000, 0.0000000000000000000, 0.0000000000000000000, 0.0000000000000000000, 0.0000000000000000000 ) ;
#175 = PRODUCT ( 'Micro_MMBM-005-10X', 'Micro_MMBM-005-10X', '', ( #247 ) ) ;
#176 = DIRECTION ( 'NONE',  ( 1.000000000000000000, 0.0000000000000000000, 0.0000000000000000000 ) ) ;
#177 = AXIS2_PLACEMENT_3D ( 'NONE', #351, #253, #176 ) ;
#178 = VECTOR ( 'NONE', #121, 39.37007874015748143 ) ;
#179 = DIRECTION ( 'NONE',  ( -1.000000000000000000, 0.0000000000000000000, 0.0000000000000000000 ) ) ;
#180 = ORIENTED_EDGE ( 'NONE', *, *, #235, .F. ) ;
#181 = AXIS2_PLACEMENT_3D ( 'NONE', #236, #10, #211 ) ;
#182 = CARTESIAN_POINT ( 'NONE',  ( 0.0000000000000000000, 0.0000000000000000000, 0.3937009999999999121 ) ) ;
#183 = VERTEX_POINT ( 'NONE', #259 ) ;
#184 = DIRECTION ( 'NONE',  ( -1.000000000000000000, 0.0000000000000000000, 0.0000000000000000000 ) ) ;
#185 = EDGE_LOOP ( 'NONE', ( #306, #67, #345, #180 ) ) ;
#186 = EDGE_CURVE ( 'NONE', #248, #183, #127, .T. ) ;
#187 = ORIENTED_EDGE ( 'NONE', *, *, #378, .F. ) ;
#188 = ORIENTED_EDGE ( 'NONE', *, *, #148, .F. ) ;
#189 = DIRECTION ( 'NONE',  ( -1.000000000000000000, 0.0000000000000000000, 0.0000000000000000000 ) ) ;
#190 = EDGE_CURVE ( 'NONE', #183, #248, #55, .T. ) ;
#191 = LENGTH_MEASURE_WITH_UNIT ( LENGTH_MEASURE( 0.02539999999999999897 ), #342 );
#192 = ORIENTED_EDGE ( 'NONE', *, *, #341, .T. ) ;
#193 = STYLED_ITEM ( 'NONE', ( #284 ), #63 ) ;
#194 = CARTESIAN_POINT ( 'NONE',  ( 0.0000000000000000000, 0.0000000000000000000, 0.3937009999999999676 ) ) ;
#195 = DIRECTION ( 'NONE',  ( 1.000000000000000000, 0.0000000000000000000, -0.0000000000000000000 ) ) ;
#196 = CARTESIAN_POINT ( 'NONE',  ( 0.0000000000000000000, 0.0000000000000000000, 0.01968500000000000111 ) ) ;
#197 = ADVANCED_FACE ( 'NONE', ( #81 ), #232, .T. ) ;
#198 = DIRECTION ( 'NONE',  ( -0.0000000000000000000, -0.0000000000000000000, -1.000000000000000000 ) ) ;
#199 = DIRECTION ( 'NONE',  ( -1.000000000000000000, 0.0000000000000000000, 0.0000000000000000000 ) ) ;
#200 = CONICAL_SURFACE ( 'NONE', #218, 0.009841515750000005142, 0.1745329251994333919 ) ;
#201 = DIRECTION ( 'NONE',  ( -0.0000000000000000000, -0.0000000000000000000, -1.000000000000000000 ) ) ;
#202 = LINE ( 'NONE', #116, #321 ) ;
#203 =( NAMED_UNIT ( * ) PLANE_ANGLE_UNIT ( ) SI_UNIT ( $, .RADIAN. ) );
#204 = ADVANCED_FACE ( 'NONE', ( #141 ), #295, .T. ) ;
#205 = AXIS2_PLACEMENT_3D ( 'NONE', #182, #30, #357 ) ;
#206 = ORIENTED_EDGE ( 'NONE', *, *, #208, .F. ) ;
#207 = CARTESIAN_POINT ( 'NONE',  ( 0.009449000000000047639, 0.0000000000000000000, 0.3937009999999999676 ) ) ;
#208 = EDGE_CURVE ( 'NONE', #271, #300, #261, .T. ) ;
#209 = DIRECTION ( 'NONE',  ( -1.000000000000000000, 0.0000000000000000000, 0.0000000000000000000 ) ) ;
#210 =( GEOMETRIC_REPRESENTATION_CONTEXT ( 3 ) GLOBAL_UNCERTAINTY_ASSIGNED_CONTEXT ( ( #356 ) ) GLOBAL_UNIT_ASSIGNED_CONTEXT ( ( #161, #103, #367 ) ) REPRESENTATION_CONTEXT ( 'NONE', 'WORKASPACE' ) );
#211 = DIRECTION ( 'NONE',  ( -1.000000000000000000, 0.0000000000000000000, 0.0000000000000000000 ) ) ;
#212 = ORIENTED_EDGE ( 'NONE', *, *, #88, .T. ) ;
#213 = SHAPE_DEFINITION_REPRESENTATION ( #114, #307 ) ;
#214 = ORIENTED_EDGE ( 'NONE', *, *, #78, .T. ) ;
#215 = VECTOR ( 'NONE', #24, 39.37007874015748143 ) ;
#216 = EDGE_CURVE ( 'NONE', #13, #364, #302, .T. ) ;
#217 = ORIENTED_EDGE ( 'NONE', *, *, #309, .T. ) ;
#218 = AXIS2_PLACEMENT_3D ( 'NONE', #128, #6, #159 ) ;
#219 = CARTESIAN_POINT ( 'NONE',  ( 0.0000000000000000000, 0.0000000000000000000, 0.0000000000000000000 ) ) ;
#220 = APPLICATION_PROTOCOL_DEFINITION ( 'draft international standard', 'automotive_design', 1998, #96 ) ;
#221 = EDGE_LOOP ( 'NONE', ( #153, #214, #337, #187 ) ) ;
#222 = DIRECTION ( 'NONE',  ( 1.000000000000000000, 0.0000000000000000000, 0.0000000000000000000 ) ) ;
#223 = CYLINDRICAL_SURFACE ( 'NONE', #158, 0.009841515750000005142 ) ;
#224 = ADVANCED_FACE ( 'NONE', ( #109 ), #51, .T. ) ;
#225 = FACE_OUTER_BOUND ( 'NONE', #168, .T. ) ;
#226 =( CONVERSION_BASED_UNIT ( 'INCH', #77 ) LENGTH_UNIT ( ) NAMED_UNIT ( #293 ) );
#227 = DIRECTION ( 'NONE',  ( -0.0000000000000000000, -0.0000000000000000000, -1.000000000000000000 ) ) ;
#228 = CARTESIAN_POINT ( 'NONE',  ( 0.07874000000000001831, 9.642868896486260050E-18, 1.953504000000000129 ) ) ;
#229 = VECTOR ( 'NONE', #317, 39.37007874015748854 ) ;
#230 = AXIS2_PLACEMENT_3D ( 'NONE', #36, #29, #59 ) ;
#231 = PLANE ( 'NONE',  #14 ) ;
#232 = CONICAL_SURFACE ( 'NONE', #255, 0.06374000000000018540, 0.7853981633974528309 ) ;
#233 = AXIS2_PLACEMENT_3D ( 'NONE', #196, #26, #199 ) ;
#234 = CARTESIAN_POINT ( 'NONE',  ( 0.0000000000000000000, 0.0000000000000000000, 0.0000000000000000000 ) ) ;
#235 = EDGE_CURVE ( 'NONE', #183, #132, #375, .T. ) ;
#236 = CARTESIAN_POINT ( 'NONE',  ( 0.0000000000000000000, 0.0000000000000000000, 0.0000000000000000000 ) ) ;
#237 = ORIENTED_EDGE ( 'NONE', *, *, #79, .T. ) ;
#238 = CARTESIAN_POINT ( 'NONE',  ( -0.009841515750000005142, 0.0000000000000000000, 0.01968500000000000111 ) ) ;
#239 = ORIENTED_EDGE ( 'NONE', *, *, #52, .F. ) ;
#240 = AXIS2_PLACEMENT_3D ( 'NONE', #335, #310, #184 ) ;
#241 = DIRECTION ( 'NONE',  ( -0.0000000000000000000, -0.0000000000000000000, -1.000000000000000000 ) ) ;
#242 = VERTEX_POINT ( 'NONE', #80 ) ;
#243 = LINE ( 'NONE', #97, #250 ) ;
#244 = ORIENTED_EDGE ( 'NONE', *, *, #289, .F. ) ;
#245 = DIRECTION ( 'NONE',  ( 0.0000000000000000000, 0.0000000000000000000, -1.000000000000000000 ) ) ;
#246 = CIRCLE ( 'NONE', #117, 0.07874000000000001831 ) ;
#247 = PRODUCT_CONTEXT ( 'NONE', #96, 'mechanical' ) ;
#248 = VERTEX_POINT ( 'NONE', #228 ) ;
#249 = ORIENTED_EDGE ( 'NONE', *, *, #21, .F. ) ;
#250 = VECTOR ( 'NONE', #328, 39.37007874015748143 ) ;
#251 = DIRECTION ( 'NONE',  ( -0.0000000000000000000, -0.0000000000000000000, -1.000000000000000000 ) ) ;
#252 = SURFACE_SIDE_STYLE ('',( #167 ) ) ;
#253 = DIRECTION ( 'NONE',  ( 0.0000000000000000000, 0.0000000000000000000, 1.000000000000000000 ) ) ;
#254 = EDGE_CURVE ( 'NONE', #364, #343, #202, .T. ) ;
#255 = AXIS2_PLACEMENT_3D ( 'NONE', #290, #349, #85 ) ;
#256 = SURFACE_STYLE_USAGE ( .BOTH. , #113 ) ;
#257 = LINE ( 'NONE', #83, #294 ) ;
#258 = EDGE_CURVE ( 'NONE', #248, #28, #154, .T. ) ;
#259 = CARTESIAN_POINT ( 'NONE',  ( -0.07874000000000001831, 0.0000000000000000000, 1.953504000000000129 ) ) ;
#260 = CIRCLE ( 'NONE', #339, 0.009841515750000005142 ) ;
#261 = LINE ( 'NONE', #27, #112 ) ;
#262 = DIRECTION ( 'NONE',  ( -1.000000000000000000, 0.0000000000000000000, 0.0000000000000000000 ) ) ;
#263 = ADVANCED_FACE ( 'NONE', ( #122 ), #362, .T. ) ;
#264 = MECHANICAL_DESIGN_GEOMETRIC_PRESENTATION_REPRESENTATION (  '', ( #62 ), #210 ) ;
#265 = FACE_OUTER_BOUND ( 'NONE', #221, .T. ) ;
#266 = ORIENTED_EDGE ( 'NONE', *, *, #119, .T. ) ;
#267 = ADVANCED_FACE ( 'NONE', ( #360 ), #200, .T. ) ;
#268 = CARTESIAN_POINT ( 'NONE',  ( 0.0000000000000000000, 0.0000000000000000000, 0.0000000000000000000 ) ) ;
#269 = EDGE_LOOP ( 'NONE', ( #87, #74, #126, #368 ) ) ;
#270 = FACE_BOUND ( 'NONE', #304, .T. ) ;
#271 = VERTEX_POINT ( 'NONE', #156 ) ;
#272 = AXIS2_PLACEMENT_3D ( 'NONE', #39, #245, #70 ) ;
#273 = DIRECTION ( 'NONE',  ( -1.000000000000000000, 0.0000000000000000000, 0.0000000000000000000 ) ) ;
#274 = ORIENTED_EDGE ( 'NONE', *, *, #186, .T. ) ;
#275 = EDGE_LOOP ( 'NONE', ( #336, #18, #363, #160 ) ) ;
#276 = DIRECTION ( 'NONE',  ( 1.000000000000000000, 0.0000000000000000000, -0.0000000000000000000 ) ) ;
#277 = ADVANCED_FACE ( 'NONE', ( #270, #12 ), #8, .T. ) ;
#278 = CIRCLE ( 'NONE', #23, 0.009449000000000047639 ) ;
#279 =( NAMED_UNIT ( * ) SI_UNIT ( $, .STERADIAN. ) SOLID_ANGLE_UNIT ( ) );
#280 = FACE_OUTER_BOUND ( 'NONE', #185, .T. ) ;
#281 = AXIS2_PLACEMENT_3D ( 'NONE', #89, #60, #152 ) ;
#282 = ORIENTED_EDGE ( 'NONE', *, *, #254, .T. ) ;
#283 = CLOSED_SHELL ( 'NONE', ( #263, #286, #267, #84, #43, #224, #75, #197, #277, #204, #296, #48, #31 ) ) ;
#284 = PRESENTATION_STYLE_ASSIGNMENT (( #256 ) ) ;
#285 = DIRECTION ( 'NONE',  ( -1.000000000000000000, 0.0000000000000000000, 0.0000000000000000000 ) ) ;
#286 = ADVANCED_FACE ( 'NONE', ( #358 ), #150, .T. ) ;
#287 = AXIS2_PLACEMENT_3D ( 'NONE', #136, #251, #371 ) ;
#288 = DIRECTION ( 'NONE',  ( -1.000000000000000000, 0.0000000000000000000, 0.0000000000000000000 ) ) ;
#289 = EDGE_CURVE ( 'NONE', #242, #183, #33, .T. ) ;
#290 = CARTESIAN_POINT ( 'NONE',  ( 0.0000000000000000000, 0.0000000000000000000, 1.968503999999999809 ) ) ;
#291 = LINE ( 'NONE', #318, #229 ) ;
#292 = VECTOR ( 'NONE', #165, 39.37007874015748854 ) ;
#293 = DIMENSIONAL_EXPONENTS ( 1.000000000000000000, 0.0000000000000000000, 0.0000000000000000000, 0.0000000000000000000, 0.0000000000000000000, 0.0000000000000000000, 0.0000000000000000000 ) ;
#294 = VECTOR ( 'NONE', #201, 39.37007874015748143 ) ;
#295 = CONICAL_SURFACE ( 'NONE', #45, 0.009841515750000005142, 0.1745329251994333919 ) ;
#296 = ADVANCED_FACE ( 'NONE', ( #265 ), #305, .T. ) ;
#297 = CARTESIAN_POINT ( 'NONE',  ( 0.07874000000000001831, 9.642868896486260050E-18, 1.968503999999999809 ) ) ;
#298 = ORIENTED_EDGE ( 'NONE', *, *, #52, .T. ) ;
#299 = CARTESIAN_POINT ( 'NONE',  ( -0.009449000000000002536, 0.0000000000000000000, 0.02191106743688862185 ) ) ;
#300 = VERTEX_POINT ( 'NONE', #299 ) ;
#301 = AXIS2_PLACEMENT_3D ( 'NONE', #194, #198, #54 ) ;
#302 = CIRCLE ( 'NONE', #233, 0.009841515750000005142 ) ;
#303 = CARTESIAN_POINT ( 'NONE',  ( 0.009449000000000047639, 1.157168760514339832E-18, 0.3937009999999999676 ) ) ;
#304 = EDGE_LOOP ( 'NONE', ( #133, #16 ) ) ;
#305 = CYLINDRICAL_SURFACE ( 'NONE', #181, 0.009449000000000025087 ) ;
#306 = ORIENTED_EDGE ( 'NONE', *, *, #190, .T. ) ;
#307 = ADVANCED_BREP_SHAPE_REPRESENTATION ( 'Micro_MMBM-005-10X', ( #63, #93 ), #347 ) ;
#308 = DIRECTION ( 'NONE',  ( 1.000000000000000000, 0.0000000000000000000, 0.0000000000000000000 ) ) ;
#309 = EDGE_CURVE ( 'NONE', #343, #157, #260, .T. ) ;
#310 = DIRECTION ( 'NONE',  ( -0.0000000000000000000, -0.0000000000000000000, -1.000000000000000000 ) ) ;
#311 = VERTEX_POINT ( 'NONE', #329 ) ;
#312 = CARTESIAN_POINT ( 'NONE',  ( 0.009841515750000005142, 1.205238076199577027E-18, 0.01968500000000000111 ) ) ;
#313 = ORIENTED_EDGE ( 'NONE', *, *, #119, .F. ) ;
#314 = ORIENTED_EDGE ( 'NONE', *, *, #35, .T. ) ;
#315 = DIRECTION ( 'NONE',  ( -0.0000000000000000000, -0.0000000000000000000, -1.000000000000000000 ) ) ;
#316 = PRODUCT_DEFINITION_FORMATION_WITH_SPECIFIED_SOURCE ( 'ANY', '', #175, .NOT_KNOWN. ) ;
#317 = DIRECTION ( 'NONE',  ( -0.1736481776669307475, 0.0000000000000000000, -0.9848077530122077983 ) ) ;
#318 = CARTESIAN_POINT ( 'NONE',  ( -0.009841515750000005142, 0.0000000000000000000, 0.01968500000000000111 ) ) ;
#319 = DIRECTION ( 'NONE',  ( -0.0000000000000000000, -0.0000000000000000000, -1.000000000000000000 ) ) ;
#320 = DIRECTION ( 'NONE',  ( 0.0000000000000000000, 0.0000000000000000000, -1.000000000000000000 ) ) ;
#321 = VECTOR ( 'NONE', #115, 39.37007874015748143 ) ;
#322 = DIRECTION ( 'NONE',  ( -0.0000000000000000000, -0.0000000000000000000, -1.000000000000000000 ) ) ;
#323 = UNCERTAINTY_MEASURE_WITH_UNIT (LENGTH_MEASURE( 1.000000000000000082E-05 ), #226, 'distance_accuracy_value', 'NONE');
#324 = CARTESIAN_POINT ( 'NONE',  ( 0.0000000000000000000, 0.0000000000000000000, 1.968503999999999809 ) ) ;
#325 = CARTESIAN_POINT ( 'NONE',  ( 0.0000000000000000000, 0.0000000000000000000, 0.01968500000000000111 ) ) ;
#326 = ORIENTED_EDGE ( 'NONE', *, *, #235, .T. ) ;
#327 = DIRECTION ( 'NONE',  ( -0.0000000000000000000, 0.0000000000000000000, -1.000000000000000000 ) ) ;
#328 = DIRECTION ( 'NONE',  ( -0.0000000000000000000, -0.0000000000000000000, -1.000000000000000000 ) ) ;
#329 = CARTESIAN_POINT ( 'NONE',  ( 0.009449000000000002536, 1.181203418356955733E-18, 0.02191106743688862185 ) ) ;
#330 = CIRCLE ( 'NONE', #301, 0.009449000000000047639 ) ;
#331 = CIRCLE ( 'NONE', #230, 0.06374000000000018540 ) ;
#332 = LENGTH_MEASURE_WITH_UNIT ( LENGTH_MEASURE( 0.02539999999999999897 ), #92 );
#333 = ORIENTED_EDGE ( 'NONE', *, *, #378, .T. ) ;
#334 = EDGE_CURVE ( 'NONE', #364, #13, #151, .T. ) ;
#335 = CARTESIAN_POINT ( 'NONE',  ( 0.0000000000000000000, 0.0000000000000000000, 0.02191106743688862185 ) ) ;
#336 = ORIENTED_EDGE ( 'NONE', *, *, #334, .T. ) ;
#337 = ORIENTED_EDGE ( 'NONE', *, *, #208, .T. ) ;
#338 = EDGE_CURVE ( 'NONE', #132, #28, #366, .T. ) ;
#339 = AXIS2_PLACEMENT_3D ( 'NONE', #234, #125, #209 ) ;
#340 = VERTEX_POINT ( 'NONE', #303 ) ;
#341 = EDGE_CURVE ( 'NONE', #340, #311, #243, .T. ) ;
#342 =( LENGTH_UNIT ( ) NAMED_UNIT ( * ) SI_UNIT ( $, .METRE. ) );
#343 = VERTEX_POINT ( 'NONE', #155 ) ;
#344 = FILL_AREA_STYLE ('',( #40 ) ) ;
#345 = ORIENTED_EDGE ( 'NONE', *, *, #338, .F. ) ;
#346 = AXIS2_PLACEMENT_3D ( 'NONE', #1, #354, #308 ) ;
#347 =( GEOMETRIC_REPRESENTATION_CONTEXT ( 3 ) GLOBAL_UNCERTAINTY_ASSIGNED_CONTEXT ( ( #171 ) ) GLOBAL_UNIT_ASSIGNED_CONTEXT ( ( #64, #66, #279 ) ) REPRESENTATION_CONTEXT ( 'NONE', 'WORKASPACE' ) );
#348 = FACE_OUTER_BOUND ( 'NONE', #68, .T. ) ;
#349 = DIRECTION ( 'NONE',  ( 0.0000000000000000000, 0.0000000000000000000, -1.000000000000000000 ) ) ;
#350 = FILL_AREA_STYLE ('',( #140 ) ) ;
#351 = CARTESIAN_POINT ( 'NONE',  ( 0.0000000000000000000, 0.0000000000000000000, 1.968503999999999809 ) ) ;
#352 = COLOUR_RGB ( '',0.7921568627450980005, 0.8196078431372548767, 0.9333333333333333481 ) ;
#353 =( LENGTH_UNIT ( ) NAMED_UNIT ( * ) SI_UNIT ( $, .METRE. ) );
#354 = DIRECTION ( 'NONE',  ( 0.0000000000000000000, 0.0000000000000000000, -1.000000000000000000 ) ) ;
#355 = ORIENTED_EDGE ( 'NONE', *, *, #147, .F. ) ;
#356 = UNCERTAINTY_MEASURE_WITH_UNIT (LENGTH_MEASURE( 1.000000000000000082E-05 ), #161, 'distance_accuracy_value', 'NONE');
#357 = DIRECTION ( 'NONE',  ( -1.000000000000000000, 0.0000000000000000000, 0.0000000000000000000 ) ) ;
#358 = FACE_OUTER_BOUND ( 'NONE', #11, .T. ) ;
#359 = EDGE_LOOP ( 'NONE', ( #162, #314 ) ) ;
#360 = FACE_OUTER_BOUND ( 'NONE', #269, .T. ) ;
#361 = EDGE_LOOP ( 'NONE', ( #239, #17, #118, #71 ) ) ;
#362 = CYLINDRICAL_SURFACE ( 'NONE', #135, 0.009841515750000005142 ) ;
#363 = ORIENTED_EDGE ( 'NONE', *, *, #309, .F. ) ;
#364 = VERTEX_POINT ( 'NONE', #238 ) ;
#365 = MECHANICAL_DESIGN_GEOMETRIC_PRESENTATION_REPRESENTATION (  '', ( #193 ), #82 ) ;
#366 = CIRCLE ( 'NONE', #205, 0.07874000000000001831 ) ;
#367 =( NAMED_UNIT ( * ) SI_UNIT ( $, .STERADIAN. ) SOLID_ANGLE_UNIT ( ) );
#368 = ORIENTED_EDGE ( 'NONE', *, *, #79, .F. ) ;
#369 = EDGE_CURVE ( 'NONE', #44, #242, #331, .T. ) ;
#370 = DIRECTION ( 'NONE',  ( 0.0000000000000000000, 0.0000000000000000000, 1.000000000000000000 ) ) ;
#371 = DIRECTION ( 'NONE',  ( -1.000000000000000000, 0.0000000000000000000, 0.0000000000000000000 ) ) ;
#372 = DIRECTION ( 'NONE',  ( 0.0000000000000000000, 0.0000000000000000000, 1.000000000000000000 ) ) ;
#373 = APPLICATION_PROTOCOL_DEFINITION ( 'draft international standard', 'automotive_design', 1998, #105 ) ;
#374 = CARTESIAN_POINT ( 'NONE',  ( 0.0000000000000000000, 0.0000000000000000000, 0.02191106743688862185 ) ) ;
#375 = LINE ( 'NONE', #5, #146 ) ;
#376 = SURFACE_STYLE_FILL_AREA ( #350 ) ;
#377 = DIRECTION ( 'NONE',  ( -1.000000000000000000, 0.0000000000000000000, 0.0000000000000000000 ) ) ;
#378 = EDGE_CURVE ( 'NONE', #311, #300, #49, .T. ) ;
#379 = DIRECTION ( 'NONE',  ( -0.0000000000000000000, -0.0000000000000000000, -1.000000000000000000 ) ) ;
ENDSEC;
END-ISO-10303-21;
