ISO-10303-21;
HEADER;
FILE_DESCRIPTION (( 'STEP AP214' ),
    '1' );
FILE_NAME ('48620.STEP',
    '2023-06-22T21:52:27',
    ( '' ),
    ( '' ),
    'SwSTEP 2.0',
    'SolidWorks 2023',
    '' );
FILE_SCHEMA (( 'AUTOMOTIVE_DESIGN' ));
ENDSEC;

DATA;
#1 = PLANE ( 'NONE',  #75 ) ;
#2 = DIRECTION ( 'NONE',  ( -5.156407575357275916E-17, 1.000000000000000000, -0.000000000000000000 ) ) ;
#3 = CARTESIAN_POINT ( 'NONE',  ( -1.224646799147352714E-16, 4.000000000000000000, 0.000000000000000000 ) ) ;
#4 = CARTESIAN_POINT ( 'NONE',  ( 0.3750000000000000555, 4.000000000000000000, 0.000000000000000000 ) ) ;
#5 =( NAMED_UNIT ( * ) PLANE_ANGLE_UNIT ( ) SI_UNIT ( $, .RADIAN. ) );
#6 =( LENGTH_UNIT ( ) NAMED_UNIT ( * ) SI_UNIT ( $, .METRE. ) );
#7 = CARTESIAN_POINT ( 'NONE',  ( 0.000000000000000000, 0.000000000000000000, 0.000000000000000000 ) ) ;
#8 = DIRECTION ( 'NONE',  ( -0.000000000000000000, -1.000000000000000000, -0.000000000000000000 ) ) ;
#9 =( CONVERSION_BASED_UNIT ( 'INCH', #204 ) LENGTH_UNIT ( ) NAMED_UNIT ( #152 ) );
#10 = FACE_OUTER_BOUND ( 'NONE', #277, .T. ) ;
#11 = FILL_AREA_STYLE_COLOUR ( '', #275 ) ;
#12 = LENGTH_MEASURE_WITH_UNIT ( LENGTH_MEASURE( 0.02539999999999999897 ), #291 );
#13 =( GEOMETRIC_REPRESENTATION_CONTEXT ( 3 ) GLOBAL_UNCERTAINTY_ASSIGNED_CONTEXT ( ( #99 ) ) GLOBAL_UNIT_ASSIGNED_CONTEXT ( ( #25, #305, #262 ) ) REPRESENTATION_CONTEXT ( 'NONE', 'WORKASPACE' ) );
#14 =( NAMED_UNIT ( * ) PLANE_ANGLE_UNIT ( ) SI_UNIT ( $, .RADIAN. ) );
#15 = PRESENTATION_STYLE_ASSIGNMENT (( #269 ) ) ;
#16 = ADVANCED_FACE ( 'NONE', ( #10 ), #219, .T. ) ;
#17 = SURFACE_STYLE_USAGE ( .BOTH. , #62 ) ;
#18 =( NAMED_UNIT ( * ) SI_UNIT ( $, .STERADIAN. ) SOLID_ANGLE_UNIT ( ) );
#19 = ORIENTED_EDGE ( 'NONE', *, *, #171, .F. ) ;
#20 = EDGE_CURVE ( 'NONE', #229, #227, #57, .T. ) ;
#21 = ORIENTED_EDGE ( 'NONE', *, *, #20, .F. ) ;
#22 = STYLED_ITEM ( 'NONE', ( #102 ), #182 ) ;
#23 = VERTEX_POINT ( 'NONE', #135 ) ;
#24 = PRESENTATION_STYLE_ASSIGNMENT (( #192 ) ) ;
#25 =( CONVERSION_BASED_UNIT ( 'INCH', #72 ) LENGTH_UNIT ( ) NAMED_UNIT ( #27 ) );
#26 = FILL_AREA_STYLE ('',( #112 ) ) ;
#27 = DIMENSIONAL_EXPONENTS ( 1.000000000000000000, 0.000000000000000000, 0.000000000000000000, 0.000000000000000000, 0.000000000000000000, 0.000000000000000000, 0.000000000000000000 ) ;
#28 = DIRECTION ( 'NONE',  ( 0.000000000000000000, 0.000000000000000000, -1.000000000000000000 ) ) ;
#29 =( GEOMETRIC_REPRESENTATION_CONTEXT ( 3 ) GLOBAL_UNCERTAINTY_ASSIGNED_CONTEXT ( ( #118 ) ) GLOBAL_UNIT_ASSIGNED_CONTEXT ( ( #39, #184, #18 ) ) REPRESENTATION_CONTEXT ( 'NONE', 'WORKASPACE' ) );
#30 = EDGE_CURVE ( 'NONE', #273, #250, #56, .T. ) ;
#31 = FACE_OUTER_BOUND ( 'NONE', #301, .T. ) ;
#32 = DIRECTION ( 'NONE',  ( -0.000000000000000000, -1.000000000000000000, -0.000000000000000000 ) ) ;
#33 = DIRECTION ( 'NONE',  ( 0.000000000000000000, 0.000000000000000000, -1.000000000000000000 ) ) ;
#34 = EDGE_CURVE ( 'NONE', #193, #250, #248, .T. ) ;
#35 = DIRECTION ( 'NONE',  ( 0.000000000000000000, 0.000000000000000000, 1.000000000000000000 ) ) ;
#36 = AXIS2_PLACEMENT_3D ( 'NONE', #190, #43, #144 ) ;
#37 = SURFACE_STYLE_USAGE ( .BOTH. , #242 ) ;
#38 = DIRECTION ( 'NONE',  ( 0.000000000000000000, 1.000000000000000000, 0.000000000000000000 ) ) ;
#39 =( CONVERSION_BASED_UNIT ( 'INCH', #179 ) LENGTH_UNIT ( ) NAMED_UNIT ( #257 ) );
#40 = EDGE_LOOP ( 'NONE', ( #141, #247 ) ) ;
#41 = AXIS2_PLACEMENT_3D ( 'NONE', #132, #32, #218 ) ;
#42 = EDGE_CURVE ( 'NONE', #23, #227, #303, .T. ) ;
#43 = DIRECTION ( 'NONE',  ( -5.156407575357275299E-17, 1.000000000000000000, -0.000000000000000000 ) ) ;
#44 = ORIENTED_EDGE ( 'NONE', *, *, #20, .T. ) ;
#45 = VERTEX_POINT ( 'NONE', #136 ) ;
#46 = CLOSED_SHELL ( 'NONE', ( #297, #66, #283, #165 ) ) ;
#47 = STYLED_ITEM ( 'NONE', ( #54 ), #253 ) ;
#48 = ORIENTED_EDGE ( 'NONE', *, *, #146, .T. ) ;
#49 = SURFACE_SIDE_STYLE ('',( #195 ) ) ;
#50 = APPLICATION_CONTEXT ( 'automotive_design' ) ;
#51 = DIMENSIONAL_EXPONENTS ( 1.000000000000000000, 0.000000000000000000, 0.000000000000000000, 0.000000000000000000, 0.000000000000000000, 0.000000000000000000, 0.000000000000000000 ) ;
#52 =( LENGTH_UNIT ( ) NAMED_UNIT ( * ) SI_UNIT ( $, .METRE. ) );
#53 = CARTESIAN_POINT ( 'NONE',  ( 0.000000000000000000, 0.000000000000000000, -0.3750000000000000555 ) ) ;
#54 = PRESENTATION_STYLE_ASSIGNMENT (( #151 ) ) ;
#55 = LINE ( 'NONE', #150, #129 ) ;
#56 = LINE ( 'NONE', #233, #279 ) ;
#57 = LINE ( 'NONE', #106, #71 ) ;
#58 = CIRCLE ( 'NONE', #173, 0.3750000000000000555 ) ;
#59 = DIRECTION ( 'NONE',  ( 0.000000000000000000, 0.000000000000000000, -1.000000000000000000 ) ) ;
#60 = CARTESIAN_POINT ( 'NONE',  ( 0.000000000000000000, 0.000000000000000000, 0.000000000000000000 ) ) ;
#61 = SURFACE_SIDE_STYLE ('',( #251 ) ) ;
#62 = SURFACE_SIDE_STYLE ('',( #64 ) ) ;
#63 = MECHANICAL_DESIGN_GEOMETRIC_PRESENTATION_REPRESENTATION (  '', ( #139 ), #29 ) ;
#64 = SURFACE_STYLE_FILL_AREA ( #115 ) ;
#65 = DIRECTION ( 'NONE',  ( 0.000000000000000000, -0.000000000000000000, 1.000000000000000000 ) ) ;
#66 = ADVANCED_FACE ( 'NONE', ( #175 ), #215, .F. ) ;
#67 = ORIENTED_EDGE ( 'NONE', *, *, #223, .T. ) ;
#68 = CARTESIAN_POINT ( 'NONE',  ( 3.032960542342103792E-32, 1.625000000000000000, 0.000000000000000000 ) ) ;
#69 = EDGE_CURVE ( 'NONE', #45, #193, #55, .T. ) ;
#70 = ORIENTED_EDGE ( 'NONE', *, *, #30, .T. ) ;
#71 = VECTOR ( 'NONE', #2, 39.37007874015748143 ) ;
#72 = LENGTH_MEASURE_WITH_UNIT ( LENGTH_MEASURE( 0.02539999999999999897 ), #52 );
#73 = DIRECTION ( 'NONE',  ( 0.000000000000000000, 0.000000000000000000, -1.000000000000000000 ) ) ;
#74 = ADVANCED_FACE ( 'NONE', ( #308 ), #103, .T. ) ;
#75 = AXIS2_PLACEMENT_3D ( 'NONE', #4, #108, #101 ) ;
#76 = FILL_AREA_STYLE ('',( #285 ) ) ;
#77 =( CONVERSION_BASED_UNIT ( 'INCH', #12 ) LENGTH_UNIT ( ) NAMED_UNIT ( #133 ) );
#78 = DIRECTION ( 'NONE',  ( -5.156407575357275916E-17, 1.000000000000000000, 0.000000000000000000 ) ) ;
#79 =( NAMED_UNIT ( * ) SI_UNIT ( $, .STERADIAN. ) SOLID_ANGLE_UNIT ( ) );
#80 = CARTESIAN_POINT ( 'NONE',  ( 3.032960542342103792E-32, 1.625000000000000000, 0.000000000000000000 ) ) ;
#81 = DIRECTION ( 'NONE',  ( 1.000000000000000000, 0.000000000000000000, 0.000000000000000000 ) ) ;
#82 = STYLED_ITEM ( 'NONE', ( #24 ), #16 ) ;
#83 = AXIS2_PLACEMENT_3D ( 'NONE', #288, #280, #73 ) ;
#84 = AXIS2_PLACEMENT_3D ( 'NONE', #3, #110, #287 ) ;
#85 =( LENGTH_UNIT ( ) NAMED_UNIT ( * ) SI_UNIT ( $, .METRE. ) );
#86 = SURFACE_SIDE_STYLE ('',( #119 ) ) ;
#87 = PRESENTATION_STYLE_ASSIGNMENT (( #17 ) ) ;
#88 = CARTESIAN_POINT ( 'NONE',  ( 4.592425496802575451E-17, 0.000000000000000000, 0.3750000000000000555 ) ) ;
#89 = ORIENTED_EDGE ( 'NONE', *, *, #223, .F. ) ;
#90 = CARTESIAN_POINT ( 'NONE',  ( 0.3749999999999999445, 4.000000000000000000, 4.592425496802576068E-17 ) ) ;
#91 = AXIS2_PLACEMENT_3D ( 'NONE', #155, #306, #28 ) ;
#92 = STYLED_ITEM ( 'NONE', ( #15 ), #263 ) ;
#93 = ORIENTED_EDGE ( 'NONE', *, *, #98, .F. ) ;
#94 = ORIENTED_EDGE ( 'NONE', *, *, #98, .T. ) ;
#95 = CIRCLE ( 'NONE', #36, 0.3750000000000001665 ) ;
#96 = COLOUR_RGB ( '',0.7921568627450980005, 0.8196078431372548767, 0.9333333333333333481 ) ;
#97 = ORIENTED_EDGE ( 'NONE', *, *, #69, .T. ) ;
#98 = EDGE_CURVE ( 'NONE', #273, #45, #58, .T. ) ;
#99 = UNCERTAINTY_MEASURE_WITH_UNIT (LENGTH_MEASURE( 1.000000000000000082E-05 ), #25, 'distance_accuracy_value', 'NONE');
#100 = CARTESIAN_POINT ( 'NONE',  ( 4.985351078100356093E-34, 1.625000000000000000, 0.000000000000000000 ) ) ;
#101 = DIRECTION ( 'NONE',  ( 1.000000000000000000, 5.156407575357275916E-17, 0.000000000000000000 ) ) ;
#102 = PRESENTATION_STYLE_ASSIGNMENT (( #270 ) ) ;
#103 = PLANE ( 'NONE',  #154 ) ;
#104 = FACE_OUTER_BOUND ( 'NONE', #167, .T. ) ;
#105 = COLOUR_RGB ( '',0.7921568627450980005, 0.8196078431372548767, 0.9333333333333333481 ) ;
#106 = CARTESIAN_POINT ( 'NONE',  ( -0.3750000000000002220, 4.000000000000000000, 0.000000000000000000 ) ) ;
#107 = CYLINDRICAL_SURFACE ( 'NONE', #84, 0.3750000000000001110 ) ;
#108 = DIRECTION ( 'NONE',  ( 5.156407575357275916E-17, -1.000000000000000000, 0.000000000000000000 ) ) ;
#109 = DIRECTION ( 'NONE',  ( 0.000000000000000000, 0.000000000000000000, -1.000000000000000000 ) ) ;
#110 = DIRECTION ( 'NONE',  ( -5.156407575357275299E-17, 1.000000000000000000, -0.000000000000000000 ) ) ;
#111 = DIRECTION ( 'NONE',  ( -0.000000000000000000, -1.000000000000000000, -0.000000000000000000 ) ) ;
#112 = FILL_AREA_STYLE_COLOUR ( '', #224 ) ;
#113 = CYLINDRICAL_SURFACE ( 'NONE', #265, 0.3750000000000000555 ) ;
#114 = AXIS2_PLACEMENT_3D ( 'NONE', #234, #8, #59 ) ;
#115 = FILL_AREA_STYLE ('',( #11 ) ) ;
#116 = DIRECTION ( 'NONE',  ( -5.156407575357275299E-17, 1.000000000000000000, -0.000000000000000000 ) ) ;
#117 = EDGE_CURVE ( 'NONE', #255, #229, #120, .T. ) ;
#118 = UNCERTAINTY_MEASURE_WITH_UNIT (LENGTH_MEASURE( 1.000000000000000082E-05 ), #39, 'distance_accuracy_value', 'NONE');
#119 = SURFACE_STYLE_FILL_AREA ( #274 ) ;
#120 = CIRCLE ( 'NONE', #231, 0.3750000000000000555 ) ;
#121 = AXIS2_PLACEMENT_3D ( 'NONE', #198, #284, #109 ) ;
#122 = EDGE_LOOP ( 'NONE', ( #48, #164 ) ) ;
#123 = PRODUCT_DEFINITION_SHAPE ( 'NONE', 'NONE',  #177 ) ;
#124 = DIRECTION ( 'NONE',  ( -1.000000000000000000, 0.000000000000000000, 0.000000000000000000 ) ) ;
#125 = PRODUCT ( '48620', '48620', '', ( #176 ) ) ;
#126 = FILL_AREA_STYLE_COLOUR ( '', #105 ) ;
#127 = EDGE_LOOP ( 'NONE', ( #278, #145, #189, #21 ) ) ;
#128 = DIMENSIONAL_EXPONENTS ( 1.000000000000000000, 0.000000000000000000, 0.000000000000000000, 0.000000000000000000, 0.000000000000000000, 0.000000000000000000, 0.000000000000000000 ) ;
#129 = VECTOR ( 'NONE', #131, 39.37007874015748143 ) ;
#130 = UNCERTAINTY_MEASURE_WITH_UNIT (LENGTH_MEASURE( 1.000000000000000082E-05 ), #77, 'distance_accuracy_value', 'NONE');
#131 = DIRECTION ( 'NONE',  ( -0.000000000000000000, -1.000000000000000000, -0.000000000000000000 ) ) ;
#132 = CARTESIAN_POINT ( 'NONE',  ( 0.000000000000000000, 0.000000000000000000, 0.000000000000000000 ) ) ;
#133 = DIMENSIONAL_EXPONENTS ( 1.000000000000000000, 0.000000000000000000, 0.000000000000000000, 0.000000000000000000, 0.000000000000000000, 0.000000000000000000, 0.000000000000000000 ) ;
#134 = AXIS2_PLACEMENT_3D ( 'NONE', #7, #35, #81 ) ;
#135 = CARTESIAN_POINT ( 'NONE',  ( 0.3750000000000000555, 4.000000000000000000, 4.592425496802576684E-17 ) ) ;
#136 = CARTESIAN_POINT ( 'NONE',  ( 4.592425496802575451E-17, 1.625000000000000000, 0.3750000000000000555 ) ) ;
#137 = CARTESIAN_POINT ( 'NONE',  ( 0.000000000000000000, 1.625000000000000000, -0.3750000000000000555 ) ) ;
#138 = FACE_OUTER_BOUND ( 'NONE', #194, .T. ) ;
#139 = STYLED_ITEM ( 'NONE', ( #295 ), #74 ) ;
#140 = PRODUCT_DEFINITION_CONTEXT ( 'detailed design', #181, 'design' ) ;
#141 = ORIENTED_EDGE ( 'NONE', *, *, #169, .F. ) ;
#142 = PRESENTATION_LAYER_ASSIGNMENT (  '', '', ( #148 ) ) ;
#143 = EDGE_CURVE ( 'NONE', #255, #23, #210, .T. ) ;
#144 = DIRECTION ( 'NONE',  ( -1.000000000000000000, 0.000000000000000000, 0.000000000000000000 ) ) ;
#145 = ORIENTED_EDGE ( 'NONE', *, *, #143, .T. ) ;
#146 = EDGE_CURVE ( 'NONE', #227, #23, #95, .T. ) ;
#147 = ORIENTED_EDGE ( 'NONE', *, *, #34, .F. ) ;
#148 = STYLED_ITEM ( 'NONE', ( #87 ), #221 ) ;
#149 =( LENGTH_UNIT ( ) NAMED_UNIT ( * ) SI_UNIT ( $, .METRE. ) );
#150 = CARTESIAN_POINT ( 'NONE',  ( 4.592425496802575451E-17, 0.000000000000000000, 0.3750000000000000555 ) ) ;
#151 = SURFACE_STYLE_USAGE ( .BOTH. , #172 ) ;
#152 = DIMENSIONAL_EXPONENTS ( 1.000000000000000000, 0.000000000000000000, 0.000000000000000000, 0.000000000000000000, 0.000000000000000000, 0.000000000000000000, 0.000000000000000000 ) ;
#153 = DIRECTION ( 'NONE',  ( -1.000000000000000000, 0.000000000000000000, 0.000000000000000000 ) ) ;
#154 = AXIS2_PLACEMENT_3D ( 'NONE', #244, #38, #65 ) ;
#155 = CARTESIAN_POINT ( 'NONE',  ( 0.000000000000000000, 0.000000000000000000, 0.000000000000000000 ) ) ;
#156 = UNCERTAINTY_MEASURE_WITH_UNIT (LENGTH_MEASURE( 1.000000000000000082E-05 ), #187, 'distance_accuracy_value', 'NONE');
#157 = AXIS2_PLACEMENT_3D ( 'NONE', #80, #264, #153 ) ;
#158 = LENGTH_MEASURE_WITH_UNIT ( LENGTH_MEASURE( 0.02539999999999999897 ), #161 );
#159 = LENGTH_MEASURE_WITH_UNIT ( LENGTH_MEASURE( 0.02539999999999999897 ), #222 );
#160 =( CONVERSION_BASED_UNIT ( 'INCH', #158 ) LENGTH_UNIT ( ) NAMED_UNIT ( #51 ) );
#161 =( LENGTH_UNIT ( ) NAMED_UNIT ( * ) SI_UNIT ( $, .METRE. ) );
#162 = ORIENTED_EDGE ( 'NONE', *, *, #30, .F. ) ;
#163 = PRESENTATION_LAYER_ASSIGNMENT (  '', '', ( #139 ) ) ;
#164 = ORIENTED_EDGE ( 'NONE', *, *, #42, .T. ) ;
#165 = ADVANCED_FACE ( 'NONE', ( #226 ), #1, .F. ) ;
#166 = DIRECTION ( 'NONE',  ( -5.156407575357275916E-17, 1.000000000000000000, -0.000000000000000000 ) ) ;
#167 = EDGE_LOOP ( 'NONE', ( #168, #252, #44, #212 ) ) ;
#168 = ORIENTED_EDGE ( 'NONE', *, *, #143, .F. ) ;
#169 = EDGE_CURVE ( 'NONE', #229, #255, #298, .T. ) ;
#170 = DIMENSIONAL_EXPONENTS ( 1.000000000000000000, 0.000000000000000000, 0.000000000000000000, 0.000000000000000000, 0.000000000000000000, 0.000000000000000000, 0.000000000000000000 ) ;
#171 = EDGE_CURVE ( 'NONE', #45, #273, #259, .T. ) ;
#172 = SURFACE_SIDE_STYLE ('',( #230 ) ) ;
#173 = AXIS2_PLACEMENT_3D ( 'NONE', #246, #225, #276 ) ;
#174 = SURFACE_STYLE_FILL_AREA ( #76 ) ;
#175 = FACE_OUTER_BOUND ( 'NONE', #40, .T. ) ;
#176 = PRODUCT_CONTEXT ( 'NONE', #50, 'mechanical' ) ;
#177 = PRODUCT_DEFINITION ( 'UNKNOWN', '', #214, #140 ) ;
#178 = MECHANICAL_DESIGN_GEOMETRIC_PRESENTATION_REPRESENTATION (  '', ( #148 ), #185 ) ;
#179 = LENGTH_MEASURE_WITH_UNIT ( LENGTH_MEASURE( 0.02539999999999999897 ), #85 );
#180 = FACE_OUTER_BOUND ( 'NONE', #127, .T. ) ;
#181 = APPLICATION_CONTEXT ( 'automotive_design' ) ;
#182 = ADVANCED_FACE ( 'NONE', ( #138 ), #113, .T. ) ;
#183 = DIRECTION ( 'NONE',  ( -0.000000000000000000, -1.000000000000000000, -0.000000000000000000 ) ) ;
#184 =( NAMED_UNIT ( * ) PLANE_ANGLE_UNIT ( ) SI_UNIT ( $, .RADIAN. ) );
#185 =( GEOMETRIC_REPRESENTATION_CONTEXT ( 3 ) GLOBAL_UNCERTAINTY_ASSIGNED_CONTEXT ( ( #239 ) ) GLOBAL_UNIT_ASSIGNED_CONTEXT ( ( #160, #208, #186 ) ) REPRESENTATION_CONTEXT ( 'NONE', 'WORKASPACE' ) );
#186 =( NAMED_UNIT ( * ) SI_UNIT ( $, .STERADIAN. ) SOLID_ANGLE_UNIT ( ) );
#187 =( CONVERSION_BASED_UNIT ( 'INCH', #159 ) LENGTH_UNIT ( ) NAMED_UNIT ( #170 ) );
#188 = EDGE_LOOP ( 'NONE', ( #93, #19 ) ) ;
#189 = ORIENTED_EDGE ( 'NONE', *, *, #146, .F. ) ;
#190 = CARTESIAN_POINT ( 'NONE',  ( -1.224646799147352714E-16, 4.000000000000000000, 0.000000000000000000 ) ) ;
#191 = MECHANICAL_DESIGN_GEOMETRIC_PRESENTATION_REPRESENTATION (  '', ( #82 ), #13 ) ;
#192 = SURFACE_STYLE_USAGE ( .BOTH. , #49 ) ;
#193 = VERTEX_POINT ( 'NONE', #88 ) ;
#194 = EDGE_LOOP ( 'NONE', ( #94, #97, #89, #162 ) ) ;
#195 = SURFACE_STYLE_FILL_AREA ( #26 ) ;
#196 =( GEOMETRIC_REPRESENTATION_CONTEXT ( 3 ) GLOBAL_UNCERTAINTY_ASSIGNED_CONTEXT ( ( #260 ) ) GLOBAL_UNIT_ASSIGNED_CONTEXT ( ( #9, #14, #267 ) ) REPRESENTATION_CONTEXT ( 'NONE', 'WORKASPACE' ) );
#197 = CARTESIAN_POINT ( 'NONE',  ( -1.224646799147352714E-16, 4.000000000000000000, 0.000000000000000000 ) ) ;
#198 = CARTESIAN_POINT ( 'NONE',  ( 0.000000000000000000, 0.000000000000000000, 0.000000000000000000 ) ) ;
#199 = MECHANICAL_DESIGN_GEOMETRIC_PRESENTATION_REPRESENTATION (  '', ( #22 ), #196 ) ;
#200 = MECHANICAL_DESIGN_GEOMETRIC_PRESENTATION_REPRESENTATION (  '', ( #92 ), #213 ) ;
#201 = DIRECTION ( 'NONE',  ( -1.000000000000000000, 0.000000000000000000, 0.000000000000000000 ) ) ;
#202 =( NAMED_UNIT ( * ) SI_UNIT ( $, .STERADIAN. ) SOLID_ANGLE_UNIT ( ) );
#203 = DIRECTION ( 'NONE',  ( -5.156407575357275299E-17, 1.000000000000000000, -0.000000000000000000 ) ) ;
#204 = LENGTH_MEASURE_WITH_UNIT ( LENGTH_MEASURE( 0.02539999999999999897 ), #6 );
#205 = DIRECTION ( 'NONE',  ( -1.000000000000000000, 0.000000000000000000, 0.000000000000000000 ) ) ;
#206 = PRESENTATION_LAYER_ASSIGNMENT (  '', '', ( #82 ) ) ;
#207 = CARTESIAN_POINT ( 'NONE',  ( -1.224646799147352714E-16, 4.000000000000000000, 0.000000000000000000 ) ) ;
#208 =( NAMED_UNIT ( * ) PLANE_ANGLE_UNIT ( ) SI_UNIT ( $, .RADIAN. ) );
#209 = PRESENTATION_LAYER_ASSIGNMENT (  '', '', ( #22 ) ) ;
#210 = LINE ( 'NONE', #90, #254 ) ;
#211 = CLOSED_SHELL ( 'NONE', ( #182, #74, #16, #221 ) ) ;
#212 = ORIENTED_EDGE ( 'NONE', *, *, #42, .F. ) ;
#213 =( GEOMETRIC_REPRESENTATION_CONTEXT ( 3 ) GLOBAL_UNCERTAINTY_ASSIGNED_CONTEXT ( ( #156 ) ) GLOBAL_UNIT_ASSIGNED_CONTEXT ( ( #187, #272, #202 ) ) REPRESENTATION_CONTEXT ( 'NONE', 'WORKASPACE' ) );
#214 = PRODUCT_DEFINITION_FORMATION_WITH_SPECIFIED_SOURCE ( 'ANY', '', #125, .NOT_KNOWN. ) ;
#215 = PLANE ( 'NONE',  #286 ) ;
#216 = LENGTH_MEASURE_WITH_UNIT ( LENGTH_MEASURE( 0.02539999999999999897 ), #149 );
#217 =( NAMED_UNIT ( * ) SI_UNIT ( $, .STERADIAN. ) SOLID_ANGLE_UNIT ( ) );
#218 = DIRECTION ( 'NONE',  ( 0.000000000000000000, 0.000000000000000000, -1.000000000000000000 ) ) ;
#219 = CYLINDRICAL_SURFACE ( 'NONE', #91, 0.3750000000000000555 ) ;
#220 = PLANE ( 'NONE',  #121 ) ;
#221 = ADVANCED_FACE ( 'NONE', ( #31 ), #220, .T. ) ;
#222 =( LENGTH_UNIT ( ) NAMED_UNIT ( * ) SI_UNIT ( $, .METRE. ) );
#223 = EDGE_CURVE ( 'NONE', #250, #193, #236, .T. ) ;
#224 = COLOUR_RGB ( '',1.000000000000000000, 0.000000000000000000, 0.000000000000000000 ) ;
#225 = DIRECTION ( 'NONE',  ( -0.000000000000000000, -1.000000000000000000, -0.000000000000000000 ) ) ;
#226 = FACE_OUTER_BOUND ( 'NONE', #122, .T. ) ;
#227 = VERTEX_POINT ( 'NONE', #258 ) ;
#228 = ORIENTED_EDGE ( 'NONE', *, *, #34, .T. ) ;
#229 = VERTEX_POINT ( 'NONE', #307 ) ;
#230 = SURFACE_STYLE_FILL_AREA ( #232 ) ;
#231 = AXIS2_PLACEMENT_3D ( 'NONE', #68, #299, #124 ) ;
#232 = FILL_AREA_STYLE ('',( #281 ) ) ;
#233 = CARTESIAN_POINT ( 'NONE',  ( 0.000000000000000000, 0.000000000000000000, -0.3750000000000000555 ) ) ;
#234 = CARTESIAN_POINT ( 'NONE',  ( 0.000000000000000000, 1.625000000000000000, 0.000000000000000000 ) ) ;
#235 = AXIS2_PLACEMENT_3D ( 'NONE', #197, #203, #201 ) ;
#236 = CIRCLE ( 'NONE', #83, 0.3750000000000000555 ) ;
#237 = CARTESIAN_POINT ( 'NONE',  ( 0.3750000000000000555, 1.625000000000000000, 4.592425496802576684E-17 ) ) ;
#238 = APPLICATION_PROTOCOL_DEFINITION ( 'draft international standard', 'automotive_design', 1998, #50 ) ;
#239 = UNCERTAINTY_MEASURE_WITH_UNIT (LENGTH_MEASURE( 1.000000000000000082E-05 ), #160, 'distance_accuracy_value', 'NONE');
#240 = COLOUR_RGB ( '',1.000000000000000000, 0.000000000000000000, 0.000000000000000000 ) ;
#241 = MECHANICAL_DESIGN_GEOMETRIC_PRESENTATION_REPRESENTATION (  '', ( #47 ), #249 ) ;
#242 = SURFACE_SIDE_STYLE ('',( #174 ) ) ;
#243 = ADVANCED_BREP_SHAPE_REPRESENTATION ( '48620', ( #253, #263, #134 ), #304 ) ;
#244 = CARTESIAN_POINT ( 'NONE',  ( 0.000000000000000000, 1.625000000000000000, 0.000000000000000000 ) ) ;
#245 = FILL_AREA_STYLE ('',( #126 ) ) ;
#246 = CARTESIAN_POINT ( 'NONE',  ( 0.000000000000000000, 1.625000000000000000, 0.000000000000000000 ) ) ;
#247 = ORIENTED_EDGE ( 'NONE', *, *, #117, .F. ) ;
#248 = CIRCLE ( 'NONE', #41, 0.3750000000000000555 ) ;
#249 =( GEOMETRIC_REPRESENTATION_CONTEXT ( 3 ) GLOBAL_UNCERTAINTY_ASSIGNED_CONTEXT ( ( #302 ) ) GLOBAL_UNIT_ASSIGNED_CONTEXT ( ( #261, #5, #217 ) ) REPRESENTATION_CONTEXT ( 'NONE', 'WORKASPACE' ) );
#250 = VERTEX_POINT ( 'NONE', #53 ) ;
#251 = SURFACE_STYLE_FILL_AREA ( #245 ) ;
#252 = ORIENTED_EDGE ( 'NONE', *, *, #117, .T. ) ;
#253 = MANIFOLD_SOLID_BREP ( 'Revolve - Cutting Edge', #211 ) ;
#254 = VECTOR ( 'NONE', #166, 39.37007874015748143 ) ;
#255 = VERTEX_POINT ( 'NONE', #237 ) ;
#256 = PRESENTATION_LAYER_ASSIGNMENT (  '', '', ( #92 ) ) ;
#257 = DIMENSIONAL_EXPONENTS ( 1.000000000000000000, 0.000000000000000000, 0.000000000000000000, 0.000000000000000000, 0.000000000000000000, 0.000000000000000000, 0.000000000000000000 ) ;
#258 = CARTESIAN_POINT ( 'NONE',  ( -0.3750000000000002776, 4.000000000000000000, 0.000000000000000000 ) ) ;
#259 = CIRCLE ( 'NONE', #114, 0.3750000000000000555 ) ;
#260 = UNCERTAINTY_MEASURE_WITH_UNIT (LENGTH_MEASURE( 1.000000000000000082E-05 ), #9, 'distance_accuracy_value', 'NONE');
#261 =( CONVERSION_BASED_UNIT ( 'INCH', #216 ) LENGTH_UNIT ( ) NAMED_UNIT ( #128 ) );
#262 =( NAMED_UNIT ( * ) SI_UNIT ( $, .STERADIAN. ) SOLID_ANGLE_UNIT ( ) );
#263 = MANIFOLD_SOLID_BREP ( 'Revolve - Tool Body (Straight Shanked)', #46 ) ;
#264 = DIRECTION ( 'NONE',  ( -5.156407575357275299E-17, 1.000000000000000000, -0.000000000000000000 ) ) ;
#265 = AXIS2_PLACEMENT_3D ( 'NONE', #60, #183, #33 ) ;
#266 = PRESENTATION_LAYER_ASSIGNMENT (  '', '', ( #47 ) ) ;
#267 =( NAMED_UNIT ( * ) SI_UNIT ( $, .STERADIAN. ) SOLID_ANGLE_UNIT ( ) );
#268 = AXIS2_PLACEMENT_3D ( 'NONE', #207, #116, #205 ) ;
#269 = SURFACE_STYLE_USAGE ( .BOTH. , #61 ) ;
#270 = SURFACE_STYLE_USAGE ( .BOTH. , #86 ) ;
#271 = ORIENTED_EDGE ( 'NONE', *, *, #171, .T. ) ;
#272 =( NAMED_UNIT ( * ) PLANE_ANGLE_UNIT ( ) SI_UNIT ( $, .RADIAN. ) );
#273 = VERTEX_POINT ( 'NONE', #137 ) ;
#274 = FILL_AREA_STYLE ('',( #293 ) ) ;
#275 = COLOUR_RGB ( '',1.000000000000000000, 0.000000000000000000, 0.000000000000000000 ) ;
#276 = DIRECTION ( 'NONE',  ( 0.000000000000000000, 0.000000000000000000, -1.000000000000000000 ) ) ;
#277 = EDGE_LOOP ( 'NONE', ( #300, #271, #70, #147 ) ) ;
#278 = ORIENTED_EDGE ( 'NONE', *, *, #169, .T. ) ;
#279 = VECTOR ( 'NONE', #111, 39.37007874015748143 ) ;
#280 = DIRECTION ( 'NONE',  ( -0.000000000000000000, -1.000000000000000000, -0.000000000000000000 ) ) ;
#281 = FILL_AREA_STYLE_COLOUR ( '', #96 ) ;
#282 = DIRECTION ( 'NONE',  ( -1.000000000000000000, -5.156407575357275916E-17, 0.000000000000000000 ) ) ;
#283 = ADVANCED_FACE ( 'NONE', ( #104 ), #290, .T. ) ;
#284 = DIRECTION ( 'NONE',  ( 0.000000000000000000, -1.000000000000000000, -0.000000000000000000 ) ) ;
#285 = FILL_AREA_STYLE_COLOUR ( '', #294 ) ;
#286 = AXIS2_PLACEMENT_3D ( 'NONE', #100, #78, #282 ) ;
#287 = DIRECTION ( 'NONE',  ( -1.000000000000000000, 0.000000000000000000, 0.000000000000000000 ) ) ;
#288 = CARTESIAN_POINT ( 'NONE',  ( 0.000000000000000000, 0.000000000000000000, 0.000000000000000000 ) ) ;
#289 =( NAMED_UNIT ( * ) PLANE_ANGLE_UNIT ( ) SI_UNIT ( $, .RADIAN. ) );
#290 = CYLINDRICAL_SURFACE ( 'NONE', #268, 0.3750000000000001110 ) ;
#291 =( LENGTH_UNIT ( ) NAMED_UNIT ( * ) SI_UNIT ( $, .METRE. ) );
#292 = PRODUCT_RELATED_PRODUCT_CATEGORY ( 'part', '', ( #125 ) ) ;
#293 = FILL_AREA_STYLE_COLOUR ( '', #240 ) ;
#294 = COLOUR_RGB ( '',1.000000000000000000, 0.000000000000000000, 0.000000000000000000 ) ;
#295 = PRESENTATION_STYLE_ASSIGNMENT (( #37 ) ) ;
#296 = APPLICATION_PROTOCOL_DEFINITION ( 'draft international standard', 'automotive_design', 1998, #181 ) ;
#297 = ADVANCED_FACE ( 'NONE', ( #180 ), #107, .T. ) ;
#298 = CIRCLE ( 'NONE', #157, 0.3750000000000000555 ) ;
#299 = DIRECTION ( 'NONE',  ( -5.156407575357275299E-17, 1.000000000000000000, -0.000000000000000000 ) ) ;
#300 = ORIENTED_EDGE ( 'NONE', *, *, #69, .F. ) ;
#301 = EDGE_LOOP ( 'NONE', ( #67, #228 ) ) ;
#302 = UNCERTAINTY_MEASURE_WITH_UNIT (LENGTH_MEASURE( 1.000000000000000082E-05 ), #261, 'distance_accuracy_value', 'NONE');
#303 = CIRCLE ( 'NONE', #235, 0.3750000000000001665 ) ;
#304 =( GEOMETRIC_REPRESENTATION_CONTEXT ( 3 ) GLOBAL_UNCERTAINTY_ASSIGNED_CONTEXT ( ( #130 ) ) GLOBAL_UNIT_ASSIGNED_CONTEXT ( ( #77, #289, #79 ) ) REPRESENTATION_CONTEXT ( 'NONE', 'WORKASPACE' ) );
#305 =( NAMED_UNIT ( * ) PLANE_ANGLE_UNIT ( ) SI_UNIT ( $, .RADIAN. ) );
#306 = DIRECTION ( 'NONE',  ( -0.000000000000000000, -1.000000000000000000, -0.000000000000000000 ) ) ;
#307 = CARTESIAN_POINT ( 'NONE',  ( -0.3750000000000000555, 1.625000000000000000, 0.000000000000000000 ) ) ;
#308 = FACE_OUTER_BOUND ( 'NONE', #188, .T. ) ;
#309 = SHAPE_DEFINITION_REPRESENTATION ( #123, #243 ) ;
ENDSEC;
END-ISO-10303-21;
