ISO-10303-21;
HEADER;
FILE_DESCRIPTION (( 'STEP AP214' ),
    '1' );
FILE_NAME ('01525.STEP',
    '2023-06-22T14:35:35',
    ( '' ),
    ( '' ),
    'SwSTEP 2.0',
    'SolidWorks 2023',
    '' );
FILE_SCHEMA (( 'AUTOMOTIVE_DESIGN' ));
ENDSEC;

DATA;
#1 = PRESENTATION_STYLE_ASSIGNMENT (( #173 ) ) ;
#2 = AXIS2_PLACEMENT_3D ( 'NONE', #209, #239, #300 ) ;
#3 = LENGTH_MEASURE_WITH_UNIT ( LENGTH_MEASURE( 0.02539999999999999897 ), #172 );
#4 =( CONVERSION_BASED_UNIT ( 'INCH', #222 ) LENGTH_UNIT ( ) NAMED_UNIT ( #53 ) );
#5 = EDGE_CURVE ( 'NONE', #84, #269, #55, .T. ) ;
#6 = ORIENTED_EDGE ( 'NONE', *, *, #170, .F. ) ;
#7 = AXIS2_PLACEMENT_3D ( 'NONE', #307, #117, #303 ) ;
#8 = UNCERTAINTY_MEASURE_WITH_UNIT (LENGTH_MEASURE( 1.000000000000000082E-05 ), #46, 'distance_accuracy_value', 'NONE');
#9 = ORIENTED_EDGE ( 'NONE', *, *, #233, .F. ) ;
#10 = DIRECTION ( 'NONE',  ( -4.259641040512536405E-17, 1.000000000000000000, -0.000000000000000000 ) ) ;
#11 =( NAMED_UNIT ( * ) PLANE_ANGLE_UNIT ( ) SI_UNIT ( $, .RADIAN. ) );
#12 = CIRCLE ( 'NONE', #60, 0.2500000000000000000 ) ;
#13 = MECHANICAL_DESIGN_GEOMETRIC_PRESENTATION_REPRESENTATION (  '', ( #113 ), #185 ) ;
#14 = CARTESIAN_POINT ( 'NONE',  ( -1.224646799147354440E-16, 6.000000000000000888, 0.000000000000000000 ) ) ;
#15 = DIRECTION ( 'NONE',  ( -4.259641040512536405E-17, 1.000000000000000000, -0.000000000000000000 ) ) ;
#16 = CARTESIAN_POINT ( 'NONE',  ( 0.2500000000000000000, 6.000000000000000888, 0.000000000000000000 ) ) ;
#17 = FACE_OUTER_BOUND ( 'NONE', #40, .T. ) ;
#18 = ORIENTED_EDGE ( 'NONE', *, *, #245, .F. ) ;
#19 = AXIS2_PLACEMENT_3D ( 'NONE', #104, #50, #45 ) ;
#20 = FACE_OUTER_BOUND ( 'NONE', #168, .T. ) ;
#21 = LENGTH_MEASURE_WITH_UNIT ( LENGTH_MEASURE( 0.02539999999999999897 ), #145 );
#22 = ADVANCED_FACE ( 'NONE', ( #17 ), #63, .T. ) ;
#23 = CARTESIAN_POINT ( 'NONE',  ( 0.000000000000000000, 3.125000000000000000, 0.000000000000000000 ) ) ;
#24 = PRODUCT ( '01525', '01525', '', ( #224 ) ) ;
#25 = PRESENTATION_LAYER_ASSIGNMENT (  '', '', ( #181 ) ) ;
#26 = DIRECTION ( 'NONE',  ( -0.000000000000000000, -1.000000000000000000, -0.000000000000000000 ) ) ;
#27 = FILL_AREA_STYLE_COLOUR ( '', #267 ) ;
#28 =( LENGTH_UNIT ( ) NAMED_UNIT ( * ) SI_UNIT ( $, .METRE. ) );
#29 = FACE_OUTER_BOUND ( 'NONE', #283, .T. ) ;
#30 = DIMENSIONAL_EXPONENTS ( 1.000000000000000000, 0.000000000000000000, 0.000000000000000000, 0.000000000000000000, 0.000000000000000000, 0.000000000000000000, 0.000000000000000000 ) ;
#31 = VECTOR ( 'NONE', #279, 39.37007874015748143 ) ;
#32 = DIRECTION ( 'NONE',  ( 0.000000000000000000, 0.000000000000000000, -1.000000000000000000 ) ) ;
#33 = AXIS2_PLACEMENT_3D ( 'NONE', #244, #199, #197 ) ;
#34 = ADVANCED_FACE ( 'NONE', ( #187 ), #256, .T. ) ;
#35 = UNCERTAINTY_MEASURE_WITH_UNIT (LENGTH_MEASURE( 1.000000000000000082E-05 ), #276, 'distance_accuracy_value', 'NONE');
#36 = DIRECTION ( 'NONE',  ( -4.259641040512536405E-17, 1.000000000000000000, -0.000000000000000000 ) ) ;
#37 = CARTESIAN_POINT ( 'NONE',  ( 0.000000000000000000, 0.000000000000000000, 0.000000000000000000 ) ) ;
#38 = STYLED_ITEM ( 'NONE', ( #293 ), #180 ) ;
#39 =( LENGTH_UNIT ( ) NAMED_UNIT ( * ) SI_UNIT ( $, .METRE. ) );
#40 = EDGE_LOOP ( 'NONE', ( #262, #109, #294, #179 ) ) ;
#41 = DIRECTION ( 'NONE',  ( -4.259641040512536405E-17, 1.000000000000000000, -0.000000000000000000 ) ) ;
#42 =( GEOMETRIC_REPRESENTATION_CONTEXT ( 3 ) GLOBAL_UNCERTAINTY_ASSIGNED_CONTEXT ( ( #203 ) ) GLOBAL_UNIT_ASSIGNED_CONTEXT ( ( #108, #58, #135 ) ) REPRESENTATION_CONTEXT ( 'NONE', 'WORKASPACE' ) );
#43 = AXIS2_PLACEMENT_3D ( 'NONE', #201, #79, #295 ) ;
#44 = PRODUCT_DEFINITION_SHAPE ( 'NONE', 'NONE',  #292 ) ;
#45 = DIRECTION ( 'NONE',  ( 0.000000000000000000, 0.000000000000000000, -1.000000000000000000 ) ) ;
#46 =( CONVERSION_BASED_UNIT ( 'INCH', #131 ) LENGTH_UNIT ( ) NAMED_UNIT ( #123 ) );
#47 = LINE ( 'NONE', #153, #164 ) ;
#48 = PRESENTATION_LAYER_ASSIGNMENT (  '', '', ( #120 ) ) ;
#49 = DIRECTION ( 'NONE',  ( -4.259641040512536405E-17, 1.000000000000000000, -0.000000000000000000 ) ) ;
#50 = DIRECTION ( 'NONE',  ( -0.000000000000000000, -1.000000000000000000, -0.000000000000000000 ) ) ;
#51 = DIMENSIONAL_EXPONENTS ( 1.000000000000000000, 0.000000000000000000, 0.000000000000000000, 0.000000000000000000, 0.000000000000000000, 0.000000000000000000, 0.000000000000000000 ) ;
#52 = ADVANCED_FACE ( 'NONE', ( #161 ), #208, .T. ) ;
#53 = DIMENSIONAL_EXPONENTS ( 1.000000000000000000, 0.000000000000000000, 0.000000000000000000, 0.000000000000000000, 0.000000000000000000, 0.000000000000000000, 0.000000000000000000 ) ;
#54 = SURFACE_STYLE_USAGE ( .BOTH. , #178 ) ;
#55 = CIRCLE ( 'NONE', #263, 0.2500000000000000000 ) ;
#56 = ORIENTED_EDGE ( 'NONE', *, *, #170, .T. ) ;
#57 =( NAMED_UNIT ( * ) SI_UNIT ( $, .STERADIAN. ) SOLID_ANGLE_UNIT ( ) );
#58 =( NAMED_UNIT ( * ) PLANE_ANGLE_UNIT ( ) SI_UNIT ( $, .RADIAN. ) );
#59 = EDGE_LOOP ( 'NONE', ( #284, #56 ) ) ;
#60 = AXIS2_PLACEMENT_3D ( 'NONE', #272, #183, #32 ) ;
#61 = SURFACE_STYLE_FILL_AREA ( #219 ) ;
#62 = LENGTH_MEASURE_WITH_UNIT ( LENGTH_MEASURE( 0.02539999999999999897 ), #39 );
#63 = CYLINDRICAL_SURFACE ( 'NONE', #80, 0.2500000000000000555 ) ;
#64 = CARTESIAN_POINT ( 'NONE',  ( 0.2499999999999999167, 6.000000000000000888, 3.061616997868383634E-17 ) ) ;
#65 = VERTEX_POINT ( 'NONE', #211 ) ;
#66 =( GEOMETRIC_REPRESENTATION_CONTEXT ( 3 ) GLOBAL_UNCERTAINTY_ASSIGNED_CONTEXT ( ( #69 ) ) GLOBAL_UNIT_ASSIGNED_CONTEXT ( ( #271, #158, #252 ) ) REPRESENTATION_CONTEXT ( 'NONE', 'WORKASPACE' ) );
#67 = SURFACE_STYLE_USAGE ( .BOTH. , #236 ) ;
#68 = ORIENTED_EDGE ( 'NONE', *, *, #144, .F. ) ;
#69 = UNCERTAINTY_MEASURE_WITH_UNIT (LENGTH_MEASURE( 1.000000000000000082E-05 ), #271, 'distance_accuracy_value', 'NONE');
#70 = EDGE_LOOP ( 'NONE', ( #163, #68 ) ) ;
#71 =( NAMED_UNIT ( * ) PLANE_ANGLE_UNIT ( ) SI_UNIT ( $, .RADIAN. ) );
#72 = EDGE_LOOP ( 'NONE', ( #202, #137, #216, #18 ) ) ;
#73 = PRESENTATION_LAYER_ASSIGNMENT (  '', '', ( #220 ) ) ;
#74 = FILL_AREA_STYLE ('',( #198 ) ) ;
#75 =( GEOMETRIC_REPRESENTATION_CONTEXT ( 3 ) GLOBAL_UNCERTAINTY_ASSIGNED_CONTEXT ( ( #35 ) ) GLOBAL_UNIT_ASSIGNED_CONTEXT ( ( #276, #11, #99 ) ) REPRESENTATION_CONTEXT ( 'NONE', 'WORKASPACE' ) );
#76 = SURFACE_STYLE_FILL_AREA ( #177 ) ;
#77 = EDGE_CURVE ( 'NONE', #269, #257, #301, .T. ) ;
#78 = ORIENTED_EDGE ( 'NONE', *, *, #5, .F. ) ;
#79 = DIRECTION ( 'NONE',  ( 0.000000000000000000, 0.000000000000000000, 1.000000000000000000 ) ) ;
#80 = AXIS2_PLACEMENT_3D ( 'NONE', #95, #41, #147 ) ;
#81 = SURFACE_STYLE_FILL_AREA ( #200 ) ;
#82 =( GEOMETRIC_REPRESENTATION_CONTEXT ( 3 ) GLOBAL_UNCERTAINTY_ASSIGNED_CONTEXT ( ( #100 ) ) GLOBAL_UNIT_ASSIGNED_CONTEXT ( ( #266, #309, #150 ) ) REPRESENTATION_CONTEXT ( 'NONE', 'WORKASPACE' ) );
#83 = CIRCLE ( 'NONE', #247, 0.2500000000000000000 ) ;
#84 = VERTEX_POINT ( 'NONE', #130 ) ;
#85 = CYLINDRICAL_SURFACE ( 'NONE', #125, 0.2500000000000000000 ) ;
#86 = LENGTH_MEASURE_WITH_UNIT ( LENGTH_MEASURE( 0.02539999999999999897 ), #28 );
#87 =( GEOMETRIC_REPRESENTATION_CONTEXT ( 3 ) GLOBAL_UNCERTAINTY_ASSIGNED_CONTEXT ( ( #192 ) ) GLOBAL_UNIT_ASSIGNED_CONTEXT ( ( #255, #116, #232 ) ) REPRESENTATION_CONTEXT ( 'NONE', 'WORKASPACE' ) );
#88 = CARTESIAN_POINT ( 'NONE',  ( 0.000000000000000000, 0.000000000000000000, -0.2500000000000000000 ) ) ;
#89 = EDGE_CURVE ( 'NONE', #191, #106, #184, .T. ) ;
#90 = ORIENTED_EDGE ( 'NONE', *, *, #77, .T. ) ;
#91 = DIRECTION ( 'NONE',  ( 0.000000000000000000, 0.000000000000000000, -1.000000000000000000 ) ) ;
#92 = FILL_AREA_STYLE_COLOUR ( '', #175 ) ;
#93 = ORIENTED_EDGE ( 'NONE', *, *, #245, .T. ) ;
#94 = COLOUR_RGB ( '',1.000000000000000000, 0.000000000000000000, 0.000000000000000000 ) ;
#95 = CARTESIAN_POINT ( 'NONE',  ( -1.224646799147354440E-16, 6.000000000000000888, 0.000000000000000000 ) ) ;
#96 = DIMENSIONAL_EXPONENTS ( 1.000000000000000000, 0.000000000000000000, 0.000000000000000000, 0.000000000000000000, 0.000000000000000000, 0.000000000000000000, 0.000000000000000000 ) ;
#97 = EDGE_CURVE ( 'NONE', #65, #119, #136, .T. ) ;
#98 = CARTESIAN_POINT ( 'NONE',  ( -0.2500000000000000000, 3.125000000000000000, 0.000000000000000000 ) ) ;
#99 =( NAMED_UNIT ( * ) SI_UNIT ( $, .STERADIAN. ) SOLID_ANGLE_UNIT ( ) );
#100 = UNCERTAINTY_MEASURE_WITH_UNIT (LENGTH_MEASURE( 1.000000000000000082E-05 ), #266, 'distance_accuracy_value', 'NONE');
#101 = COLOUR_RGB ( '',1.000000000000000000, 0.000000000000000000, 0.000000000000000000 ) ;
#102 = VECTOR ( 'NONE', #143, 39.37007874015748143 ) ;
#103 =( NAMED_UNIT ( * ) PLANE_ANGLE_UNIT ( ) SI_UNIT ( $, .RADIAN. ) );
#104 = CARTESIAN_POINT ( 'NONE',  ( 0.000000000000000000, 3.125000000000000000, 0.000000000000000000 ) ) ;
#105 = DIRECTION ( 'NONE',  ( 0.000000000000000000, -0.000000000000000000, 1.000000000000000000 ) ) ;
#106 = VERTEX_POINT ( 'NONE', #151 ) ;
#107 = SHAPE_DEFINITION_REPRESENTATION ( #44, #258 ) ;
#108 =( CONVERSION_BASED_UNIT ( 'INCH', #253 ) LENGTH_UNIT ( ) NAMED_UNIT ( #129 ) );
#109 = ORIENTED_EDGE ( 'NONE', *, *, #265, .T. ) ;
#110 = UNCERTAINTY_MEASURE_WITH_UNIT (LENGTH_MEASURE( 1.000000000000000082E-05 ), #4, 'distance_accuracy_value', 'NONE');
#111 = DIRECTION ( 'NONE',  ( -4.259641040512536405E-17, 1.000000000000000000, -0.000000000000000000 ) ) ;
#112 = MECHANICAL_DESIGN_GEOMETRIC_PRESENTATION_REPRESENTATION (  '', ( #174 ), #156 ) ;
#113 = STYLED_ITEM ( 'NONE', ( #146 ), #308 ) ;
#114 = DIRECTION ( 'NONE',  ( 1.000000000000000000, 4.259641040512536405E-17, 0.000000000000000000 ) ) ;
#115 = DIRECTION ( 'NONE',  ( 0.000000000000000000, 0.000000000000000000, -1.000000000000000000 ) ) ;
#116 =( NAMED_UNIT ( * ) PLANE_ANGLE_UNIT ( ) SI_UNIT ( $, .RADIAN. ) );
#117 = DIRECTION ( 'NONE',  ( -4.259641040512536405E-17, 1.000000000000000000, -0.000000000000000000 ) ) ;
#118 = CARTESIAN_POINT ( 'NONE',  ( 0.000000000000000000, 0.000000000000000000, 0.000000000000000000 ) ) ;
#119 = VERTEX_POINT ( 'NONE', #221 ) ;
#120 = STYLED_ITEM ( 'NONE', ( #1 ), #127 ) ;
#121 = CARTESIAN_POINT ( 'NONE',  ( 0.000000000000000000, 3.125000000000000000, -0.2500000000000000000 ) ) ;
#122 =( LENGTH_UNIT ( ) NAMED_UNIT ( * ) SI_UNIT ( $, .METRE. ) );
#123 = DIMENSIONAL_EXPONENTS ( 1.000000000000000000, 0.000000000000000000, 0.000000000000000000, 0.000000000000000000, 0.000000000000000000, 0.000000000000000000, 0.000000000000000000 ) ;
#124 = FACE_OUTER_BOUND ( 'NONE', #70, .T. ) ;
#125 = AXIS2_PLACEMENT_3D ( 'NONE', #118, #141, #91 ) ;
#126 = AXIS2_PLACEMENT_3D ( 'NONE', #226, #274, #291 ) ;
#127 = MANIFOLD_SOLID_BREP ( 'Revolve - Cutting Edge', #240 ) ;
#128 = PRESENTATION_LAYER_ASSIGNMENT (  '', '', ( #113 ) ) ;
#129 = DIMENSIONAL_EXPONENTS ( 1.000000000000000000, 0.000000000000000000, 0.000000000000000000, 0.000000000000000000, 0.000000000000000000, 0.000000000000000000, 0.000000000000000000 ) ;
#130 = CARTESIAN_POINT ( 'NONE',  ( 0.2500000000000000555, 3.125000000000000000, 3.061616997868384251E-17 ) ) ;
#131 = LENGTH_MEASURE_WITH_UNIT ( LENGTH_MEASURE( 0.02539999999999999897 ), #122 );
#132 = CIRCLE ( 'NONE', #297, 0.2500000000000000000 ) ;
#133 = APPLICATION_PROTOCOL_DEFINITION ( 'draft international standard', 'automotive_design', 1998, #282 ) ;
#134 = APPLICATION_PROTOCOL_DEFINITION ( 'draft international standard', 'automotive_design', 1998, #238 ) ;
#135 =( NAMED_UNIT ( * ) SI_UNIT ( $, .STERADIAN. ) SOLID_ANGLE_UNIT ( ) );
#136 = CIRCLE ( 'NONE', #33, 0.2500000000000000000 ) ;
#137 = ORIENTED_EDGE ( 'NONE', *, *, #149, .T. ) ;
#138 = ORIENTED_EDGE ( 'NONE', *, *, #242, .F. ) ;
#139 = DIRECTION ( 'NONE',  ( 0.000000000000000000, -1.000000000000000000, -0.000000000000000000 ) ) ;
#140 = AXIS2_PLACEMENT_3D ( 'NONE', #195, #36, #188 ) ;
#141 = DIRECTION ( 'NONE',  ( -0.000000000000000000, -1.000000000000000000, -0.000000000000000000 ) ) ;
#142 = DIRECTION ( 'NONE',  ( -1.000000000000000000, 0.000000000000000000, 0.000000000000000000 ) ) ;
#143 = DIRECTION ( 'NONE',  ( -4.259641040512536405E-17, 1.000000000000000000, -0.000000000000000000 ) ) ;
#144 = EDGE_CURVE ( 'NONE', #106, #191, #83, .T. ) ;
#145 =( LENGTH_UNIT ( ) NAMED_UNIT ( * ) SI_UNIT ( $, .METRE. ) );
#146 = PRESENTATION_STYLE_ASSIGNMENT (( #261 ) ) ;
#147 = DIRECTION ( 'NONE',  ( -1.000000000000000000, 0.000000000000000000, 0.000000000000000000 ) ) ;
#148 = PRESENTATION_LAYER_ASSIGNMENT (  '', '', ( #174 ) ) ;
#149 = EDGE_CURVE ( 'NONE', #106, #119, #47, .T. ) ;
#150 =( NAMED_UNIT ( * ) SI_UNIT ( $, .STERADIAN. ) SOLID_ANGLE_UNIT ( ) );
#151 = CARTESIAN_POINT ( 'NONE',  ( 3.061616997868383018E-17, 3.125000000000000000, 0.2500000000000000000 ) ) ;
#152 = COLOUR_RGB ( '',0.7921568627450980005, 0.8196078431372548767, 0.9333333333333333481 ) ;
#153 = CARTESIAN_POINT ( 'NONE',  ( 3.061616997868383018E-17, 0.000000000000000000, 0.2500000000000000000 ) ) ;
#154 = DIRECTION ( 'NONE',  ( 0.000000000000000000, 0.000000000000000000, -1.000000000000000000 ) ) ;
#155 = ADVANCED_FACE ( 'NONE', ( #124 ), #249, .T. ) ;
#156 =( GEOMETRIC_REPRESENTATION_CONTEXT ( 3 ) GLOBAL_UNCERTAINTY_ASSIGNED_CONTEXT ( ( #110 ) ) GLOBAL_UNIT_ASSIGNED_CONTEXT ( ( #4, #103, #296 ) ) REPRESENTATION_CONTEXT ( 'NONE', 'WORKASPACE' ) );
#157 =( LENGTH_UNIT ( ) NAMED_UNIT ( * ) SI_UNIT ( $, .METRE. ) );
#158 =( NAMED_UNIT ( * ) PLANE_ANGLE_UNIT ( ) SI_UNIT ( $, .RADIAN. ) );
#159 = ORIENTED_EDGE ( 'NONE', *, *, #5, .T. ) ;
#160 = VECTOR ( 'NONE', #49, 39.37007874015748143 ) ;
#161 = FACE_OUTER_BOUND ( 'NONE', #59, .T. ) ;
#162 = PLANE ( 'NONE',  #304 ) ;
#163 = ORIENTED_EDGE ( 'NONE', *, *, #89, .F. ) ;
#164 = VECTOR ( 'NONE', #26, 39.37007874015748143 ) ;
#165 = PRESENTATION_STYLE_ASSIGNMENT (( #67 ) ) ;
#166 = SURFACE_STYLE_USAGE ( .BOTH. , #194 ) ;
#167 = SURFACE_SIDE_STYLE ('',( #281 ) ) ;
#168 = EDGE_LOOP ( 'NONE', ( #254, #227 ) ) ;
#169 = FILL_AREA_STYLE_COLOUR ( '', #101 ) ;
#170 = EDGE_CURVE ( 'NONE', #119, #65, #12, .T. ) ;
#171 = AXIS2_PLACEMENT_3D ( 'NONE', #14, #10, #306 ) ;
#172 =( LENGTH_UNIT ( ) NAMED_UNIT ( * ) SI_UNIT ( $, .METRE. ) );
#173 = SURFACE_STYLE_USAGE ( .BOTH. , #287 ) ;
#174 = STYLED_ITEM ( 'NONE', ( #286 ), #155 ) ;
#175 = COLOUR_RGB ( '',1.000000000000000000, 0.000000000000000000, 0.000000000000000000 ) ;
#176 = DIRECTION ( 'NONE',  ( -0.000000000000000000, -1.000000000000000000, -0.000000000000000000 ) ) ;
#177 = FILL_AREA_STYLE ('',( #27 ) ) ;
#178 = SURFACE_SIDE_STYLE ('',( #81 ) ) ;
#179 = ORIENTED_EDGE ( 'NONE', *, *, #77, .F. ) ;
#180 = ADVANCED_FACE ( 'NONE', ( #29 ), #85, .T. ) ;
#181 = STYLED_ITEM ( 'NONE', ( #165 ), #230 ) ;
#182 = ORIENTED_EDGE ( 'NONE', *, *, #149, .F. ) ;
#183 = DIRECTION ( 'NONE',  ( -0.000000000000000000, -1.000000000000000000, -0.000000000000000000 ) ) ;
#184 = CIRCLE ( 'NONE', #19, 0.2500000000000000000 ) ;
#185 =( GEOMETRIC_REPRESENTATION_CONTEXT ( 3 ) GLOBAL_UNCERTAINTY_ASSIGNED_CONTEXT ( ( #8 ) ) GLOBAL_UNIT_ASSIGNED_CONTEXT ( ( #46, #71, #57 ) ) REPRESENTATION_CONTEXT ( 'NONE', 'WORKASPACE' ) );
#186 = FACE_OUTER_BOUND ( 'NONE', #299, .T. ) ;
#187 = FACE_OUTER_BOUND ( 'NONE', #229, .T. ) ;
#188 = DIRECTION ( 'NONE',  ( -1.000000000000000000, 0.000000000000000000, 0.000000000000000000 ) ) ;
#189 = CARTESIAN_POINT ( 'NONE',  ( -0.2500000000000002220, 6.000000000000000888, 0.000000000000000000 ) ) ;
#190 = FILL_AREA_STYLE ('',( #92 ) ) ;
#191 = VERTEX_POINT ( 'NONE', #121 ) ;
#192 = UNCERTAINTY_MEASURE_WITH_UNIT (LENGTH_MEASURE( 1.000000000000000082E-05 ), #255, 'distance_accuracy_value', 'NONE');
#193 = FACE_OUTER_BOUND ( 'NONE', #72, .T. ) ;
#194 = SURFACE_SIDE_STYLE ('',( #235 ) ) ;
#195 = CARTESIAN_POINT ( 'NONE',  ( -1.224646799147354440E-16, 6.000000000000000888, 0.000000000000000000 ) ) ;
#196 = AXIS2_PLACEMENT_3D ( 'NONE', #37, #139, #115 ) ;
#197 = DIRECTION ( 'NONE',  ( 0.000000000000000000, 0.000000000000000000, -1.000000000000000000 ) ) ;
#198 = FILL_AREA_STYLE_COLOUR ( '', #217 ) ;
#199 = DIRECTION ( 'NONE',  ( -0.000000000000000000, -1.000000000000000000, -0.000000000000000000 ) ) ;
#200 = FILL_AREA_STYLE ('',( #225 ) ) ;
#201 = CARTESIAN_POINT ( 'NONE',  ( 0.000000000000000000, 0.000000000000000000, 0.000000000000000000 ) ) ;
#202 = ORIENTED_EDGE ( 'NONE', *, *, #89, .T. ) ;
#203 = UNCERTAINTY_MEASURE_WITH_UNIT (LENGTH_MEASURE( 1.000000000000000082E-05 ), #108, 'distance_accuracy_value', 'NONE');
#204 = ADVANCED_FACE ( 'NONE', ( #20 ), #162, .F. ) ;
#205 = DIRECTION ( 'NONE',  ( 0.000000000000000000, 1.000000000000000000, 0.000000000000000000 ) ) ;
#206 = DIRECTION ( 'NONE',  ( 4.259641040512536405E-17, -1.000000000000000000, 0.000000000000000000 ) ) ;
#207 = PRESENTATION_LAYER_ASSIGNMENT (  '', '', ( #38 ) ) ;
#208 = PLANE ( 'NONE',  #196 ) ;
#209 = CARTESIAN_POINT ( 'NONE',  ( 2.268067724252340606E-34, 3.125000000000000000, 0.000000000000000000 ) ) ;
#210 = PRODUCT_RELATED_PRODUCT_CATEGORY ( 'part', '', ( #24 ) ) ;
#211 = CARTESIAN_POINT ( 'NONE',  ( 0.000000000000000000, 0.000000000000000000, -0.2500000000000000000 ) ) ;
#212 = CARTESIAN_POINT ( 'NONE',  ( 0.2500000000000000555, 6.000000000000000888, 3.061616997868384251E-17 ) ) ;
#213 = ORIENTED_EDGE ( 'NONE', *, *, #144, .T. ) ;
#214 = FILL_AREA_STYLE_COLOUR ( '', #152 ) ;
#215 = CLOSED_SHELL ( 'NONE', ( #22, #250, #34, #204 ) ) ;
#216 = ORIENTED_EDGE ( 'NONE', *, *, #97, .F. ) ;
#217 = COLOUR_RGB ( '',0.7921568627450980005, 0.8196078431372548767, 0.9333333333333333481 ) ;
#218 = PRODUCT_DEFINITION_CONTEXT ( 'detailed design', #282, 'design' ) ;
#219 = FILL_AREA_STYLE ('',( #214 ) ) ;
#220 = STYLED_ITEM ( 'NONE', ( #260 ), #52 ) ;
#221 = CARTESIAN_POINT ( 'NONE',  ( 3.061616997868383018E-17, 0.000000000000000000, 0.2500000000000000000 ) ) ;
#222 = LENGTH_MEASURE_WITH_UNIT ( LENGTH_MEASURE( 0.02539999999999999897 ), #268 );
#223 = MECHANICAL_DESIGN_GEOMETRIC_PRESENTATION_REPRESENTATION (  '', ( #220 ), #75 ) ;
#224 = PRODUCT_CONTEXT ( 'NONE', #238, 'mechanical' ) ;
#225 = FILL_AREA_STYLE_COLOUR ( '', #94 ) ;
#226 = CARTESIAN_POINT ( 'NONE',  ( 0.000000000000000000, 0.000000000000000000, 0.000000000000000000 ) ) ;
#227 = ORIENTED_EDGE ( 'NONE', *, *, #233, .T. ) ;
#228 = AXIS2_PLACEMENT_3D ( 'NONE', #231, #205, #105 ) ;
#229 = EDGE_LOOP ( 'NONE', ( #278, #159, #90, #9 ) ) ;
#230 = MANIFOLD_SOLID_BREP ( 'Revolve - Tool Body (Straight Shanked)', #215 ) ;
#231 = CARTESIAN_POINT ( 'NONE',  ( 0.000000000000000000, 3.125000000000000000, 0.000000000000000000 ) ) ;
#232 =( NAMED_UNIT ( * ) SI_UNIT ( $, .STERADIAN. ) SOLID_ANGLE_UNIT ( ) );
#233 = EDGE_CURVE ( 'NONE', #273, #257, #264, .T. ) ;
#234 = PLANE ( 'NONE',  #2 ) ;
#235 = SURFACE_STYLE_FILL_AREA ( #280 ) ;
#236 = SURFACE_SIDE_STYLE ('',( #61 ) ) ;
#237 = CARTESIAN_POINT ( 'NONE',  ( 0.000000000000000000, 3.125000000000000000, 0.000000000000000000 ) ) ;
#238 = APPLICATION_CONTEXT ( 'automotive_design' ) ;
#239 = DIRECTION ( 'NONE',  ( -4.259641040512536405E-17, 1.000000000000000000, 0.000000000000000000 ) ) ;
#240 = CLOSED_SHELL ( 'NONE', ( #308, #155, #180, #52 ) ) ;
#241 = MECHANICAL_DESIGN_GEOMETRIC_PRESENTATION_REPRESENTATION (  '', ( #181 ), #87 ) ;
#242 = EDGE_CURVE ( 'NONE', #269, #84, #132, .T. ) ;
#243 = DIMENSIONAL_EXPONENTS ( 1.000000000000000000, 0.000000000000000000, 0.000000000000000000, 0.000000000000000000, 0.000000000000000000, 0.000000000000000000, 0.000000000000000000 ) ;
#244 = CARTESIAN_POINT ( 'NONE',  ( 0.000000000000000000, 0.000000000000000000, 0.000000000000000000 ) ) ;
#245 = EDGE_CURVE ( 'NONE', #191, #65, #298, .T. ) ;
#246 = SURFACE_SIDE_STYLE ('',( #76 ) ) ;
#247 = AXIS2_PLACEMENT_3D ( 'NONE', #23, #176, #154 ) ;
#248 = SURFACE_STYLE_USAGE ( .BOTH. , #246 ) ;
#249 = PLANE ( 'NONE',  #228 ) ;
#250 = ADVANCED_FACE ( 'NONE', ( #186 ), #234, .F. ) ;
#251 = MECHANICAL_DESIGN_GEOMETRIC_PRESENTATION_REPRESENTATION (  '', ( #120 ), #82 ) ;
#252 =( NAMED_UNIT ( * ) SI_UNIT ( $, .STERADIAN. ) SOLID_ANGLE_UNIT ( ) );
#253 = LENGTH_MEASURE_WITH_UNIT ( LENGTH_MEASURE( 0.02539999999999999897 ), #157 );
#254 = ORIENTED_EDGE ( 'NONE', *, *, #285, .T. ) ;
#255 =( CONVERSION_BASED_UNIT ( 'INCH', #62 ) LENGTH_UNIT ( ) NAMED_UNIT ( #51 ) );
#256 = CYLINDRICAL_SURFACE ( 'NONE', #7, 0.2500000000000000555 ) ;
#257 = VERTEX_POINT ( 'NONE', #275 ) ;
#258 = ADVANCED_BREP_SHAPE_REPRESENTATION ( '01525', ( #127, #230, #43 ), #66 ) ;
#259 = DIRECTION ( 'NONE',  ( -1.000000000000000000, 0.000000000000000000, 0.000000000000000000 ) ) ;
#260 = PRESENTATION_STYLE_ASSIGNMENT (( #166 ) ) ;
#261 = SURFACE_STYLE_USAGE ( .BOTH. , #167 ) ;
#262 = ORIENTED_EDGE ( 'NONE', *, *, #242, .T. ) ;
#263 = AXIS2_PLACEMENT_3D ( 'NONE', #237, #15, #142 ) ;
#264 = CIRCLE ( 'NONE', #171, 0.2500000000000001110 ) ;
#265 = EDGE_CURVE ( 'NONE', #84, #273, #305, .T. ) ;
#266 =( CONVERSION_BASED_UNIT ( 'INCH', #3 ) LENGTH_UNIT ( ) NAMED_UNIT ( #243 ) );
#267 = COLOUR_RGB ( '',1.000000000000000000, 0.000000000000000000, 0.000000000000000000 ) ;
#268 =( LENGTH_UNIT ( ) NAMED_UNIT ( * ) SI_UNIT ( $, .METRE. ) );
#269 = VERTEX_POINT ( 'NONE', #98 ) ;
#270 = CIRCLE ( 'NONE', #140, 0.2500000000000001110 ) ;
#271 =( CONVERSION_BASED_UNIT ( 'INCH', #86 ) LENGTH_UNIT ( ) NAMED_UNIT ( #30 ) );
#272 = CARTESIAN_POINT ( 'NONE',  ( 0.000000000000000000, 0.000000000000000000, 0.000000000000000000 ) ) ;
#273 = VERTEX_POINT ( 'NONE', #212 ) ;
#274 = DIRECTION ( 'NONE',  ( -0.000000000000000000, -1.000000000000000000, -0.000000000000000000 ) ) ;
#275 = CARTESIAN_POINT ( 'NONE',  ( -0.2500000000000002776, 6.000000000000000888, 0.000000000000000000 ) ) ;
#276 =( CONVERSION_BASED_UNIT ( 'INCH', #21 ) LENGTH_UNIT ( ) NAMED_UNIT ( #96 ) );
#277 = CARTESIAN_POINT ( 'NONE',  ( 0.000000000000000000, 3.125000000000000000, 0.000000000000000000 ) ) ;
#278 = ORIENTED_EDGE ( 'NONE', *, *, #265, .F. ) ;
#279 = DIRECTION ( 'NONE',  ( -0.000000000000000000, -1.000000000000000000, -0.000000000000000000 ) ) ;
#280 = FILL_AREA_STYLE ('',( #169 ) ) ;
#281 = SURFACE_STYLE_FILL_AREA ( #190 ) ;
#282 = APPLICATION_CONTEXT ( 'automotive_design' ) ;
#283 = EDGE_LOOP ( 'NONE', ( #182, #213, #93, #6 ) ) ;
#284 = ORIENTED_EDGE ( 'NONE', *, *, #97, .T. ) ;
#285 = EDGE_CURVE ( 'NONE', #257, #273, #270, .T. ) ;
#286 = PRESENTATION_STYLE_ASSIGNMENT (( #248 ) ) ;
#287 = SURFACE_SIDE_STYLE ('',( #288 ) ) ;
#288 = SURFACE_STYLE_FILL_AREA ( #74 ) ;
#289 = MECHANICAL_DESIGN_GEOMETRIC_PRESENTATION_REPRESENTATION (  '', ( #38 ), #42 ) ;
#290 = PRODUCT_DEFINITION_FORMATION_WITH_SPECIFIED_SOURCE ( 'ANY', '', #24, .NOT_KNOWN. ) ;
#291 = DIRECTION ( 'NONE',  ( 0.000000000000000000, 0.000000000000000000, -1.000000000000000000 ) ) ;
#292 = PRODUCT_DEFINITION ( 'UNKNOWN', '', #290, #218 ) ;
#293 = PRESENTATION_STYLE_ASSIGNMENT (( #54 ) ) ;
#294 = ORIENTED_EDGE ( 'NONE', *, *, #285, .F. ) ;
#295 = DIRECTION ( 'NONE',  ( 1.000000000000000000, 0.000000000000000000, 0.000000000000000000 ) ) ;
#296 =( NAMED_UNIT ( * ) SI_UNIT ( $, .STERADIAN. ) SOLID_ANGLE_UNIT ( ) );
#297 = AXIS2_PLACEMENT_3D ( 'NONE', #277, #111, #259 ) ;
#298 = LINE ( 'NONE', #88, #31 ) ;
#299 = EDGE_LOOP ( 'NONE', ( #138, #78 ) ) ;
#300 = DIRECTION ( 'NONE',  ( -1.000000000000000000, -4.259641040512536405E-17, 0.000000000000000000 ) ) ;
#301 = LINE ( 'NONE', #189, #160 ) ;
#302 = CYLINDRICAL_SURFACE ( 'NONE', #126, 0.2500000000000000000 ) ;
#303 = DIRECTION ( 'NONE',  ( -1.000000000000000000, 0.000000000000000000, 0.000000000000000000 ) ) ;
#304 = AXIS2_PLACEMENT_3D ( 'NONE', #16, #206, #114 ) ;
#305 = LINE ( 'NONE', #64, #102 ) ;
#306 = DIRECTION ( 'NONE',  ( -1.000000000000000000, 0.000000000000000000, 0.000000000000000000 ) ) ;
#307 = CARTESIAN_POINT ( 'NONE',  ( -1.224646799147354440E-16, 6.000000000000000888, 0.000000000000000000 ) ) ;
#308 = ADVANCED_FACE ( 'NONE', ( #193 ), #302, .T. ) ;
#309 =( NAMED_UNIT ( * ) PLANE_ANGLE_UNIT ( ) SI_UNIT ( $, .RADIAN. ) );
ENDSEC;
END-ISO-10303-21;
