ISO-10303-21;
HEADER;
FILE_DESCRIPTION (( 'STEP AP214' ),
    '1' );
FILE_NAME ('00615.STEP',
    '2023-06-22T14:12:32',
    ( '' ),
    ( '' ),
    'SwSTEP 2.0',
    'SolidWorks 2023',
    '' );
FILE_SCHEMA (( 'AUTOMOTIVE_DESIGN' ));
ENDSEC;

DATA;
#1 = LENGTH_MEASURE_WITH_UNIT ( LENGTH_MEASURE( 0.02539999999999999897 ), #217 );
#2 =( CONVERSION_BASED_UNIT ( 'INCH', #54 ) LENGTH_UNIT ( ) NAMED_UNIT ( #221 ) );
#3 = PRESENTATION_LAYER_ASSIGNMENT (  '', '', ( #205 ) ) ;
#4 = DIRECTION ( 'NONE',  ( -0.000000000000000000, -1.000000000000000000, -0.000000000000000000 ) ) ;
#5 = CARTESIAN_POINT ( 'NONE',  ( 3.827021247335478926E-17, 3.750000000000000000, 0.3125000000000000000 ) ) ;
#6 = EDGE_LOOP ( 'NONE', ( #228, #59, #236, #158 ) ) ;
#7 = VECTOR ( 'NONE', #165, 39.37007874015748143 ) ;
#8 =( NAMED_UNIT ( * ) PLANE_ANGLE_UNIT ( ) SI_UNIT ( $, .RADIAN. ) );
#9 = SURFACE_SIDE_STYLE ('',( #133 ) ) ;
#10 = VERTEX_POINT ( 'NONE', #257 ) ;
#11 = PLANE ( 'NONE',  #138 ) ;
#12 = COLOUR_RGB ( '',1.000000000000000000, 0.000000000000000000, 0.000000000000000000 ) ;
#13 = CARTESIAN_POINT ( 'NONE',  ( -0.3125000000000000000, 3.750000000000000000, 0.000000000000000000 ) ) ;
#14 = CARTESIAN_POINT ( 'NONE',  ( 1.516480271171051896E-32, 3.750000000000000000, 0.000000000000000000 ) ) ;
#15 = EDGE_CURVE ( 'NONE', #27, #52, #280, .T. ) ;
#16 =( NAMED_UNIT ( * ) SI_UNIT ( $, .STERADIAN. ) SOLID_ANGLE_UNIT ( ) );
#17 = STYLED_ITEM ( 'NONE', ( #92 ), #175 ) ;
#18 =( LENGTH_UNIT ( ) NAMED_UNIT ( * ) SI_UNIT ( $, .METRE. ) );
#19 = DIRECTION ( 'NONE',  ( 0.000000000000000000, -0.000000000000000000, 1.000000000000000000 ) ) ;
#20 = FILL_AREA_STYLE_COLOUR ( '', #104 ) ;
#21 = AXIS2_PLACEMENT_3D ( 'NONE', #106, #207, #255 ) ;
#22 = COLOUR_RGB ( '',1.000000000000000000, 0.000000000000000000, 0.000000000000000000 ) ;
#23 = EDGE_CURVE ( 'NONE', #52, #27, #265, .T. ) ;
#24 = DIRECTION ( 'NONE',  ( -5.442874662877130638E-17, 1.000000000000000000, -0.000000000000000000 ) ) ;
#25 = APPLICATION_PROTOCOL_DEFINITION ( 'draft international standard', 'automotive_design', 1998, #244 ) ;
#26 = DIMENSIONAL_EXPONENTS ( 1.000000000000000000, 0.000000000000000000, 0.000000000000000000, 0.000000000000000000, 0.000000000000000000, 0.000000000000000000, 0.000000000000000000 ) ;
#27 = VERTEX_POINT ( 'NONE', #5 ) ;
#28 = ORIENTED_EDGE ( 'NONE', *, *, #197, .F. ) ;
#29 = DIMENSIONAL_EXPONENTS ( 1.000000000000000000, 0.000000000000000000, 0.000000000000000000, 0.000000000000000000, 0.000000000000000000, 0.000000000000000000, 0.000000000000000000 ) ;
#30 = FACE_OUTER_BOUND ( 'NONE', #6, .T. ) ;
#31 = FILL_AREA_STYLE ('',( #129 ) ) ;
#32 = STYLED_ITEM ( 'NONE', ( #229 ), #234 ) ;
#33 =( NAMED_UNIT ( * ) SI_UNIT ( $, .STERADIAN. ) SOLID_ANGLE_UNIT ( ) );
#34 = CARTESIAN_POINT ( 'NONE',  ( 0.000000000000000000, 3.750000000000000000, 0.000000000000000000 ) ) ;
#35 = EDGE_CURVE ( 'NONE', #52, #10, #100, .T. ) ;
#36 = DIRECTION ( 'NONE',  ( -1.000000000000000000, 0.000000000000000000, 0.000000000000000000 ) ) ;
#37 = CIRCLE ( 'NONE', #252, 0.3125000000000000000 ) ;
#38 =( NAMED_UNIT ( * ) SI_UNIT ( $, .STERADIAN. ) SOLID_ANGLE_UNIT ( ) );
#39 =( CONVERSION_BASED_UNIT ( 'INCH', #166 ) LENGTH_UNIT ( ) NAMED_UNIT ( #145 ) );
#40 = SURFACE_STYLE_FILL_AREA ( #187 ) ;
#41 =( GEOMETRIC_REPRESENTATION_CONTEXT ( 3 ) GLOBAL_UNCERTAINTY_ASSIGNED_CONTEXT ( ( #273 ) ) GLOBAL_UNIT_ASSIGNED_CONTEXT ( ( #196, #45, #287 ) ) REPRESENTATION_CONTEXT ( 'NONE', 'WORKASPACE' ) );
#42 = AXIS2_PLACEMENT_3D ( 'NONE', #81, #176, #270 ) ;
#43 = DIRECTION ( 'NONE',  ( -0.000000000000000000, -1.000000000000000000, -0.000000000000000000 ) ) ;
#44 = PRODUCT_RELATED_PRODUCT_CATEGORY ( 'part', '', ( #127 ) ) ;
#45 =( NAMED_UNIT ( * ) PLANE_ANGLE_UNIT ( ) SI_UNIT ( $, .RADIAN. ) );
#46 = DIRECTION ( 'NONE',  ( -5.442874662877130638E-17, 1.000000000000000000, -0.000000000000000000 ) ) ;
#47 = DIMENSIONAL_EXPONENTS ( 1.000000000000000000, 0.000000000000000000, 0.000000000000000000, 0.000000000000000000, 0.000000000000000000, 0.000000000000000000, 0.000000000000000000 ) ;
#48 = LINE ( 'NONE', #148, #77 ) ;
#49 = EDGE_LOOP ( 'NONE', ( #271, #253, #204, #84 ) ) ;
#50 = STYLED_ITEM ( 'NONE', ( #151 ), #284 ) ;
#51 = SURFACE_STYLE_FILL_AREA ( #85 ) ;
#52 = VERTEX_POINT ( 'NONE', #55 ) ;
#53 = DIMENSIONAL_EXPONENTS ( 1.000000000000000000, 0.000000000000000000, 0.000000000000000000, 0.000000000000000000, 0.000000000000000000, 0.000000000000000000, 0.000000000000000000 ) ;
#54 = LENGTH_MEASURE_WITH_UNIT ( LENGTH_MEASURE( 0.02539999999999999897 ), #293 );
#55 = CARTESIAN_POINT ( 'NONE',  ( 0.000000000000000000, 3.750000000000000000, -0.3125000000000000000 ) ) ;
#56 = ORIENTED_EDGE ( 'NONE', *, *, #73, .T. ) ;
#57 = LENGTH_MEASURE_WITH_UNIT ( LENGTH_MEASURE( 0.02539999999999999897 ), #203 );
#58 = VECTOR ( 'NONE', #294, 39.37007874015748143 ) ;
#59 = ORIENTED_EDGE ( 'NONE', *, *, #258, .T. ) ;
#60 = APPLICATION_CONTEXT ( 'automotive_design' ) ;
#61 = EDGE_CURVE ( 'NONE', #102, #10, #103, .T. ) ;
#62 = MECHANICAL_DESIGN_GEOMETRIC_PRESENTATION_REPRESENTATION (  '', ( #32 ), #286 ) ;
#63 =( LENGTH_UNIT ( ) NAMED_UNIT ( * ) SI_UNIT ( $, .METRE. ) );
#64 = DIRECTION ( 'NONE',  ( -5.442874662877130638E-17, 1.000000000000000000, -0.000000000000000000 ) ) ;
#65 = LENGTH_MEASURE_WITH_UNIT ( LENGTH_MEASURE( 0.02539999999999999897 ), #18 );
#66 = CARTESIAN_POINT ( 'NONE',  ( 0.000000000000000000, 3.750000000000000000, 0.000000000000000000 ) ) ;
#67 = PRODUCT_CONTEXT ( 'NONE', #60, 'mechanical' ) ;
#68 = AXIS2_PLACEMENT_3D ( 'NONE', #14, #264, #36 ) ;
#69 = MECHANICAL_DESIGN_GEOMETRIC_PRESENTATION_REPRESENTATION (  '', ( #50 ), #180 ) ;
#70 = SURFACE_STYLE_USAGE ( .BOTH. , #289 ) ;
#71 = MANIFOLD_SOLID_BREP ( 'Revolve - Tool Body (Straight Shanked)', #231 ) ;
#72 = SURFACE_SIDE_STYLE ('',( #169 ) ) ;
#73 = EDGE_CURVE ( 'NONE', #126, #182, #304, .T. ) ;
#74 = CARTESIAN_POINT ( 'NONE',  ( -1.224646799147354440E-16, 6.000000000000000888, 0.000000000000000000 ) ) ;
#75 = SHAPE_DEFINITION_REPRESENTATION ( #153, #93 ) ;
#76 = AXIS2_PLACEMENT_3D ( 'NONE', #128, #275, #161 ) ;
#77 = VECTOR ( 'NONE', #250, 39.37007874015748143 ) ;
#78 = FILL_AREA_STYLE_COLOUR ( '', #22 ) ;
#79 = CARTESIAN_POINT ( 'NONE',  ( 0.3125000000000000000, 6.000000000000000888, 0.000000000000000000 ) ) ;
#80 = ORIENTED_EDGE ( 'NONE', *, *, #258, .F. ) ;
#81 = CARTESIAN_POINT ( 'NONE',  ( 0.000000000000000000, 0.000000000000000000, 0.000000000000000000 ) ) ;
#82 = ORIENTED_EDGE ( 'NONE', *, *, #23, .F. ) ;
#83 = DIRECTION ( 'NONE',  ( 5.442874662877130022E-17, -1.000000000000000000, 0.000000000000000000 ) ) ;
#84 = ORIENTED_EDGE ( 'NONE', *, *, #35, .F. ) ;
#85 = FILL_AREA_STYLE ('',( #199 ) ) ;
#86 = ORIENTED_EDGE ( 'NONE', *, *, #155, .F. ) ;
#87 = FACE_OUTER_BOUND ( 'NONE', #272, .T. ) ;
#88 = STYLED_ITEM ( 'NONE', ( #238 ), #95 ) ;
#89 =( GEOMETRIC_REPRESENTATION_CONTEXT ( 3 ) GLOBAL_UNCERTAINTY_ASSIGNED_CONTEXT ( ( #202 ) ) GLOBAL_UNIT_ASSIGNED_CONTEXT ( ( #108, #262, #170 ) ) REPRESENTATION_CONTEXT ( 'NONE', 'WORKASPACE' ) );
#90 = CARTESIAN_POINT ( 'NONE',  ( 0.000000000000000000, 0.000000000000000000, 0.000000000000000000 ) ) ;
#91 = ADVANCED_FACE ( 'NONE', ( #30 ), #215, .T. ) ;
#92 = PRESENTATION_STYLE_ASSIGNMENT (( #194 ) ) ;
#93 = ADVANCED_BREP_SHAPE_REPRESENTATION ( '00615', ( #175, #71, #297 ), #89 ) ;
#94 = FILL_AREA_STYLE ('',( #20 ) ) ;
#95 = ADVANCED_FACE ( 'NONE', ( #87 ), #282, .T. ) ;
#96 =( NAMED_UNIT ( * ) PLANE_ANGLE_UNIT ( ) SI_UNIT ( $, .RADIAN. ) );
#97 = LINE ( 'NONE', #256, #150 ) ;
#98 = DIRECTION ( 'NONE',  ( 0.000000000000000000, 0.000000000000000000, -1.000000000000000000 ) ) ;
#99 = ADVANCED_FACE ( 'NONE', ( #281 ), #137, .T. ) ;
#100 = LINE ( 'NONE', #201, #58 ) ;
#101 = CARTESIAN_POINT ( 'NONE',  ( 0.000000000000000000, 0.000000000000000000, 0.000000000000000000 ) ) ;
#102 = VERTEX_POINT ( 'NONE', #263 ) ;
#103 = CIRCLE ( 'NONE', #21, 0.3125000000000000000 ) ;
#104 = COLOUR_RGB ( '',0.7921568627450980005, 0.8196078431372548767, 0.9333333333333333481 ) ;
#105 = FACE_OUTER_BOUND ( 'NONE', #185, .T. ) ;
#106 = CARTESIAN_POINT ( 'NONE',  ( 0.000000000000000000, 0.000000000000000000, 0.000000000000000000 ) ) ;
#107 = SURFACE_STYLE_USAGE ( .BOTH. , #9 ) ;
#108 =( CONVERSION_BASED_UNIT ( 'INCH', #301 ) LENGTH_UNIT ( ) NAMED_UNIT ( #47 ) );
#109 = ORIENTED_EDGE ( 'NONE', *, *, #188, .T. ) ;
#110 =( GEOMETRIC_REPRESENTATION_CONTEXT ( 3 ) GLOBAL_UNCERTAINTY_ASSIGNED_CONTEXT ( ( #195 ) ) GLOBAL_UNIT_ASSIGNED_CONTEXT ( ( #112, #213, #16 ) ) REPRESENTATION_CONTEXT ( 'NONE', 'WORKASPACE' ) );
#111 = CARTESIAN_POINT ( 'NONE',  ( 4.628888218092162582E-34, 3.750000000000000000, 0.000000000000000000 ) ) ;
#112 =( CONVERSION_BASED_UNIT ( 'INCH', #65 ) LENGTH_UNIT ( ) NAMED_UNIT ( #29 ) );
#113 = PRODUCT_DEFINITION ( 'UNKNOWN', '', #139, #154 ) ;
#114 = DIRECTION ( 'NONE',  ( -5.442874662877130638E-17, 1.000000000000000000, -0.000000000000000000 ) ) ;
#115 =( NAMED_UNIT ( * ) PLANE_ANGLE_UNIT ( ) SI_UNIT ( $, .RADIAN. ) );
#116 = COLOUR_RGB ( '',1.000000000000000000, 0.000000000000000000, 0.000000000000000000 ) ;
#117 = DIRECTION ( 'NONE',  ( -1.000000000000000000, 0.000000000000000000, 0.000000000000000000 ) ) ;
#118 = PRESENTATION_STYLE_ASSIGNMENT (( #70 ) ) ;
#119 = ADVANCED_FACE ( 'NONE', ( #237 ), #11, .F. ) ;
#120 = AXIS2_PLACEMENT_3D ( 'NONE', #241, #64, #285 ) ;
#121 = APPLICATION_PROTOCOL_DEFINITION ( 'draft international standard', 'automotive_design', 1998, #60 ) ;
#122 = DIRECTION ( 'NONE',  ( -1.000000000000000000, 0.000000000000000000, 0.000000000000000000 ) ) ;
#123 = AXIS2_PLACEMENT_3D ( 'NONE', #79, #83, #181 ) ;
#124 = EDGE_CURVE ( 'NONE', #126, #149, #269, .T. ) ;
#125 = PRESENTATION_LAYER_ASSIGNMENT (  '', '', ( #50 ) ) ;
#126 = VERTEX_POINT ( 'NONE', #13 ) ;
#127 = PRODUCT ( '00615', '00615', '', ( #67 ) ) ;
#128 = CARTESIAN_POINT ( 'NONE',  ( 0.000000000000000000, 3.750000000000000000, 0.000000000000000000 ) ) ;
#129 = FILL_AREA_STYLE_COLOUR ( '', #239 ) ;
#130 = ADVANCED_FACE ( 'NONE', ( #246 ), #249, .T. ) ;
#131 = MECHANICAL_DESIGN_GEOMETRIC_PRESENTATION_REPRESENTATION (  '', ( #88 ), #266 ) ;
#132 =( CONVERSION_BASED_UNIT ( 'INCH', #57 ) LENGTH_UNIT ( ) NAMED_UNIT ( #26 ) );
#133 = SURFACE_STYLE_FILL_AREA ( #31 ) ;
#134 = PLANE ( 'NONE',  #42 ) ;
#135 = ORIENTED_EDGE ( 'NONE', *, *, #155, .T. ) ;
#136 = DIRECTION ( 'NONE',  ( -0.000000000000000000, -1.000000000000000000, -0.000000000000000000 ) ) ;
#137 = CYLINDRICAL_SURFACE ( 'NONE', #120, 0.3125000000000000555 ) ;
#138 = AXIS2_PLACEMENT_3D ( 'NONE', #111, #212, #163 ) ;
#139 = PRODUCT_DEFINITION_FORMATION_WITH_SPECIFIED_SOURCE ( 'ANY', '', #127, .NOT_KNOWN. ) ;
#140 = DIRECTION ( 'NONE',  ( 0.000000000000000000, 0.000000000000000000, -1.000000000000000000 ) ) ;
#141 = LENGTH_MEASURE_WITH_UNIT ( LENGTH_MEASURE( 0.02539999999999999897 ), #223 );
#142 = CARTESIAN_POINT ( 'NONE',  ( 0.000000000000000000, 0.000000000000000000, 0.000000000000000000 ) ) ;
#143 = SURFACE_STYLE_FILL_AREA ( #171 ) ;
#144 = AXIS2_PLACEMENT_3D ( 'NONE', #74, #46, #122 ) ;
#145 = DIMENSIONAL_EXPONENTS ( 1.000000000000000000, 0.000000000000000000, 0.000000000000000000, 0.000000000000000000, 0.000000000000000000, 0.000000000000000000, 0.000000000000000000 ) ;
#146 = DIRECTION ( 'NONE',  ( 0.000000000000000000, 1.000000000000000000, 0.000000000000000000 ) ) ;
#147 = CARTESIAN_POINT ( 'NONE',  ( 1.516480271171051896E-32, 3.750000000000000000, 0.000000000000000000 ) ) ;
#148 = CARTESIAN_POINT ( 'NONE',  ( 3.827021247335478926E-17, 0.000000000000000000, 0.3125000000000000000 ) ) ;
#149 = VERTEX_POINT ( 'NONE', #268 ) ;
#150 = VECTOR ( 'NONE', #260, 39.37007874015748143 ) ;
#151 = PRESENTATION_STYLE_ASSIGNMENT (( #298 ) ) ;
#152 = EDGE_LOOP ( 'NONE', ( #208, #28 ) ) ;
#153 = PRODUCT_DEFINITION_SHAPE ( 'NONE', 'NONE',  #113 ) ;
#154 = PRODUCT_DEFINITION_CONTEXT ( 'detailed design', #244, 'design' ) ;
#155 = EDGE_CURVE ( 'NONE', #299, #182, #193, .T. ) ;
#156 = FILL_AREA_STYLE ('',( #160 ) ) ;
#157 = EDGE_LOOP ( 'NONE', ( #279, #184 ) ) ;
#158 = ORIENTED_EDGE ( 'NONE', *, *, #73, .F. ) ;
#159 = AXIS2_PLACEMENT_3D ( 'NONE', #66, #146, #19 ) ;
#160 = FILL_AREA_STYLE_COLOUR ( '', #220 ) ;
#161 = DIRECTION ( 'NONE',  ( 0.000000000000000000, 0.000000000000000000, -1.000000000000000000 ) ) ;
#162 = SURFACE_SIDE_STYLE ('',( #40 ) ) ;
#163 = DIRECTION ( 'NONE',  ( -1.000000000000000000, -5.442874662877130022E-17, 0.000000000000000000 ) ) ;
#164 = AXIS2_PLACEMENT_3D ( 'NONE', #34, #251, #233 ) ;
#165 = DIRECTION ( 'NONE',  ( -5.442874662877130022E-17, 1.000000000000000000, -0.000000000000000000 ) ) ;
#166 = LENGTH_MEASURE_WITH_UNIT ( LENGTH_MEASURE( 0.02539999999999999897 ), #63 );
#167 = DIRECTION ( 'NONE',  ( -1.000000000000000000, 0.000000000000000000, 0.000000000000000000 ) ) ;
#168 = PRESENTATION_LAYER_ASSIGNMENT (  '', '', ( #88 ) ) ;
#169 = SURFACE_STYLE_FILL_AREA ( #94 ) ;
#170 =( NAMED_UNIT ( * ) SI_UNIT ( $, .STERADIAN. ) SOLID_ANGLE_UNIT ( ) );
#171 = FILL_AREA_STYLE ('',( #78 ) ) ;
#172 = CIRCLE ( 'NONE', #224, 0.3125000000000000000 ) ;
#173 = UNCERTAINTY_MEASURE_WITH_UNIT (LENGTH_MEASURE( 1.000000000000000082E-05 ), #308, 'distance_accuracy_value', 'NONE');
#174 = DIRECTION ( 'NONE',  ( -1.000000000000000000, 0.000000000000000000, 0.000000000000000000 ) ) ;
#175 = MANIFOLD_SOLID_BREP ( 'Revolve - Cutting Edge', #218 ) ;
#176 = DIRECTION ( 'NONE',  ( 0.000000000000000000, -1.000000000000000000, -0.000000000000000000 ) ) ;
#177 = SURFACE_STYLE_USAGE ( .BOTH. , #200 ) ;
#178 = ORIENTED_EDGE ( 'NONE', *, *, #292, .F. ) ;
#179 =( GEOMETRIC_REPRESENTATION_CONTEXT ( 3 ) GLOBAL_UNCERTAINTY_ASSIGNED_CONTEXT ( ( #173 ) ) GLOBAL_UNIT_ASSIGNED_CONTEXT ( ( #308, #96, #247 ) ) REPRESENTATION_CONTEXT ( 'NONE', 'WORKASPACE' ) );
#180 =( GEOMETRIC_REPRESENTATION_CONTEXT ( 3 ) GLOBAL_UNCERTAINTY_ASSIGNED_CONTEXT ( ( #248 ) ) GLOBAL_UNIT_ASSIGNED_CONTEXT ( ( #132, #8, #33 ) ) REPRESENTATION_CONTEXT ( 'NONE', 'WORKASPACE' ) );
#181 = DIRECTION ( 'NONE',  ( 1.000000000000000000, 5.442874662877130022E-17, 0.000000000000000000 ) ) ;
#182 = VERTEX_POINT ( 'NONE', #309 ) ;
#183 = SURFACE_STYLE_FILL_AREA ( #156 ) ;
#184 = ORIENTED_EDGE ( 'NONE', *, *, #61, .T. ) ;
#185 = EDGE_LOOP ( 'NONE', ( #109, #135 ) ) ;
#186 = PRESENTATION_LAYER_ASSIGNMENT (  '', '', ( #17 ) ) ;
#187 = FILL_AREA_STYLE ('',( #192 ) ) ;
#188 = EDGE_CURVE ( 'NONE', #182, #299, #198, .T. ) ;
#189 = SURFACE_STYLE_USAGE ( .BOTH. , #162 ) ;
#190 = MECHANICAL_DESIGN_GEOMETRIC_PRESENTATION_REPRESENTATION (  '', ( #205 ), #179 ) ;
#191 = CARTESIAN_POINT ( 'NONE',  ( -1.224646799147354440E-16, 6.000000000000000888, 0.000000000000000000 ) ) ;
#192 = FILL_AREA_STYLE_COLOUR ( '', #116 ) ;
#193 = CIRCLE ( 'NONE', #307, 0.3125000000000001665 ) ;
#194 = SURFACE_STYLE_USAGE ( .BOTH. , #72 ) ;
#195 = UNCERTAINTY_MEASURE_WITH_UNIT (LENGTH_MEASURE( 1.000000000000000082E-05 ), #112, 'distance_accuracy_value', 'NONE');
#196 =( CONVERSION_BASED_UNIT ( 'INCH', #141 ) LENGTH_UNIT ( ) NAMED_UNIT ( #53 ) );
#197 = EDGE_CURVE ( 'NONE', #149, #126, #172, .T. ) ;
#198 = CIRCLE ( 'NONE', #144, 0.3125000000000001665 ) ;
#199 = FILL_AREA_STYLE_COLOUR ( '', #12 ) ;
#200 = SURFACE_SIDE_STYLE ('',( #183 ) ) ;
#201 = CARTESIAN_POINT ( 'NONE',  ( 0.000000000000000000, 0.000000000000000000, -0.3125000000000000000 ) ) ;
#202 = UNCERTAINTY_MEASURE_WITH_UNIT (LENGTH_MEASURE( 1.000000000000000082E-05 ), #108, 'distance_accuracy_value', 'NONE');
#203 =( LENGTH_UNIT ( ) NAMED_UNIT ( * ) SI_UNIT ( $, .METRE. ) );
#204 = ORIENTED_EDGE ( 'NONE', *, *, #216, .F. ) ;
#205 = STYLED_ITEM ( 'NONE', ( #118 ), #130 ) ;
#206 = PLANE ( 'NONE',  #123 ) ;
#207 = DIRECTION ( 'NONE',  ( -0.000000000000000000, -1.000000000000000000, -0.000000000000000000 ) ) ;
#208 = ORIENTED_EDGE ( 'NONE', *, *, #124, .F. ) ;
#209 = CARTESIAN_POINT ( 'NONE',  ( 0.3125000000000000000, 6.000000000000000888, 3.827021247335479543E-17 ) ) ;
#210 = ORIENTED_EDGE ( 'NONE', *, *, #61, .F. ) ;
#211 = MECHANICAL_DESIGN_GEOMETRIC_PRESENTATION_REPRESENTATION (  '', ( #259 ), #110 ) ;
#212 = DIRECTION ( 'NONE',  ( -5.442874662877130022E-17, 1.000000000000000000, 0.000000000000000000 ) ) ;
#213 =( NAMED_UNIT ( * ) PLANE_ANGLE_UNIT ( ) SI_UNIT ( $, .RADIAN. ) );
#214 = PRESENTATION_LAYER_ASSIGNMENT (  '', '', ( #32 ) ) ;
#215 = CYLINDRICAL_SURFACE ( 'NONE', #232, 0.3125000000000000555 ) ;
#216 = EDGE_CURVE ( 'NONE', #10, #102, #37, .T. ) ;
#217 =( LENGTH_UNIT ( ) NAMED_UNIT ( * ) SI_UNIT ( $, .METRE. ) );
#218 = CLOSED_SHELL ( 'NONE', ( #234, #130, #95, #284 ) ) ;
#219 = CARTESIAN_POINT ( 'NONE',  ( -1.224646799147354440E-16, 6.000000000000000888, 0.000000000000000000 ) ) ;
#220 = COLOUR_RGB ( '',1.000000000000000000, 0.000000000000000000, 0.000000000000000000 ) ;
#221 = DIMENSIONAL_EXPONENTS ( 1.000000000000000000, 0.000000000000000000, 0.000000000000000000, 0.000000000000000000, 0.000000000000000000, 0.000000000000000000, 0.000000000000000000 ) ;
#222 = DIRECTION ( 'NONE',  ( 0.000000000000000000, 0.000000000000000000, 1.000000000000000000 ) ) ;
#223 =( LENGTH_UNIT ( ) NAMED_UNIT ( * ) SI_UNIT ( $, .METRE. ) );
#224 = AXIS2_PLACEMENT_3D ( 'NONE', #147, #24, #167 ) ;
#225 = SURFACE_SIDE_STYLE ('',( #51 ) ) ;
#226 = ORIENTED_EDGE ( 'NONE', *, *, #35, .T. ) ;
#227 =( NAMED_UNIT ( * ) SI_UNIT ( $, .STERADIAN. ) SOLID_ANGLE_UNIT ( ) );
#228 = ORIENTED_EDGE ( 'NONE', *, *, #124, .T. ) ;
#229 = PRESENTATION_STYLE_ASSIGNMENT (( #177 ) ) ;
#230 = ORIENTED_EDGE ( 'NONE', *, *, #15, .F. ) ;
#231 = CLOSED_SHELL ( 'NONE', ( #91, #119, #99, #242 ) ) ;
#232 = AXIS2_PLACEMENT_3D ( 'NONE', #191, #114, #117 ) ;
#233 = DIRECTION ( 'NONE',  ( 0.000000000000000000, 0.000000000000000000, -1.000000000000000000 ) ) ;
#234 = ADVANCED_FACE ( 'NONE', ( #243 ), #274, .T. ) ;
#235 =( LENGTH_UNIT ( ) NAMED_UNIT ( * ) SI_UNIT ( $, .METRE. ) );
#236 = ORIENTED_EDGE ( 'NONE', *, *, #188, .F. ) ;
#237 = FACE_OUTER_BOUND ( 'NONE', #152, .T. ) ;
#238 = PRESENTATION_STYLE_ASSIGNMENT (( #189 ) ) ;
#239 = COLOUR_RGB ( '',0.7921568627450980005, 0.8196078431372548767, 0.9333333333333333481 ) ;
#240 = AXIS2_PLACEMENT_3D ( 'NONE', #90, #136, #306 ) ;
#241 = CARTESIAN_POINT ( 'NONE',  ( -1.224646799147354440E-16, 6.000000000000000888, 0.000000000000000000 ) ) ;
#242 = ADVANCED_FACE ( 'NONE', ( #105 ), #206, .F. ) ;
#243 = FACE_OUTER_BOUND ( 'NONE', #49, .T. ) ;
#244 = APPLICATION_CONTEXT ( 'automotive_design' ) ;
#245 = DIRECTION ( 'NONE',  ( -5.442874662877130638E-17, 1.000000000000000000, -0.000000000000000000 ) ) ;
#246 = FACE_OUTER_BOUND ( 'NONE', #296, .T. ) ;
#247 =( NAMED_UNIT ( * ) SI_UNIT ( $, .STERADIAN. ) SOLID_ANGLE_UNIT ( ) );
#248 = UNCERTAINTY_MEASURE_WITH_UNIT (LENGTH_MEASURE( 1.000000000000000082E-05 ), #132, 'distance_accuracy_value', 'NONE');
#249 = PLANE ( 'NONE',  #159 ) ;
#250 = DIRECTION ( 'NONE',  ( -0.000000000000000000, -1.000000000000000000, -0.000000000000000000 ) ) ;
#251 = DIRECTION ( 'NONE',  ( -0.000000000000000000, -1.000000000000000000, -0.000000000000000000 ) ) ;
#252 = AXIS2_PLACEMENT_3D ( 'NONE', #267, #43, #140 ) ;
#253 = ORIENTED_EDGE ( 'NONE', *, *, #292, .T. ) ;
#254 =( NAMED_UNIT ( * ) PLANE_ANGLE_UNIT ( ) SI_UNIT ( $, .RADIAN. ) );
#255 = DIRECTION ( 'NONE',  ( 0.000000000000000000, 0.000000000000000000, -1.000000000000000000 ) ) ;
#256 = CARTESIAN_POINT ( 'NONE',  ( 0.3124999999999999445, 6.000000000000000888, 3.827021247335479543E-17 ) ) ;
#257 = CARTESIAN_POINT ( 'NONE',  ( 0.000000000000000000, 0.000000000000000000, -0.3125000000000000000 ) ) ;
#258 = EDGE_CURVE ( 'NONE', #149, #299, #97, .T. ) ;
#259 = STYLED_ITEM ( 'NONE', ( #300 ), #71 ) ;
#260 = DIRECTION ( 'NONE',  ( -5.442874662877130022E-17, 1.000000000000000000, -0.000000000000000000 ) ) ;
#261 = EDGE_LOOP ( 'NONE', ( #80, #277, #56, #86 ) ) ;
#262 =( NAMED_UNIT ( * ) PLANE_ANGLE_UNIT ( ) SI_UNIT ( $, .RADIAN. ) );
#263 = CARTESIAN_POINT ( 'NONE',  ( 3.827021247335478926E-17, 0.000000000000000000, 0.3125000000000000000 ) ) ;
#264 = DIRECTION ( 'NONE',  ( -5.442874662877130638E-17, 1.000000000000000000, -0.000000000000000000 ) ) ;
#265 = CIRCLE ( 'NONE', #164, 0.3125000000000000000 ) ;
#266 =( GEOMETRIC_REPRESENTATION_CONTEXT ( 3 ) GLOBAL_UNCERTAINTY_ASSIGNED_CONTEXT ( ( #288 ) ) GLOBAL_UNIT_ASSIGNED_CONTEXT ( ( #39, #115, #38 ) ) REPRESENTATION_CONTEXT ( 'NONE', 'WORKASPACE' ) );
#267 = CARTESIAN_POINT ( 'NONE',  ( 0.000000000000000000, 0.000000000000000000, 0.000000000000000000 ) ) ;
#268 = CARTESIAN_POINT ( 'NONE',  ( 0.3125000000000000000, 3.750000000000000000, 3.827021247335479543E-17 ) ) ;
#269 = CIRCLE ( 'NONE', #68, 0.3125000000000000000 ) ;
#270 = DIRECTION ( 'NONE',  ( 0.000000000000000000, 0.000000000000000000, -1.000000000000000000 ) ) ;
#271 = ORIENTED_EDGE ( 'NONE', *, *, #23, .T. ) ;
#272 = EDGE_LOOP ( 'NONE', ( #178, #302, #226, #210 ) ) ;
#273 = UNCERTAINTY_MEASURE_WITH_UNIT (LENGTH_MEASURE( 1.000000000000000082E-05 ), #196, 'distance_accuracy_value', 'NONE');
#274 = CYLINDRICAL_SURFACE ( 'NONE', #303, 0.3125000000000000000 ) ;
#275 = DIRECTION ( 'NONE',  ( -0.000000000000000000, -1.000000000000000000, -0.000000000000000000 ) ) ;
#276 = DIMENSIONAL_EXPONENTS ( 1.000000000000000000, 0.000000000000000000, 0.000000000000000000, 0.000000000000000000, 0.000000000000000000, 0.000000000000000000, 0.000000000000000000 ) ;
#277 = ORIENTED_EDGE ( 'NONE', *, *, #197, .T. ) ;
#278 = UNCERTAINTY_MEASURE_WITH_UNIT (LENGTH_MEASURE( 1.000000000000000082E-05 ), #2, 'distance_accuracy_value', 'NONE');
#279 = ORIENTED_EDGE ( 'NONE', *, *, #216, .T. ) ;
#280 = CIRCLE ( 'NONE', #76, 0.3125000000000000000 ) ;
#281 = FACE_OUTER_BOUND ( 'NONE', #261, .T. ) ;
#282 = CYLINDRICAL_SURFACE ( 'NONE', #240, 0.3125000000000000000 ) ;
#283 = MECHANICAL_DESIGN_GEOMETRIC_PRESENTATION_REPRESENTATION (  '', ( #17 ), #41 ) ;
#284 = ADVANCED_FACE ( 'NONE', ( #295 ), #134, .T. ) ;
#285 = DIRECTION ( 'NONE',  ( -1.000000000000000000, 0.000000000000000000, 0.000000000000000000 ) ) ;
#286 =( GEOMETRIC_REPRESENTATION_CONTEXT ( 3 ) GLOBAL_UNCERTAINTY_ASSIGNED_CONTEXT ( ( #278 ) ) GLOBAL_UNIT_ASSIGNED_CONTEXT ( ( #2, #254, #227 ) ) REPRESENTATION_CONTEXT ( 'NONE', 'WORKASPACE' ) );
#287 =( NAMED_UNIT ( * ) SI_UNIT ( $, .STERADIAN. ) SOLID_ANGLE_UNIT ( ) );
#288 = UNCERTAINTY_MEASURE_WITH_UNIT (LENGTH_MEASURE( 1.000000000000000082E-05 ), #39, 'distance_accuracy_value', 'NONE');
#289 = SURFACE_SIDE_STYLE ('',( #143 ) ) ;
#290 = PRESENTATION_LAYER_ASSIGNMENT (  '', '', ( #259 ) ) ;
#291 = DIRECTION ( 'NONE',  ( 1.000000000000000000, 0.000000000000000000, 0.000000000000000000 ) ) ;
#292 = EDGE_CURVE ( 'NONE', #27, #102, #48, .T. ) ;
#293 =( LENGTH_UNIT ( ) NAMED_UNIT ( * ) SI_UNIT ( $, .METRE. ) );
#294 = DIRECTION ( 'NONE',  ( -0.000000000000000000, -1.000000000000000000, -0.000000000000000000 ) ) ;
#295 = FACE_OUTER_BOUND ( 'NONE', #157, .T. ) ;
#296 = EDGE_LOOP ( 'NONE', ( #82, #230 ) ) ;
#297 = AXIS2_PLACEMENT_3D ( 'NONE', #142, #222, #291 ) ;
#298 = SURFACE_STYLE_USAGE ( .BOTH. , #225 ) ;
#299 = VERTEX_POINT ( 'NONE', #209 ) ;
#300 = PRESENTATION_STYLE_ASSIGNMENT (( #107 ) ) ;
#301 = LENGTH_MEASURE_WITH_UNIT ( LENGTH_MEASURE( 0.02539999999999999897 ), #235 );
#302 = ORIENTED_EDGE ( 'NONE', *, *, #15, .T. ) ;
#303 = AXIS2_PLACEMENT_3D ( 'NONE', #101, #4, #98 ) ;
#304 = LINE ( 'NONE', #305, #7 ) ;
#305 = CARTESIAN_POINT ( 'NONE',  ( -0.3125000000000002220, 6.000000000000000888, 0.000000000000000000 ) ) ;
#306 = DIRECTION ( 'NONE',  ( 0.000000000000000000, 0.000000000000000000, -1.000000000000000000 ) ) ;
#307 = AXIS2_PLACEMENT_3D ( 'NONE', #219, #245, #174 ) ;
#308 =( CONVERSION_BASED_UNIT ( 'INCH', #1 ) LENGTH_UNIT ( ) NAMED_UNIT ( #276 ) );
#309 = CARTESIAN_POINT ( 'NONE',  ( -0.3125000000000002776, 6.000000000000000888, 0.000000000000000000 ) ) ;
ENDSEC;
END-ISO-10303-21;
