ISO-10303-21;
HEADER;
FILE_DESCRIPTION (( 'STEP AP214' ),
    '1' );
FILE_NAME ('06465.STEP',
    '2023-07-05T16:03:18',
    ( '' ),
    ( '' ),
    'SwSTEP 2.0',
    'SolidWorks 2023',
    '' );
FILE_SCHEMA (( 'AUTOMOTIVE_DESIGN' ));
ENDSEC;

DATA;
#1 = PLANE ( 'NONE',  #183 ) ;
#2 = STYLED_ITEM ( 'NONE', ( #191 ), #99 ) ;
#3 = DIMENSIONAL_EXPONENTS ( 1.000000000000000000, 0.000000000000000000, 0.000000000000000000, 0.000000000000000000, 0.000000000000000000, 0.000000000000000000, 0.000000000000000000 ) ;
#4 = PRESENTATION_STYLE_ASSIGNMENT (( #244 ) ) ;
#5 = CARTESIAN_POINT ( 'NONE',  ( 0.2500000000000000000, 0.1443375672974054613, 3.061616997868382402E-17 ) ) ;
#6 = ORIENTED_EDGE ( 'NONE', *, *, #34, .F. ) ;
#7 = COLOUR_RGB ( '',1.000000000000000000, 0.000000000000000000, 0.000000000000000000 ) ;
#8 =( LENGTH_UNIT ( ) NAMED_UNIT ( * ) SI_UNIT ( $, .METRE. ) );
#9 = ADVANCED_FACE ( 'NONE', ( #77 ), #174, .F. ) ;
#10 =( GEOMETRIC_REPRESENTATION_CONTEXT ( 3 ) GLOBAL_UNCERTAINTY_ASSIGNED_CONTEXT ( ( #98 ) ) GLOBAL_UNIT_ASSIGNED_CONTEXT ( ( #14, #201, #16 ) ) REPRESENTATION_CONTEXT ( 'NONE', 'WORKASPACE' ) );
#11 = DIRECTION ( 'NONE',  ( -1.215909390471913142E-16, 1.000000000000000000, -0.000000000000000000 ) ) ;
#12 = DIRECTION ( 'NONE',  ( -1.215909390471913142E-16, 1.000000000000000000, -0.000000000000000000 ) ) ;
#13 = DIRECTION ( 'NONE',  ( -1.215909390471913142E-16, 1.000000000000000000, -0.000000000000000000 ) ) ;
#14 =( CONVERSION_BASED_UNIT ( 'INCH', #204 ) LENGTH_UNIT ( ) NAMED_UNIT ( #21 ) );
#15 = AXIS2_PLACEMENT_3D ( 'NONE', #214, #121, #41 ) ;
#16 =( NAMED_UNIT ( * ) SI_UNIT ( $, .STERADIAN. ) SOLID_ANGLE_UNIT ( ) );
#17 =( CONVERSION_BASED_UNIT ( 'INCH', #243 ) LENGTH_UNIT ( ) NAMED_UNIT ( #166 ) );
#18 = PRESENTATION_LAYER_ASSIGNMENT (  '', '', ( #136 ) ) ;
#19 = CARTESIAN_POINT ( 'NONE',  ( -6.123233995736772199E-17, 3.000000000000000444, 0.000000000000000000 ) ) ;
#20 = DIRECTION ( 'NONE',  ( 0.000000000000000000, 1.000000000000000000, 0.000000000000000000 ) ) ;
#21 = DIMENSIONAL_EXPONENTS ( 1.000000000000000000, 0.000000000000000000, 0.000000000000000000, 0.000000000000000000, 0.000000000000000000, 0.000000000000000000, 0.000000000000000000 ) ;
#22 = ORIENTED_EDGE ( 'NONE', *, *, #173, .F. ) ;
#23 = FILL_AREA_STYLE ('',( #207 ) ) ;
#24 = ORIENTED_EDGE ( 'NONE', *, *, #118, .F. ) ;
#25 = DIRECTION ( 'NONE',  ( 0.000000000000000000, 0.000000000000000000, 1.000000000000000000 ) ) ;
#26 = ORIENTED_EDGE ( 'NONE', *, *, #59, .T. ) ;
#27 = CIRCLE ( 'NONE', #161, 0.2500000000000000555 ) ;
#28 =( GEOMETRIC_REPRESENTATION_CONTEXT ( 3 ) GLOBAL_UNCERTAINTY_ASSIGNED_CONTEXT ( ( #144 ) ) GLOBAL_UNIT_ASSIGNED_CONTEXT ( ( #253, #189, #43 ) ) REPRESENTATION_CONTEXT ( 'NONE', 'WORKASPACE' ) );
#29 = ORIENTED_EDGE ( 'NONE', *, *, #218, .T. ) ;
#30 = CARTESIAN_POINT ( 'NONE',  ( -0.2499999999999994449, 0.1443375672974054058, 0.000000000000000000 ) ) ;
#31 =( NAMED_UNIT ( * ) SI_UNIT ( $, .STERADIAN. ) SOLID_ANGLE_UNIT ( ) );
#32 =( CONVERSION_BASED_UNIT ( 'INCH', #261 ) LENGTH_UNIT ( ) NAMED_UNIT ( #245 ) );
#33 = MECHANICAL_DESIGN_GEOMETRIC_PRESENTATION_REPRESENTATION (  '', ( #195 ), #28 ) ;
#34 = EDGE_CURVE ( 'NONE', #47, #135, #143, .T. ) ;
#35 =( NAMED_UNIT ( * ) PLANE_ANGLE_UNIT ( ) SI_UNIT ( $, .RADIAN. ) );
#36 = DIRECTION ( 'NONE',  ( -1.000000000000000000, 0.000000000000000000, 0.000000000000000000 ) ) ;
#37 = CIRCLE ( 'NONE', #153, 0.2499999999999997224 ) ;
#38 = CARTESIAN_POINT ( 'NONE',  ( 0.000000000000000000, 39.37007874015748143, 0.000000000000000000 ) ) ;
#39 = EDGE_CURVE ( 'NONE', #67, #127, #37, .T. ) ;
#40 = FACE_OUTER_BOUND ( 'NONE', #252, .T. ) ;
#41 = DIRECTION ( 'NONE',  ( 0.000000000000000000, 0.000000000000000000, -1.000000000000000000 ) ) ;
#42 = MECHANICAL_DESIGN_GEOMETRIC_PRESENTATION_REPRESENTATION (  '', ( #129 ), #65 ) ;
#43 =( NAMED_UNIT ( * ) SI_UNIT ( $, .STERADIAN. ) SOLID_ANGLE_UNIT ( ) );
#44 = AXIS2_PLACEMENT_3D ( 'NONE', #38, #184, #228 ) ;
#45 = CARTESIAN_POINT ( 'NONE',  ( 0.000000000000000000, 39.37007874015748143, 0.000000000000000000 ) ) ;
#46 = EDGE_CURVE ( 'NONE', #131, #165, #27, .T. ) ;
#47 = VERTEX_POINT ( 'NONE', #140 ) ;
#48 = ORIENTED_EDGE ( 'NONE', *, *, #51, .T. ) ;
#49 = AXIS2_PLACEMENT_3D ( 'NONE', #113, #95, #216 ) ;
#50 = APPLICATION_PROTOCOL_DEFINITION ( 'draft international standard', 'automotive_design', 1998, #223 ) ;
#51 = EDGE_CURVE ( 'NONE', #165, #131, #146, .T. ) ;
#52 =( NAMED_UNIT ( * ) SI_UNIT ( $, .STERADIAN. ) SOLID_ANGLE_UNIT ( ) );
#53 = SURFACE_SIDE_STYLE ('',( #97 ) ) ;
#54 = PRODUCT_DEFINITION_CONTEXT ( 'detailed design', #223, 'design' ) ;
#55 =( LENGTH_UNIT ( ) NAMED_UNIT ( * ) SI_UNIT ( $, .METRE. ) );
#56 = CIRCLE ( 'NONE', #92, 0.2499999999999999722 ) ;
#57 = FILL_AREA_STYLE ('',( #162 ) ) ;
#58 = PRESENTATION_STYLE_ASSIGNMENT (( #197 ) ) ;
#59 = EDGE_CURVE ( 'NONE', #47, #229, #235, .T. ) ;
#60 =( NAMED_UNIT ( * ) SI_UNIT ( $, .STERADIAN. ) SOLID_ANGLE_UNIT ( ) );
#61 =( GEOMETRIC_REPRESENTATION_CONTEXT ( 3 ) GLOBAL_UNCERTAINTY_ASSIGNED_CONTEXT ( ( #177 ) ) GLOBAL_UNIT_ASSIGNED_CONTEXT ( ( #66, #35, #31 ) ) REPRESENTATION_CONTEXT ( 'NONE', 'WORKASPACE' ) );
#62 = DIRECTION ( 'NONE',  ( 0.000000000000000000, 1.000000000000000000, 0.000000000000000000 ) ) ;
#63 = PRODUCT_RELATED_PRODUCT_CATEGORY ( 'part', '', ( #255 ) ) ;
#64 = FILL_AREA_STYLE ('',( #225 ) ) ;
#65 =( GEOMETRIC_REPRESENTATION_CONTEXT ( 3 ) GLOBAL_UNCERTAINTY_ASSIGNED_CONTEXT ( ( #132 ) ) GLOBAL_UNIT_ASSIGNED_CONTEXT ( ( #32, #78, #52 ) ) REPRESENTATION_CONTEXT ( 'NONE', 'WORKASPACE' ) );
#66 =( CONVERSION_BASED_UNIT ( 'INCH', #249 ) LENGTH_UNIT ( ) NAMED_UNIT ( #3 ) );
#67 = VERTEX_POINT ( 'NONE', #30 ) ;
#68 = FACE_OUTER_BOUND ( 'NONE', #90, .T. ) ;
#69 = PRODUCT_DEFINITION_SHAPE ( 'NONE', 'NONE',  #240 ) ;
#70 = EDGE_LOOP ( 'NONE', ( #194, #48 ) ) ;
#71 = DIRECTION ( 'NONE',  ( -1.215909390471913142E-16, 1.000000000000000000, -0.000000000000000000 ) ) ;
#72 = ORIENTED_EDGE ( 'NONE', *, *, #221, .T. ) ;
#73 = DIRECTION ( 'NONE',  ( -1.000000000000000000, 0.000000000000000000, 0.000000000000000000 ) ) ;
#74 = STYLED_ITEM ( 'NONE', ( #4 ), #170 ) ;
#75 = AXIS2_PLACEMENT_3D ( 'NONE', #45, #20, #25 ) ;
#76 = DIRECTION ( 'NONE',  ( 0.000000000000000000, 0.000000000000000000, 1.000000000000000000 ) ) ;
#77 = FACE_OUTER_BOUND ( 'NONE', #70, .T. ) ;
#78 =( NAMED_UNIT ( * ) PLANE_ANGLE_UNIT ( ) SI_UNIT ( $, .RADIAN. ) );
#79 = SURFACE_STYLE_USAGE ( .BOTH. , #138 ) ;
#80 = SURFACE_STYLE_USAGE ( .BOTH. , #180 ) ;
#81 = DIRECTION ( 'NONE',  ( -1.215909390471913142E-16, 1.000000000000000000, 0.000000000000000000 ) ) ;
#82 = PRODUCT_DEFINITION_FORMATION_WITH_SPECIFIED_SOURCE ( 'ANY', '', #255, .NOT_KNOWN. ) ;
#83 = SURFACE_SIDE_STYLE ('',( #148 ) ) ;
#84 = SURFACE_SIDE_STYLE ('',( #133 ) ) ;
#85 = COLOUR_RGB ( '',0.7921568627450980005, 0.8196078431372548767, 0.9333333333333333481 ) ;
#86 = ORIENTED_EDGE ( 'NONE', *, *, #221, .F. ) ;
#87 = VECTOR ( 'NONE', #71, 39.37007874015748143 ) ;
#88 = DIRECTION ( 'NONE',  ( -1.215909390471913142E-16, 1.000000000000000000, -0.000000000000000000 ) ) ;
#89 = LENGTH_MEASURE_WITH_UNIT ( LENGTH_MEASURE( 0.02539999999999999897 ), #102 );
#90 = EDGE_LOOP ( 'NONE', ( #233, #109, #210 ) ) ;
#91 = COLOUR_RGB ( '',0.7921568627450980005, 0.8196078431372548767, 0.9333333333333333481 ) ;
#92 = AXIS2_PLACEMENT_3D ( 'NONE', #168, #105, #172 ) ;
#93 = MANIFOLD_SOLID_BREP ( 'Revolve - Tool Body (Pointed)', #242 ) ;
#94 = DIRECTION ( 'NONE',  ( -1.000000000000000000, 0.000000000000000000, 0.000000000000000000 ) ) ;
#95 = DIRECTION ( 'NONE',  ( 1.215909390471913142E-16, -1.000000000000000000, 0.000000000000000000 ) ) ;
#96 = ADVANCED_FACE ( 'NONE', ( #176 ), #116, .T. ) ;
#97 = SURFACE_STYLE_FILL_AREA ( #215 ) ;
#98 = UNCERTAINTY_MEASURE_WITH_UNIT (LENGTH_MEASURE( 1.000000000000000082E-05 ), #14, 'distance_accuracy_value', 'NONE');
#99 = MANIFOLD_SOLID_BREP ( 'Revolve - Cutting Edge', #239 ) ;
#100 = AXIS2_PLACEMENT_3D ( 'NONE', #164, #103, #149 ) ;
#101 = SURFACE_STYLE_FILL_AREA ( #198 ) ;
#102 =( LENGTH_UNIT ( ) NAMED_UNIT ( * ) SI_UNIT ( $, .METRE. ) );
#103 = DIRECTION ( 'NONE',  ( -1.215909390471913142E-16, 1.000000000000000000, -0.000000000000000000 ) ) ;
#104 = DIRECTION ( 'NONE',  ( 0.000000000000000000, -0.000000000000000000, 1.000000000000000000 ) ) ;
#105 = DIRECTION ( 'NONE',  ( -0.000000000000000000, -1.000000000000000000, -0.000000000000000000 ) ) ;
#106 = CARTESIAN_POINT ( 'NONE',  ( 0.000000000000000000, 0.1443375672974056556, 0.2500000000000000000 ) ) ;
#107 = AXIS2_PLACEMENT_3D ( 'NONE', #256, #12, #178 ) ;
#108 =( NAMED_UNIT ( * ) SI_UNIT ( $, .STERADIAN. ) SOLID_ANGLE_UNIT ( ) );
#109 = ORIENTED_EDGE ( 'NONE', *, *, #34, .T. ) ;
#110 = ORIENTED_EDGE ( 'NONE', *, *, #264, .T. ) ;
#111 = PRESENTATION_LAYER_ASSIGNMENT (  '', '', ( #74 ) ) ;
#112 = DIRECTION ( 'NONE',  ( 1.000000000000000000, 0.000000000000000000, 0.000000000000000000 ) ) ;
#113 = CARTESIAN_POINT ( 'NONE',  ( 0.2500000000000000000, 3.000000000000000444, 0.000000000000000000 ) ) ;
#114 = DIRECTION ( 'NONE',  ( 1.060575238724908024E-16, 0.4999999999999979461, -0.8660254037844397068 ) ) ;
#115 = AXIS2_PLACEMENT_3D ( 'NONE', #117, #193, #73 ) ;
#116 = CYLINDRICAL_SURFACE ( 'NONE', #107, 0.2499999999999998890 ) ;
#117 = CARTESIAN_POINT ( 'NONE',  ( -6.123233995736772199E-17, 3.000000000000000444, 0.000000000000000000 ) ) ;
#118 = EDGE_CURVE ( 'NONE', #135, #229, #175, .T. ) ;
#119 = FACE_OUTER_BOUND ( 'NONE', #190, .T. ) ;
#120 = CONICAL_SURFACE ( 'NONE', #44, 68.19097667594041923, 1.047197551196600074 ) ;
#121 = DIRECTION ( 'NONE',  ( -0.000000000000000000, -1.000000000000000000, -0.000000000000000000 ) ) ;
#122 = CARTESIAN_POINT ( 'NONE',  ( 0.2500000000000000000, 3.000000000000000444, 3.061616997868382402E-17 ) ) ;
#123 =( NAMED_UNIT ( * ) PLANE_ANGLE_UNIT ( ) SI_UNIT ( $, .RADIAN. ) );
#124 = FACE_OUTER_BOUND ( 'NONE', #205, .T. ) ;
#125 =( CONVERSION_BASED_UNIT ( 'INCH', #89 ) LENGTH_UNIT ( ) NAMED_UNIT ( #185 ) );
#126 = ADVANCED_FACE ( 'NONE', ( #119 ), #147, .F. ) ;
#127 = VERTEX_POINT ( 'NONE', #5 ) ;
#128 = LENGTH_MEASURE_WITH_UNIT ( LENGTH_MEASURE( 0.02539999999999999897 ), #151 );
#129 = STYLED_ITEM ( 'NONE', ( #58 ), #93 ) ;
#130 = CYLINDRICAL_SURFACE ( 'NONE', #263, 0.2499999999999998890 ) ;
#131 = VERTEX_POINT ( 'NONE', #145 ) ;
#132 = UNCERTAINTY_MEASURE_WITH_UNIT (LENGTH_MEASURE( 1.000000000000000082E-05 ), #32, 'distance_accuracy_value', 'NONE');
#133 = SURFACE_STYLE_FILL_AREA ( #23 ) ;
#134 = ORIENTED_EDGE ( 'NONE', *, *, #46, .F. ) ;
#135 = VERTEX_POINT ( 'NONE', #241 ) ;
#136 = STYLED_ITEM ( 'NONE', ( #182 ), #188 ) ;
#137 = CARTESIAN_POINT ( 'NONE',  ( 0.000000000000000000, 0.000000000000000000, 0.000000000000000000 ) ) ;
#138 = SURFACE_SIDE_STYLE ('',( #259 ) ) ;
#139 = CARTESIAN_POINT ( 'NONE',  ( 0.000000000000000000, 0.000000000000000000, 0.000000000000000000 ) ) ;
#140 = CARTESIAN_POINT ( 'NONE',  ( 0.000000000000000000, 0.000000000000000000, 0.000000000000000000 ) ) ;
#141 = PRESENTATION_LAYER_ASSIGNMENT (  '', '', ( #2 ) ) ;
#142 = UNCERTAINTY_MEASURE_WITH_UNIT (LENGTH_MEASURE( 1.000000000000000082E-05 ), #125, 'distance_accuracy_value', 'NONE');
#143 = LINE ( 'NONE', #160, #211 ) ;
#144 = UNCERTAINTY_MEASURE_WITH_UNIT (LENGTH_MEASURE( 1.000000000000000082E-05 ), #253, 'distance_accuracy_value', 'NONE');
#145 = CARTESIAN_POINT ( 'NONE',  ( -0.2500000000000001110, 3.000000000000000444, 0.000000000000000000 ) ) ;
#146 = CIRCLE ( 'NONE', #115, 0.2500000000000000555 ) ;
#147 = PLANE ( 'NONE',  #226 ) ;
#148 = SURFACE_STYLE_FILL_AREA ( #64 ) ;
#149 = DIRECTION ( 'NONE',  ( -1.000000000000000000, -1.365923996832133088E-16, 0.000000000000000000 ) ) ;
#150 = CIRCLE ( 'NONE', #100, 0.2499999999999997224 ) ;
#151 =( LENGTH_UNIT ( ) NAMED_UNIT ( * ) SI_UNIT ( $, .METRE. ) );
#152 = LINE ( 'NONE', #231, #248 ) ;
#153 = AXIS2_PLACEMENT_3D ( 'NONE', #155, #11, #220 ) ;
#154 =( NAMED_UNIT ( * ) PLANE_ANGLE_UNIT ( ) SI_UNIT ( $, .RADIAN. ) );
#155 = CARTESIAN_POINT ( 'NONE',  ( 2.859903368367275526E-16, 0.1443375672974054336, 0.000000000000000000 ) ) ;
#156 = COLOUR_RGB ( '',1.000000000000000000, 0.000000000000000000, 0.000000000000000000 ) ;
#157 = CONICAL_SURFACE ( 'NONE', #75, 68.19097667594041923, 1.047197551196600074 ) ;
#158 = CARTESIAN_POINT ( 'NONE',  ( -6.123233995736772199E-17, 3.000000000000000444, 0.000000000000000000 ) ) ;
#159 = ORIENTED_EDGE ( 'NONE', *, *, #39, .F. ) ;
#160 = CARTESIAN_POINT ( 'NONE',  ( 0.000000000000000000, 0.000000000000000000, 0.000000000000000000 ) ) ;
#161 = AXIS2_PLACEMENT_3D ( 'NONE', #158, #13, #36 ) ;
#162 = FILL_AREA_STYLE_COLOUR ( '', #91 ) ;
#163 =( GEOMETRIC_REPRESENTATION_CONTEXT ( 3 ) GLOBAL_UNCERTAINTY_ASSIGNED_CONTEXT ( ( #142 ) ) GLOBAL_UNIT_ASSIGNED_CONTEXT ( ( #125, #154, #108 ) ) REPRESENTATION_CONTEXT ( 'NONE', 'WORKASPACE' ) );
#164 = CARTESIAN_POINT ( 'NONE',  ( 2.859903368367275526E-16, 0.1443375672974054336, 0.000000000000000000 ) ) ;
#165 = VERTEX_POINT ( 'NONE', #122 ) ;
#166 = DIMENSIONAL_EXPONENTS ( 1.000000000000000000, 0.000000000000000000, 0.000000000000000000, 0.000000000000000000, 0.000000000000000000, 0.000000000000000000, 0.000000000000000000 ) ;
#167 =( LENGTH_UNIT ( ) NAMED_UNIT ( * ) SI_UNIT ( $, .METRE. ) );
#168 = CARTESIAN_POINT ( 'NONE',  ( 0.000000000000000000, 0.1443375672974056556, 0.000000000000000000 ) ) ;
#169 = PRESENTATION_STYLE_ASSIGNMENT (( #209 ) ) ;
#170 = ADVANCED_FACE ( 'NONE', ( #40 ), #1, .T. ) ;
#171 = ORIENTED_EDGE ( 'NONE', *, *, #51, .F. ) ;
#172 = DIRECTION ( 'NONE',  ( 0.000000000000000000, 0.000000000000000000, -1.000000000000000000 ) ) ;
#173 = EDGE_CURVE ( 'NONE', #127, #67, #150, .T. ) ;
#174 = PLANE ( 'NONE',  #49 ) ;
#175 = CIRCLE ( 'NONE', #15, 0.2499999999999999722 ) ;
#176 = FACE_OUTER_BOUND ( 'NONE', #234, .T. ) ;
#177 = UNCERTAINTY_MEASURE_WITH_UNIT (LENGTH_MEASURE( 1.000000000000000082E-05 ), #66, 'distance_accuracy_value', 'NONE');
#178 = DIRECTION ( 'NONE',  ( -1.000000000000000000, 0.000000000000000000, 0.000000000000000000 ) ) ;
#179 = MECHANICAL_DESIGN_GEOMETRIC_PRESENTATION_REPRESENTATION (  '', ( #136 ), #163 ) ;
#180 = SURFACE_SIDE_STYLE ('',( #101 ) ) ;
#181 = CARTESIAN_POINT ( 'NONE',  ( 2.859903368367275526E-16, 0.1443375672974056556, 0.000000000000000000 ) ) ;
#182 = PRESENTATION_STYLE_ASSIGNMENT (( #80 ) ) ;
#183 = AXIS2_PLACEMENT_3D ( 'NONE', #203, #62, #104 ) ;
#184 = DIRECTION ( 'NONE',  ( 0.000000000000000000, 1.000000000000000000, 0.000000000000000000 ) ) ;
#185 = DIMENSIONAL_EXPONENTS ( 1.000000000000000000, 0.000000000000000000, 0.000000000000000000, 0.000000000000000000, 0.000000000000000000, 0.000000000000000000, 0.000000000000000000 ) ;
#186 = FACE_OUTER_BOUND ( 'NONE', #187, .T. ) ;
#187 = EDGE_LOOP ( 'NONE', ( #232, #110, #134, #86 ) ) ;
#188 = ADVANCED_FACE ( 'NONE', ( #124 ), #120, .T. ) ;
#189 =( NAMED_UNIT ( * ) PLANE_ANGLE_UNIT ( ) SI_UNIT ( $, .RADIAN. ) );
#190 = EDGE_LOOP ( 'NONE', ( #159, #22 ) ) ;
#191 = PRESENTATION_STYLE_ASSIGNMENT (( #79 ) ) ;
#192 = ADVANCED_FACE ( 'NONE', ( #68 ), #157, .T. ) ;
#193 = DIRECTION ( 'NONE',  ( -1.215909390471913142E-16, 1.000000000000000000, -0.000000000000000000 ) ) ;
#194 = ORIENTED_EDGE ( 'NONE', *, *, #46, .T. ) ;
#195 = STYLED_ITEM ( 'NONE', ( #169 ), #192 ) ;
#196 = APPLICATION_PROTOCOL_DEFINITION ( 'draft international standard', 'automotive_design', 1998, #199 ) ;
#197 = SURFACE_STYLE_USAGE ( .BOTH. , #53 ) ;
#198 = FILL_AREA_STYLE ('',( #246 ) ) ;
#199 = APPLICATION_CONTEXT ( 'automotive_design' ) ;
#200 = VECTOR ( 'NONE', #238, 39.37007874015748854 ) ;
#201 =( NAMED_UNIT ( * ) PLANE_ANGLE_UNIT ( ) SI_UNIT ( $, .RADIAN. ) );
#202 = ADVANCED_FACE ( 'NONE', ( #186 ), #130, .T. ) ;
#203 = CARTESIAN_POINT ( 'NONE',  ( 0.000000000000000000, 0.1443375672974056556, 0.000000000000000000 ) ) ;
#204 = LENGTH_MEASURE_WITH_UNIT ( LENGTH_MEASURE( 0.02539999999999999897 ), #8 );
#205 = EDGE_LOOP ( 'NONE', ( #6, #26, #29 ) ) ;
#206 = COLOUR_RGB ( '',1.000000000000000000, 0.000000000000000000, 0.000000000000000000 ) ;
#207 = FILL_AREA_STYLE_COLOUR ( '', #7 ) ;
#208 = ORIENTED_EDGE ( 'NONE', *, *, #264, .F. ) ;
#209 = SURFACE_STYLE_USAGE ( .BOTH. , #84 ) ;
#210 = ORIENTED_EDGE ( 'NONE', *, *, #118, .T. ) ;
#211 = VECTOR ( 'NONE', #114, 39.37007874015748854 ) ;
#212 = AXIS2_PLACEMENT_3D ( 'NONE', #137, #76, #112 ) ;
#213 = ORIENTED_EDGE ( 'NONE', *, *, #173, .T. ) ;
#214 = CARTESIAN_POINT ( 'NONE',  ( 0.000000000000000000, 0.1443375672974056556, 0.000000000000000000 ) ) ;
#215 = FILL_AREA_STYLE ('',( #236 ) ) ;
#216 = DIRECTION ( 'NONE',  ( 1.000000000000000000, 1.215909390471913142E-16, 0.000000000000000000 ) ) ;
#217 = PRESENTATION_LAYER_ASSIGNMENT (  '', '', ( #129 ) ) ;
#218 = EDGE_CURVE ( 'NONE', #229, #135, #56, .T. ) ;
#219 = PRODUCT_CONTEXT ( 'NONE', #199, 'mechanical' ) ;
#220 = DIRECTION ( 'NONE',  ( -1.000000000000000000, -1.365923996832133088E-16, 0.000000000000000000 ) ) ;
#221 = EDGE_CURVE ( 'NONE', #67, #131, #254, .T. ) ;
#222 = DIRECTION ( 'NONE',  ( -1.000000000000000000, -1.215909390471913142E-16, 0.000000000000000000 ) ) ;
#223 = APPLICATION_CONTEXT ( 'automotive_design' ) ;
#224 = DIMENSIONAL_EXPONENTS ( 1.000000000000000000, 0.000000000000000000, 0.000000000000000000, 0.000000000000000000, 0.000000000000000000, 0.000000000000000000, 0.000000000000000000 ) ;
#225 = FILL_AREA_STYLE_COLOUR ( '', #156 ) ;
#226 = AXIS2_PLACEMENT_3D ( 'NONE', #181, #81, #222 ) ;
#227 = DIRECTION ( 'NONE',  ( -1.215909390471913142E-16, 1.000000000000000000, -0.000000000000000000 ) ) ;
#228 = DIRECTION ( 'NONE',  ( 0.000000000000000000, 0.000000000000000000, 1.000000000000000000 ) ) ;
#229 = VERTEX_POINT ( 'NONE', #106 ) ;
#230 = PRESENTATION_LAYER_ASSIGNMENT (  '', '', ( #195 ) ) ;
#231 = CARTESIAN_POINT ( 'NONE',  ( 0.2499999999999998335, 3.000000000000000444, 3.061616997868381785E-17 ) ) ;
#232 = ORIENTED_EDGE ( 'NONE', *, *, #39, .T. ) ;
#233 = ORIENTED_EDGE ( 'NONE', *, *, #59, .F. ) ;
#234 = EDGE_LOOP ( 'NONE', ( #208, #213, #72, #171 ) ) ;
#235 = LINE ( 'NONE', #139, #200 ) ;
#236 = FILL_AREA_STYLE_COLOUR ( '', #85 ) ;
#237 = UNCERTAINTY_MEASURE_WITH_UNIT (LENGTH_MEASURE( 1.000000000000000082E-05 ), #17, 'distance_accuracy_value', 'NONE');
#238 = DIRECTION ( 'NONE',  ( 0.000000000000000000, 0.4999999999999979461, 0.8660254037844397068 ) ) ;
#239 = CLOSED_SHELL ( 'NONE', ( #192, #170, #188 ) ) ;
#240 = PRODUCT_DEFINITION ( 'UNKNOWN', '', #82, #54 ) ;
#241 = CARTESIAN_POINT ( 'NONE',  ( 3.061616997868383018E-17, 0.1443375672974056556, -0.2500000000000000000 ) ) ;
#242 = CLOSED_SHELL ( 'NONE', ( #202, #126, #96, #9 ) ) ;
#243 = LENGTH_MEASURE_WITH_UNIT ( LENGTH_MEASURE( 0.02539999999999999897 ), #265 );
#244 = SURFACE_STYLE_USAGE ( .BOTH. , #83 ) ;
#245 = DIMENSIONAL_EXPONENTS ( 1.000000000000000000, 0.000000000000000000, 0.000000000000000000, 0.000000000000000000, 0.000000000000000000, 0.000000000000000000, 0.000000000000000000 ) ;
#246 = FILL_AREA_STYLE_COLOUR ( '', #206 ) ;
#247 = MECHANICAL_DESIGN_GEOMETRIC_PRESENTATION_REPRESENTATION (  '', ( #74 ), #262 ) ;
#248 = VECTOR ( 'NONE', #227, 39.37007874015748143 ) ;
#249 = LENGTH_MEASURE_WITH_UNIT ( LENGTH_MEASURE( 0.02539999999999999897 ), #167 );
#250 = ADVANCED_BREP_SHAPE_REPRESENTATION ( '06465', ( #99, #93, #212 ), #61 ) ;
#251 = CARTESIAN_POINT ( 'NONE',  ( -0.2499999999999999722, 3.000000000000000444, 0.000000000000000000 ) ) ;
#252 = EDGE_LOOP ( 'NONE', ( #258, #24 ) ) ;
#253 =( CONVERSION_BASED_UNIT ( 'INCH', #128 ) LENGTH_UNIT ( ) NAMED_UNIT ( #224 ) );
#254 = LINE ( 'NONE', #251, #87 ) ;
#255 = PRODUCT ( '06465', '06465', '', ( #219 ) ) ;
#256 = CARTESIAN_POINT ( 'NONE',  ( -6.123233995736772199E-17, 3.000000000000000444, 0.000000000000000000 ) ) ;
#257 = MECHANICAL_DESIGN_GEOMETRIC_PRESENTATION_REPRESENTATION (  '', ( #2 ), #10 ) ;
#258 = ORIENTED_EDGE ( 'NONE', *, *, #218, .F. ) ;
#259 = SURFACE_STYLE_FILL_AREA ( #57 ) ;
#260 = SHAPE_DEFINITION_REPRESENTATION ( #69, #250 ) ;
#261 = LENGTH_MEASURE_WITH_UNIT ( LENGTH_MEASURE( 0.02539999999999999897 ), #55 );
#262 =( GEOMETRIC_REPRESENTATION_CONTEXT ( 3 ) GLOBAL_UNCERTAINTY_ASSIGNED_CONTEXT ( ( #237 ) ) GLOBAL_UNIT_ASSIGNED_CONTEXT ( ( #17, #123, #60 ) ) REPRESENTATION_CONTEXT ( 'NONE', 'WORKASPACE' ) );
#263 = AXIS2_PLACEMENT_3D ( 'NONE', #19, #88, #94 ) ;
#264 = EDGE_CURVE ( 'NONE', #127, #165, #152, .T. ) ;
#265 =( LENGTH_UNIT ( ) NAMED_UNIT ( * ) SI_UNIT ( $, .METRE. ) );
ENDSEC;
END-ISO-10303-21;
