ISO-10303-21;
HEADER;
FILE_DESCRIPTION (( 'STEP AP214' ),
    '1' );
FILE_NAME ('Micro_BEM-062-04.STEP',
    '2021-09-03T12:58:49',
    ( '' ),
    ( '' ),
    'SwSTEP 2.0',
    'SolidWorks 2020',
    '' );
FILE_SCHEMA (( 'AUTOMOTIVE_DESIGN' ));
ENDSEC;

DATA;
#1 = PRESENTATION_STYLE_ASSIGNMENT (( #76 ) ) ;
#2 = CIRCLE ( 'NONE', #244, 0.03121874999999999997 ) ;
#3 = EDGE_CURVE ( 'NONE', #247, #43, #28, .T. ) ;
#4 = VECTOR ( 'NONE', #173, 39.37007874015747433 ) ;
#5 = CIRCLE ( 'NONE', #240, 0.06250000000000002776 ) ;
#6 = CARTESIAN_POINT ( 'NONE',  ( -0.04750000000000064587, 0.0000000000000000000, 1.500000000000000222 ) ) ;
#7 = FACE_OUTER_BOUND ( 'NONE', #268, .T. ) ;
#8 = EDGE_CURVE ( 'NONE', #49, #145, #324, .T. ) ;
#9 = ORIENTED_EDGE ( 'NONE', *, *, #288, .F. ) ;
#10 = CARTESIAN_POINT ( 'NONE',  ( 4.474917996329785777E-17, 0.0000000000000000000, 0.3654047844199156403 ) ) ;
#11 = CARTESIAN_POINT ( 'NONE',  ( -0.03121874999999997916, 3.823194226088143687E-18, 0.1880000000000000282 ) ) ;
#12 = VECTOR ( 'NONE', #107, 39.37007874015748854 ) ;
#13 = DIRECTION ( 'NONE',  ( -1.224646799147353700E-16, -0.0000000000000000000, -1.000000000000000000 ) ) ;
#14 = ORIENTED_EDGE ( 'NONE', *, *, #142, .T. ) ;
#15 = CARTESIAN_POINT ( 'NONE',  ( 3.823194226088145228E-18, 0.0000000000000000000, 0.03121874999999999997 ) ) ;
#16 = VERTEX_POINT ( 'NONE', #6 ) ;
#17 = DIRECTION ( 'NONE',  ( 1.224646799147353700E-16, 0.0000000000000000000, 1.000000000000000000 ) ) ;
#18 = FILL_AREA_STYLE_COLOUR ( '', #108 ) ;
#19 = ORIENTED_EDGE ( 'NONE', *, *, #208, .F. ) ;
#20 = AXIS2_PLACEMENT_3D ( 'NONE', #236, #143, #229 ) ;
#21 = FACE_OUTER_BOUND ( 'NONE', #289, .T. ) ;
#22 = ORIENTED_EDGE ( 'NONE', *, *, #186, .F. ) ;
#23 = CYLINDRICAL_SURFACE ( 'NONE', #54, 0.06250000000000002776 ) ;
#24 = PLANE ( 'NONE',  #20 ) ;
#25 = CARTESIAN_POINT ( 'NONE',  ( 0.0000000000000000000, 0.0000000000000000000, 1.500000000000000222 ) ) ;
#26 = EDGE_CURVE ( 'NONE', #145, #49, #5, .T. ) ;
#27 =( CONVERSION_BASED_UNIT ( 'INCH', #55 ) LENGTH_UNIT ( ) NAMED_UNIT ( #79 ) );
#28 = CIRCLE ( 'NONE', #299, 0.03121874999999999997 ) ;
#29 = DIRECTION ( 'NONE',  ( 1.000000000000000000, 0.0000000000000000000, 0.0000000000000000000 ) ) ;
#30 = AXIS2_PLACEMENT_3D ( 'NONE', #320, #203, #116 ) ;
#31 = CARTESIAN_POINT ( 'NONE',  ( -0.03121874999999997916, 5.738618360379552157E-18, 0.1880000000000000282 ) ) ;
#32 = EDGE_CURVE ( 'NONE', #195, #145, #62, .T. ) ;
#33 = CARTESIAN_POINT ( 'NONE',  ( 0.0000000000000000000, 0.0000000000000000000, 1.500000000000000222 ) ) ;
#34 = CYLINDRICAL_SURFACE ( 'NONE', #175, 0.03121874999999999997 ) ;
#35 = STYLED_ITEM ( 'NONE', ( #1 ), #216 ) ;
#36 = PRODUCT_DEFINITION ( 'UNKNOWN', '', #161, #58 ) ;
#37 = DIRECTION ( 'NONE',  ( 1.224646799147353700E-16, 0.0000000000000000000, 1.000000000000000000 ) ) ;
#38 = AXIS2_PLACEMENT_3D ( 'NONE', #256, #66, #230 ) ;
#39 = CARTESIAN_POINT ( 'NONE',  ( 0.0000000000000000000, 0.0000000000000000000, 1.485000000000000764 ) ) ;
#40 = ORIENTED_EDGE ( 'NONE', *, *, #262, .F. ) ;
#41 = FACE_OUTER_BOUND ( 'NONE', #67, .T. ) ;
#42 = SPHERICAL_SURFACE ( 'NONE', #266, 0.03121874999999999997 ) ;
#43 = VERTEX_POINT ( 'NONE', #157 ) ;
#44 = DIRECTION ( 'NONE',  ( 1.000000000000000000, 0.0000000000000000000, 0.0000000000000000000 ) ) ;
#45 = ORIENTED_EDGE ( 'NONE', *, *, #208, .T. ) ;
#46 = EDGE_CURVE ( 'NONE', #16, #98, #277, .T. ) ;
#47 = CARTESIAN_POINT ( 'NONE',  ( -0.06250000000000002776, 0.0000000000000000000, 1.500000000000000222 ) ) ;
#48 = ORIENTED_EDGE ( 'NONE', *, *, #253, .F. ) ;
#49 = VERTEX_POINT ( 'NONE', #199 ) ;
#50 =( NAMED_UNIT ( * ) PLANE_ANGLE_UNIT ( ) SI_UNIT ( $, .RADIAN. ) );
#51 = ORIENTED_EDGE ( 'NONE', *, *, #142, .F. ) ;
#52 = FACE_OUTER_BOUND ( 'NONE', #238, .T. ) ;
#53 = ADVANCED_FACE ( 'NONE', ( #138 ), #34, .T. ) ;
#54 = AXIS2_PLACEMENT_3D ( 'NONE', #25, #210, #148 ) ;
#55 = LENGTH_MEASURE_WITH_UNIT ( LENGTH_MEASURE( 0.02539999999999999897 ), #239 );
#56 = SHAPE_DEFINITION_REPRESENTATION ( #139, #216 ) ;
#57 = SURFACE_STYLE_FILL_AREA ( #298 ) ;
#58 = PRODUCT_DEFINITION_CONTEXT ( 'detailed design', #103, 'design' ) ;
#59 = DIRECTION ( 'NONE',  ( -0.0000000000000000000, -0.0000000000000000000, -1.000000000000000000 ) ) ;
#60 = CIRCLE ( 'NONE', #89, 0.03121874999999999997 ) ;
#61 = CARTESIAN_POINT ( 'NONE',  ( 0.0000000000000000000, 0.0000000000000000000, 0.0000000000000000000 ) ) ;
#62 = LINE ( 'NONE', #106, #180 ) ;
#63 = DIRECTION ( 'NONE',  ( 1.000000000000000000, 0.0000000000000000000, 0.0000000000000000000 ) ) ;
#64 = CARTESIAN_POINT ( 'NONE',  ( 0.06250000000000006939, 7.654042494670963708E-18, 0.3654047844199156403 ) ) ;
#65 = CYLINDRICAL_SURFACE ( 'NONE', #133, 0.06250000000000002776 ) ;
#66 = DIRECTION ( 'NONE',  ( 1.224646799147353700E-16, 0.0000000000000000000, 1.000000000000000000 ) ) ;
#67 = EDGE_LOOP ( 'NONE', ( #158, #275 ) ) ;
#68 =( LENGTH_UNIT ( ) NAMED_UNIT ( * ) SI_UNIT ( $, .METRE. ) );
#69 = SURFACE_STYLE_FILL_AREA ( #113 ) ;
#70 = VERTEX_POINT ( 'NONE', #226 ) ;
#71 = AXIS2_PLACEMENT_3D ( 'NONE', #295, #72, #91 ) ;
#72 = DIRECTION ( 'NONE',  ( 0.0000000000000000000, 0.0000000000000000000, -1.000000000000000000 ) ) ;
#73 = ORIENTED_EDGE ( 'NONE', *, *, #3, .F. ) ;
#74 = DIRECTION ( 'NONE',  ( -1.000000000000000000, 0.0000000000000000000, 0.0000000000000000000 ) ) ;
#75 = EDGE_CURVE ( 'NONE', #179, #145, #245, .T. ) ;
#76 = SURFACE_STYLE_USAGE ( .BOTH. , #128 ) ;
#77 = UNCERTAINTY_MEASURE_WITH_UNIT (LENGTH_MEASURE( 1.000000000000000082E-05 ), #93, 'distance_accuracy_value', 'NONE');
#78 = CIRCLE ( 'NONE', #232, 0.06250000000000002776 ) ;
#79 = DIMENSIONAL_EXPONENTS ( 1.000000000000000000, 0.0000000000000000000, 0.0000000000000000000, 0.0000000000000000000, 0.0000000000000000000, 0.0000000000000000000, 0.0000000000000000000 ) ;
#80 =( NAMED_UNIT ( * ) PLANE_ANGLE_UNIT ( ) SI_UNIT ( $, .RADIAN. ) );
#81 = ORIENTED_EDGE ( 'NONE', *, *, #32, .T. ) ;
#82 = EDGE_CURVE ( 'NONE', #16, #70, #151, .T. ) ;
#83 = CARTESIAN_POINT ( 'NONE',  ( 5.734791339132217072E-18, 0.0000000000000000000, 0.0000000000000000000 ) ) ;
#84 = VERTEX_POINT ( 'NONE', #83 ) ;
#85 = AXIS2_PLACEMENT_3D ( 'NONE', #251, #17, #212 ) ;
#86 = ORIENTED_EDGE ( 'NONE', *, *, #3, .T. ) ;
#87 = DIRECTION ( 'NONE',  ( 0.0000000000000000000, 0.0000000000000000000, 1.000000000000000000 ) ) ;
#88 = DIRECTION ( 'NONE',  ( -1.000000000000000000, 0.0000000000000000000, 1.367291288120251888E-16 ) ) ;
#89 = AXIS2_PLACEMENT_3D ( 'NONE', #314, #211, #287 ) ;
#90 = ORIENTED_EDGE ( 'NONE', *, *, #115, .F. ) ;
#91 = DIRECTION ( 'NONE',  ( -1.000000000000000000, 0.0000000000000000000, 0.0000000000000000000 ) ) ;
#92 = DIRECTION ( 'NONE',  ( 0.0000000000000000000, 0.0000000000000000000, 1.000000000000000000 ) ) ;
#93 =( CONVERSION_BASED_UNIT ( 'INCH', #318 ) LENGTH_UNIT ( ) NAMED_UNIT ( #129 ) );
#94 = EDGE_LOOP ( 'NONE', ( #185, #263, #81, #319 ) ) ;
#95 = DIRECTION ( 'NONE',  ( 1.224646799147353700E-16, 0.0000000000000000000, 1.000000000000000000 ) ) ;
#96 = ORIENTED_EDGE ( 'NONE', *, *, #253, .T. ) ;
#97 = SURFACE_STYLE_USAGE ( .BOTH. , #233 ) ;
#98 = VERTEX_POINT ( 'NONE', #307 ) ;
#99 = EDGE_CURVE ( 'NONE', #122, #49, #136, .T. ) ;
#100 = APPLICATION_PROTOCOL_DEFINITION ( 'draft international standard', 'automotive_design', 1998, #125 ) ;
#101 = CIRCLE ( 'NONE', #241, 0.06250000000000002776 ) ;
#102 = ADVANCED_FACE ( 'NONE', ( #7 ), #111, .T. ) ;
#103 = APPLICATION_CONTEXT ( 'automotive_design' ) ;
#104 = AXIS2_PLACEMENT_3D ( 'NONE', #131, #13, #63 ) ;
#105 = DIRECTION ( 'NONE',  ( -1.224646799147353700E-16, -0.0000000000000000000, -1.000000000000000000 ) ) ;
#106 = CARTESIAN_POINT ( 'NONE',  ( 0.03121875000000002426, 0.0000000000000000000, 0.1880000000000000282 ) ) ;
#107 = DIRECTION ( 'NONE',  ( -0.7071067811865462405, 0.0000000000000000000, -0.7071067811865486830 ) ) ;
#108 = COLOUR_RGB ( '',0.7921568627450980005, 0.8196078431372548767, 0.9333333333333333481 ) ;
#109 = DIRECTION ( 'NONE',  ( 1.224646799147353207E-16, 1.000000000000000000, -0.0000000000000000000 ) ) ;
#110 = PRODUCT ( 'Micro_BEM-062-04', 'Micro_BEM-062-04', '', ( #127 ) ) ;
#111 = SPHERICAL_SURFACE ( 'NONE', #218, 0.03121874999999999997 ) ;
#112 = EDGE_LOOP ( 'NONE', ( #51, #257, #271, #261 ) ) ;
#113 = FILL_AREA_STYLE ('',( #18 ) ) ;
#114 = ORIENTED_EDGE ( 'NONE', *, *, #213, .T. ) ;
#115 = EDGE_CURVE ( 'NONE', #195, #247, #178, .T. ) ;
#116 = DIRECTION ( 'NONE',  ( -1.000000000000000000, 0.0000000000000000000, 1.224646799147353947E-16 ) ) ;
#117 = FACE_OUTER_BOUND ( 'NONE', #221, .T. ) ;
#118 = MECHANICAL_DESIGN_GEOMETRIC_PRESENTATION_REPRESENTATION (  '', ( #194 ), #167 ) ;
#119 = ORIENTED_EDGE ( 'NONE', *, *, #186, .T. ) ;
#120 = CARTESIAN_POINT ( 'NONE',  ( 0.0000000000000000000, 0.0000000000000000000, 1.500000000000000222 ) ) ;
#121 = CARTESIAN_POINT ( 'NONE',  ( 0.04750000000000064587, 5.817072295950006528E-18, 1.500000000000000222 ) ) ;
#122 = VERTEX_POINT ( 'NONE', #31 ) ;
#123 = DIRECTION ( 'NONE',  ( 1.000000000000000000, 0.0000000000000000000, 0.0000000000000000000 ) ) ;
#124 = ADVANCED_FACE ( 'NONE', ( #134 ), #193, .T. ) ;
#125 = APPLICATION_CONTEXT ( 'automotive_design' ) ;
#126 = FACE_OUTER_BOUND ( 'NONE', #94, .T. ) ;
#127 = PRODUCT_CONTEXT ( 'NONE', #125, 'mechanical' ) ;
#128 = SURFACE_SIDE_STYLE ('',( #57 ) ) ;
#129 = DIMENSIONAL_EXPONENTS ( 1.000000000000000000, 0.0000000000000000000, 0.0000000000000000000, 0.0000000000000000000, 0.0000000000000000000, 0.0000000000000000000, 0.0000000000000000000 ) ;
#130 = EDGE_CURVE ( 'NONE', #84, #43, #214, .T. ) ;
#131 = CARTESIAN_POINT ( 'NONE',  ( 4.474917996329785777E-17, 0.0000000000000000000, 0.3654047844199156403 ) ) ;
#132 = AXIS2_PLACEMENT_3D ( 'NONE', #33, #87, #29 ) ;
#133 = AXIS2_PLACEMENT_3D ( 'NONE', #316, #150, #74 ) ;
#134 = FACE_OUTER_BOUND ( 'NONE', #188, .T. ) ;
#135 =( GEOMETRIC_REPRESENTATION_CONTEXT ( 3 ) GLOBAL_UNCERTAINTY_ASSIGNED_CONTEXT ( ( #267 ) ) GLOBAL_UNIT_ASSIGNED_CONTEXT ( ( #27, #80, #152 ) ) REPRESENTATION_CONTEXT ( 'NONE', 'WORKASPACE' ) );
#136 = LINE ( 'NONE', #11, #4 ) ;
#137 = CARTESIAN_POINT ( 'NONE',  ( 3.823194226088145228E-18, 0.0000000000000000000, 0.03121874999999999997 ) ) ;
#138 = FACE_OUTER_BOUND ( 'NONE', #234, .T. ) ;
#139 = PRODUCT_DEFINITION_SHAPE ( 'NONE', 'NONE',  #36 ) ;
#140 = DIRECTION ( 'NONE',  ( 1.000000000000000000, 0.0000000000000000000, 0.0000000000000000000 ) ) ;
#141 = EDGE_LOOP ( 'NONE', ( #14, #294, #86, #250 ) ) ;
#142 = EDGE_CURVE ( 'NONE', #122, #195, #154, .T. ) ;
#143 = DIRECTION ( 'NONE',  ( 0.0000000000000000000, 0.0000000000000000000, 1.000000000000000000 ) ) ;
#144 = FACE_OUTER_BOUND ( 'NONE', #112, .T. ) ;
#145 = VERTEX_POINT ( 'NONE', #64 ) ;
#146 =( CONVERSION_BASED_UNIT ( 'INCH', #168 ) LENGTH_UNIT ( ) NAMED_UNIT ( #272 ) );
#147 = ORIENTED_EDGE ( 'NONE', *, *, #171, .F. ) ;
#148 = DIRECTION ( 'NONE',  ( -1.000000000000000000, 0.0000000000000000000, 0.0000000000000000000 ) ) ;
#149 = ORIENTED_EDGE ( 'NONE', *, *, #8, .F. ) ;
#150 = DIRECTION ( 'NONE',  ( -0.0000000000000000000, -0.0000000000000000000, -1.000000000000000000 ) ) ;
#151 = CIRCLE ( 'NONE', #132, 0.04750000000000064587 ) ;
#152 =( NAMED_UNIT ( * ) SI_UNIT ( $, .STERADIAN. ) SOLID_ANGLE_UNIT ( ) );
#153 = DIRECTION ( 'NONE',  ( 0.0000000000000000000, 1.000000000000000000, 0.0000000000000000000 ) ) ;
#154 = CIRCLE ( 'NONE', #190, 0.03121874999999999997 ) ;
#155 = VECTOR ( 'NONE', #207, 39.37007874015748854 ) ;
#156 = DIRECTION ( 'NONE',  ( -1.224646799147353700E-16, -0.0000000000000000000, -1.000000000000000000 ) ) ;
#157 = CARTESIAN_POINT ( 'NONE',  ( -0.03121874999999999650, 0.0000000000000000000, 0.03121875000000000691 ) ) ;
#158 = ORIENTED_EDGE ( 'NONE', *, *, #82, .T. ) ;
#159 = ADVANCED_FACE ( 'NONE', ( #144 ), #273, .T. ) ;
#160 = ORIENTED_EDGE ( 'NONE', *, *, #220, .T. ) ;
#161 = PRODUCT_DEFINITION_FORMATION_WITH_SPECIFIED_SOURCE ( 'ANY', '', #110, .NOT_KNOWN. ) ;
#162 = DIRECTION ( 'NONE',  ( 0.0000000000000000000, -1.000000000000000000, 0.0000000000000000000 ) ) ;
#163 = CARTESIAN_POINT ( 'NONE',  ( 0.06250000000000002776, 7.654042494670959086E-18, 1.485000000000000764 ) ) ;
#164 = FACE_OUTER_BOUND ( 'NONE', #176, .T. ) ;
#165 = DIRECTION ( 'NONE',  ( 1.000000000000000000, 0.0000000000000000000, 0.0000000000000000000 ) ) ;
#166 = FILL_AREA_STYLE_COLOUR ( '', #303 ) ;
#167 =( GEOMETRIC_REPRESENTATION_CONTEXT ( 3 ) GLOBAL_UNCERTAINTY_ASSIGNED_CONTEXT ( ( #77 ) ) GLOBAL_UNIT_ASSIGNED_CONTEXT ( ( #93, #293, #260 ) ) REPRESENTATION_CONTEXT ( 'NONE', 'WORKASPACE' ) );
#168 = LENGTH_MEASURE_WITH_UNIT ( LENGTH_MEASURE( 0.02539999999999999897 ), #68 );
#169 = CARTESIAN_POINT ( 'NONE',  ( 0.03121875000000000691, 3.823194226088143687E-18, 0.03121874999999999650 ) ) ;
#170 = DIRECTION ( 'NONE',  ( 0.0000000000000000000, 0.0000000000000000000, 1.000000000000000000 ) ) ;
#171 = EDGE_CURVE ( 'NONE', #70, #16, #225, .T. ) ;
#172 = AXIS2_PLACEMENT_3D ( 'NONE', #137, #109, #201 ) ;
#173 = DIRECTION ( 'NONE',  ( -0.1736481776669311916, 2.126576849575783316E-17, 0.9848077530122080203 ) ) ;
#174 = CARTESIAN_POINT ( 'NONE',  ( 3.823194226088145228E-18, 0.0000000000000000000, 0.03121874999999999997 ) ) ;
#175 = AXIS2_PLACEMENT_3D ( 'NONE', #61, #156, #305 ) ;
#176 = EDGE_LOOP ( 'NONE', ( #147, #228, #19, #187 ) ) ;
#177 = DIRECTION ( 'NONE',  ( -1.224646799147353700E-16, -0.0000000000000000000, -1.000000000000000000 ) ) ;
#178 = LINE ( 'NONE', #243, #265 ) ;
#179 = VERTEX_POINT ( 'NONE', #163 ) ;
#180 = VECTOR ( 'NONE', #280, 39.37007874015748143 ) ;
#181 = LINE ( 'NONE', #121, #155 ) ;
#182 = DIRECTION ( 'NONE',  ( 0.0000000000000000000, 0.0000000000000000000, -1.000000000000000000 ) ) ;
#183 = ORIENTED_EDGE ( 'NONE', *, *, #26, .F. ) ;
#184 = CARTESIAN_POINT ( 'NONE',  ( 0.03121875000000002426, 0.0000000000000000000, 0.1880000000000000282 ) ) ;
#185 = ORIENTED_EDGE ( 'NONE', *, *, #99, .F. ) ;
#186 = EDGE_CURVE ( 'NONE', #179, #98, #78, .T. ) ;
#187 = ORIENTED_EDGE ( 'NONE', *, *, #46, .F. ) ;
#188 = EDGE_LOOP ( 'NONE', ( #40, #192, #209, #22 ) ) ;
#189 = DIRECTION ( 'NONE',  ( -1.224646799147353700E-16, -0.0000000000000000000, -1.000000000000000000 ) ) ;
#190 = AXIS2_PLACEMENT_3D ( 'NONE', #309, #310, #282 ) ;
#191 = PRESENTATION_STYLE_ASSIGNMENT (( #97 ) ) ;
#192 = ORIENTED_EDGE ( 'NONE', *, *, #82, .F. ) ;
#193 = CONICAL_SURFACE ( 'NONE', #315, 0.04750000000000064587, 0.7853981633974466137 ) ;
#194 = STYLED_ITEM ( 'NONE', ( #191 ), #242 ) ;
#195 = VERTEX_POINT ( 'NONE', #184 ) ;
#196 = CARTESIAN_POINT ( 'NONE',  ( 0.0000000000000000000, 0.0000000000000000000, 0.0000000000000000000 ) ) ;
#197 = DIRECTION ( 'NONE',  ( 1.000000000000000000, 0.0000000000000000000, 0.0000000000000000000 ) ) ;
#198 = CARTESIAN_POINT ( 'NONE',  ( 0.06250000000000002776, 7.654042494670959086E-18, 1.500000000000000222 ) ) ;
#199 = CARTESIAN_POINT ( 'NONE',  ( -0.06249999999999997918, 0.0000000000000000000, 0.3654047844199156403 ) ) ;
#200 = CONICAL_SURFACE ( 'NONE', #71, 0.04750000000000064587, 0.7853981633974466137 ) ;
#201 = DIRECTION ( 'NONE',  ( -1.000000000000000000, 1.224646799147353454E-16, 0.0000000000000000000 ) ) ;
#202 = DIRECTION ( 'NONE',  ( 0.0000000000000000000, 0.0000000000000000000, -1.000000000000000000 ) ) ;
#203 = DIRECTION ( 'NONE',  ( -1.224646799147353700E-16, -0.0000000000000000000, -1.000000000000000000 ) ) ;
#204 = CARTESIAN_POINT ( 'NONE',  ( -0.03121874999999999997, 0.0000000000000000000, 3.823194226088145228E-18 ) ) ;
#205 = CIRCLE ( 'NONE', #296, 0.03121874999999999997 ) ;
#206 = DIRECTION ( 'NONE',  ( 0.0000000000000000000, 0.0000000000000000000, -1.000000000000000000 ) ) ;
#207 = DIRECTION ( 'NONE',  ( 0.7071067811865462405, 8.659560562354916834E-17, -0.7071067811865486830 ) ) ;
#208 = EDGE_CURVE ( 'NONE', #98, #179, #101, .T. ) ;
#209 = ORIENTED_EDGE ( 'NONE', *, *, #46, .T. ) ;
#210 = DIRECTION ( 'NONE',  ( -0.0000000000000000000, -0.0000000000000000000, -1.000000000000000000 ) ) ;
#211 = DIRECTION ( 'NONE',  ( -1.224646799147353700E-16, -0.0000000000000000000, -1.000000000000000000 ) ) ;
#212 = DIRECTION ( 'NONE',  ( 1.000000000000000000, 0.0000000000000000000, 0.0000000000000000000 ) ) ;
#213 = EDGE_CURVE ( 'NONE', #195, #122, #60, .T. ) ;
#214 = CIRCLE ( 'NONE', #172, 0.03121874999999999997 ) ;
#215 = CONICAL_SURFACE ( 'NONE', #85, 0.03121874999999999997, 0.1745329251994338915 ) ;
#216 = ADVANCED_BREP_SHAPE_REPRESENTATION ( 'Micro_BEM-062-04', ( #242, #249 ), #227 ) ;
#217 = ORIENTED_EDGE ( 'NONE', *, *, #75, .T. ) ;
#218 = AXIS2_PLACEMENT_3D ( 'NONE', #224, #153, #276 ) ;
#219 = AXIS2_PLACEMENT_3D ( 'NONE', #120, #92, #140 ) ;
#220 = EDGE_CURVE ( 'NONE', #98, #49, #317, .T. ) ;
#221 = EDGE_LOOP ( 'NONE', ( #323, #311, #48 ) ) ;
#222 = DIRECTION ( 'NONE',  ( -1.000000000000000000, 0.0000000000000000000, 1.367291288120251888E-16 ) ) ;
#223 = ADVANCED_FACE ( 'NONE', ( #117 ), #42, .T. ) ;
#224 = CARTESIAN_POINT ( 'NONE',  ( 3.823194226088145228E-18, 0.0000000000000000000, 0.03121874999999999997 ) ) ;
#225 = CIRCLE ( 'NONE', #219, 0.04750000000000064587 ) ;
#226 = CARTESIAN_POINT ( 'NONE',  ( 0.04750000000000064587, 6.735557395310483192E-18, 1.500000000000000222 ) ) ;
#227 =( GEOMETRIC_REPRESENTATION_CONTEXT ( 3 ) GLOBAL_UNCERTAINTY_ASSIGNED_CONTEXT ( ( #284 ) ) GLOBAL_UNIT_ASSIGNED_CONTEXT ( ( #146, #50, #325 ) ) REPRESENTATION_CONTEXT ( 'NONE', 'WORKASPACE' ) );
#228 = ORIENTED_EDGE ( 'NONE', *, *, #262, .T. ) ;
#229 = DIRECTION ( 'NONE',  ( 1.000000000000000000, 0.0000000000000000000, -0.0000000000000000000 ) ) ;
#230 = DIRECTION ( 'NONE',  ( 1.000000000000000000, 0.0000000000000000000, 0.0000000000000000000 ) ) ;
#231 = ORIENTED_EDGE ( 'NONE', *, *, #308, .T. ) ;
#232 = AXIS2_PLACEMENT_3D ( 'NONE', #39, #182, #123 ) ;
#233 = SURFACE_SIDE_STYLE ('',( #69 ) ) ;
#234 = EDGE_LOOP ( 'NONE', ( #90, #114, #231, #96 ) ) ;
#235 =( LENGTH_UNIT ( ) NAMED_UNIT ( * ) SI_UNIT ( $, .METRE. ) );
#236 = CARTESIAN_POINT ( 'NONE',  ( 0.0000000000000000000, 0.0000000000000000000, 1.500000000000000222 ) ) ;
#237 = APPLICATION_PROTOCOL_DEFINITION ( 'draft international standard', 'automotive_design', 1998, #103 ) ;
#238 = EDGE_LOOP ( 'NONE', ( #45, #217, #149, #292 ) ) ;
#239 =( LENGTH_UNIT ( ) NAMED_UNIT ( * ) SI_UNIT ( $, .METRE. ) );
#240 = AXIS2_PLACEMENT_3D ( 'NONE', #10, #105, #197 ) ;
#241 = AXIS2_PLACEMENT_3D ( 'NONE', #290, #206, #165 ) ;
#242 = MANIFOLD_SOLID_BREP ( 'Fillet1', #278 ) ;
#243 = CARTESIAN_POINT ( 'NONE',  ( 0.03121874999999999997, 3.823194226088143687E-18, -3.823194226088145228E-18 ) ) ;
#244 = AXIS2_PLACEMENT_3D ( 'NONE', #313, #95, #88 ) ;
#245 = LINE ( 'NONE', #198, #248 ) ;
#246 = CARTESIAN_POINT ( 'NONE',  ( -0.04750000000000064587, 0.0000000000000000000, 1.500000000000000222 ) ) ;
#247 = VERTEX_POINT ( 'NONE', #169 ) ;
#248 = VECTOR ( 'NONE', #59, 39.37007874015748143 ) ;
#249 = AXIS2_PLACEMENT_3D ( 'NONE', #196, #170, #270 ) ;
#250 = ORIENTED_EDGE ( 'NONE', *, *, #308, .F. ) ;
#251 = CARTESIAN_POINT ( 'NONE',  ( 2.302335982397025094E-17, 0.0000000000000000000, 0.1880000000000000282 ) ) ;
#252 = DIRECTION ( 'NONE',  ( -0.0000000000000000000, -0.0000000000000000000, -1.000000000000000000 ) ) ;
#253 = EDGE_CURVE ( 'NONE', #43, #247, #2, .T. ) ;
#254 = ADVANCED_FACE ( 'NONE', ( #21 ), #23, .T. ) ;
#255 = DIRECTION ( 'NONE',  ( 0.0000000000000000000, 0.0000000000000000000, -1.000000000000000000 ) ) ;
#256 = CARTESIAN_POINT ( 'NONE',  ( 2.302335982397025094E-17, 0.0000000000000000000, 0.1880000000000000282 ) ) ;
#257 = ORIENTED_EDGE ( 'NONE', *, *, #99, .T. ) ;
#258 = CARTESIAN_POINT ( 'NONE',  ( 3.823194226088145228E-18, 0.0000000000000000000, 0.03121874999999999997 ) ) ;
#259 = VECTOR ( 'NONE', #189, 39.37007874015748143 ) ;
#260 =( NAMED_UNIT ( * ) SI_UNIT ( $, .STERADIAN. ) SOLID_ANGLE_UNIT ( ) );
#261 = ORIENTED_EDGE ( 'NONE', *, *, #32, .F. ) ;
#262 = EDGE_CURVE ( 'NONE', #70, #179, #181, .T. ) ;
#263 = ORIENTED_EDGE ( 'NONE', *, *, #213, .F. ) ;
#264 = FACE_OUTER_BOUND ( 'NONE', #141, .T. ) ;
#265 = VECTOR ( 'NONE', #177, 39.37007874015748143 ) ;
#266 = AXIS2_PLACEMENT_3D ( 'NONE', #15, #321, #44 ) ;
#267 = UNCERTAINTY_MEASURE_WITH_UNIT (LENGTH_MEASURE( 1.000000000000000082E-05 ), #27, 'distance_accuracy_value', 'NONE');
#268 = EDGE_LOOP ( 'NONE', ( #9, #297, #73 ) ) ;
#269 = ADVANCED_FACE ( 'NONE', ( #264 ), #285, .T. ) ;
#270 = DIRECTION ( 'NONE',  ( 1.000000000000000000, 0.0000000000000000000, 0.0000000000000000000 ) ) ;
#271 = ORIENTED_EDGE ( 'NONE', *, *, #8, .T. ) ;
#272 = DIMENSIONAL_EXPONENTS ( 1.000000000000000000, 0.0000000000000000000, 0.0000000000000000000, 0.0000000000000000000, 0.0000000000000000000, 0.0000000000000000000, 0.0000000000000000000 ) ;
#273 = CONICAL_SURFACE ( 'NONE', #38, 0.03121874999999999997, 0.1745329251994338915 ) ;
#274 = ADVANCED_FACE ( 'NONE', ( #52 ), #65, .T. ) ;
#275 = ORIENTED_EDGE ( 'NONE', *, *, #171, .T. ) ;
#276 = DIRECTION ( 'NONE',  ( 1.000000000000000000, 0.0000000000000000000, 0.0000000000000000000 ) ) ;
#277 = LINE ( 'NONE', #246, #12 ) ;
#278 = CLOSED_SHELL ( 'NONE', ( #102, #269, #159, #312, #274, #254, #286, #124, #301, #53, #223 ) ) ;
#279 = VECTOR ( 'NONE', #252, 39.37007874015748143 ) ;
#280 = DIRECTION ( 'NONE',  ( 0.1736481776669313859, 0.0000000000000000000, 0.9848077530122077983 ) ) ;
#281 = CARTESIAN_POINT ( 'NONE',  ( 0.0000000000000000000, 0.0000000000000000000, 1.500000000000000222 ) ) ;
#282 = DIRECTION ( 'NONE',  ( -1.000000000000000000, 0.0000000000000000000, 0.0000000000000000000 ) ) ;
#283 = ORIENTED_EDGE ( 'NONE', *, *, #75, .F. ) ;
#284 = UNCERTAINTY_MEASURE_WITH_UNIT (LENGTH_MEASURE( 1.000000000000000082E-05 ), #146, 'distance_accuracy_value', 'NONE');
#285 = CYLINDRICAL_SURFACE ( 'NONE', #30, 0.03121874999999999997 ) ;
#286 = ADVANCED_FACE ( 'NONE', ( #41 ), #24, .T. ) ;
#287 = DIRECTION ( 'NONE',  ( -1.000000000000000000, 0.0000000000000000000, 0.0000000000000000000 ) ) ;
#288 = EDGE_CURVE ( 'NONE', #84, #247, #205, .T. ) ;
#289 = EDGE_LOOP ( 'NONE', ( #283, #119, #160, #183 ) ) ;
#290 = CARTESIAN_POINT ( 'NONE',  ( 0.0000000000000000000, 0.0000000000000000000, 1.485000000000000764 ) ) ;
#291 = LINE ( 'NONE', #204, #259 ) ;
#292 = ORIENTED_EDGE ( 'NONE', *, *, #220, .F. ) ;
#293 =( NAMED_UNIT ( * ) PLANE_ANGLE_UNIT ( ) SI_UNIT ( $, .RADIAN. ) );
#294 = ORIENTED_EDGE ( 'NONE', *, *, #115, .T. ) ;
#295 = CARTESIAN_POINT ( 'NONE',  ( 0.0000000000000000000, 0.0000000000000000000, 1.500000000000000222 ) ) ;
#296 = AXIS2_PLACEMENT_3D ( 'NONE', #258, #162, #255 ) ;
#297 = ORIENTED_EDGE ( 'NONE', *, *, #130, .T. ) ;
#298 = FILL_AREA_STYLE ('',( #166 ) ) ;
#299 = AXIS2_PLACEMENT_3D ( 'NONE', #174, #37, #222 ) ;
#300 = PRESENTATION_LAYER_ASSIGNMENT (  '', '', ( #194 ) ) ;
#301 = ADVANCED_FACE ( 'NONE', ( #126 ), #215, .T. ) ;
#302 = PRODUCT_RELATED_PRODUCT_CATEGORY ( 'part', '', ( #110 ) ) ;
#303 = COLOUR_RGB ( '',0.7921568627450980005, 0.8196078431372548767, 0.9333333333333333481 ) ;
#304 = MECHANICAL_DESIGN_GEOMETRIC_PRESENTATION_REPRESENTATION (  '', ( #35 ), #135 ) ;
#305 = DIRECTION ( 'NONE',  ( -1.000000000000000000, 0.0000000000000000000, 1.224646799147353947E-16 ) ) ;
#306 = DIRECTION ( 'NONE',  ( -1.000000000000000000, 0.0000000000000000000, 0.0000000000000000000 ) ) ;
#307 = CARTESIAN_POINT ( 'NONE',  ( -0.06250000000000002776, 0.0000000000000000000, 1.485000000000000764 ) ) ;
#308 = EDGE_CURVE ( 'NONE', #122, #43, #291, .T. ) ;
#309 = CARTESIAN_POINT ( 'NONE',  ( 2.302335982397025094E-17, 0.0000000000000000000, 0.1880000000000000282 ) ) ;
#310 = DIRECTION ( 'NONE',  ( -1.224646799147353700E-16, -0.0000000000000000000, -1.000000000000000000 ) ) ;
#311 = ORIENTED_EDGE ( 'NONE', *, *, #288, .T. ) ;
#312 = ADVANCED_FACE ( 'NONE', ( #164 ), #200, .T. ) ;
#313 = CARTESIAN_POINT ( 'NONE',  ( 3.823194226088145228E-18, 0.0000000000000000000, 0.03121874999999999997 ) ) ;
#314 = CARTESIAN_POINT ( 'NONE',  ( 2.302335982397025094E-17, 0.0000000000000000000, 0.1880000000000000282 ) ) ;
#315 = AXIS2_PLACEMENT_3D ( 'NONE', #281, #202, #306 ) ;
#316 = CARTESIAN_POINT ( 'NONE',  ( 0.0000000000000000000, 0.0000000000000000000, 1.500000000000000222 ) ) ;
#317 = LINE ( 'NONE', #47, #279 ) ;
#318 = LENGTH_MEASURE_WITH_UNIT ( LENGTH_MEASURE( 0.02539999999999999897 ), #235 );
#319 = ORIENTED_EDGE ( 'NONE', *, *, #26, .T. ) ;
#320 = CARTESIAN_POINT ( 'NONE',  ( 0.0000000000000000000, 0.0000000000000000000, 0.0000000000000000000 ) ) ;
#321 = DIRECTION ( 'NONE',  ( 0.0000000000000000000, 1.000000000000000000, 0.0000000000000000000 ) ) ;
#322 = PRESENTATION_LAYER_ASSIGNMENT (  '', '', ( #35 ) ) ;
#323 = ORIENTED_EDGE ( 'NONE', *, *, #130, .F. ) ;
#324 = CIRCLE ( 'NONE', #104, 0.06250000000000002776 ) ;
#325 =( NAMED_UNIT ( * ) SI_UNIT ( $, .STERADIAN. ) SOLID_ANGLE_UNIT ( ) );
ENDSEC;
END-ISO-10303-21;
