ISO-10303-21;
HEADER;
FILE_DESCRIPTION (( 'STEP AP214' ),
    '1' );
FILE_NAME ('59704.STEP',
    '2023-07-24T15:26:14',
    ( '' ),
    ( '' ),
    'SwSTEP 2.0',
    'SolidWorks 2023',
    '' );
FILE_SCHEMA (( 'AUTOMOTIVE_DESIGN' ));
ENDSEC;

DATA;
#1 = EDGE_LOOP ( 'NONE', ( #335, #323 ) ) ;
#2 = ADVANCED_FACE ( 'NONE', ( #267 ), #361, .T. ) ;
#3 = FACE_OUTER_BOUND ( 'NONE', #152, .T. ) ;
#4 = MECHANICAL_DESIGN_GEOMETRIC_PRESENTATION_REPRESENTATION (  '', ( #279 ), #198 ) ;
#5 = DIRECTION ( 'NONE',  ( -9.135657442593541248E-17, 1.000000000000000000, -0.000000000000000000 ) ) ;
#6 = PRODUCT_DEFINITION_SHAPE ( 'NONE', 'NONE',  #355 ) ;
#7 = EDGE_CURVE ( 'NONE', #243, #35, #179, .T. ) ;
#8 = DIRECTION ( 'NONE',  ( -9.135657442593541248E-17, 1.000000000000000000, -0.000000000000000000 ) ) ;
#9 = DIRECTION ( 'NONE',  ( 0.000000000000000000, 0.000000000000000000, -1.000000000000000000 ) ) ;
#10 = FACE_OUTER_BOUND ( 'NONE', #341, .T. ) ;
#11 =( NAMED_UNIT ( * ) PLANE_ANGLE_UNIT ( ) SI_UNIT ( $, .RADIAN. ) );
#12 = CARTESIAN_POINT ( 'NONE',  ( -4.999999999999987566, 15.00000000000000000, 0.000000000000000000 ) ) ;
#13 = UNCERTAINTY_MEASURE_WITH_UNIT (LENGTH_MEASURE( 1.000000000000000082E-05 ), #362, 'distance_accuracy_value', 'NONE');
#14 = EDGE_CURVE ( 'NONE', #144, #26, #277, .T. ) ;
#15 = AXIS2_PLACEMENT_3D ( 'NONE', #344, #25, #305 ) ;
#16 =( NAMED_UNIT ( * ) PLANE_ANGLE_UNIT ( ) SI_UNIT ( $, .RADIAN. ) );
#17 = PRESENTATION_STYLE_ASSIGNMENT (( #293 ) ) ;
#18 = FILL_AREA_STYLE ('',( #49 ) ) ;
#19 = FILL_AREA_STYLE ('',( #155 ) ) ;
#20 = AXIS2_PLACEMENT_3D ( 'NONE', #271, #39, #235 ) ;
#21 = ORIENTED_EDGE ( 'NONE', *, *, #147, .F. ) ;
#22 =( GEOMETRIC_REPRESENTATION_CONTEXT ( 3 ) GLOBAL_UNCERTAINTY_ASSIGNED_CONTEXT ( ( #75 ) ) GLOBAL_UNIT_ASSIGNED_CONTEXT ( ( #116, #282, #91 ) ) REPRESENTATION_CONTEXT ( 'NONE', 'WORKASPACE' ) );
#23 = LINE ( 'NONE', #309, #346 ) ;
#24 = ORIENTED_EDGE ( 'NONE', *, *, #222, .F. ) ;
#25 = DIRECTION ( 'NONE',  ( -0.000000000000000000, -1.000000000000000000, -0.000000000000000000 ) ) ;
#26 = VERTEX_POINT ( 'NONE', #292 ) ;
#27 = STYLED_ITEM ( 'NONE', ( #41 ), #239 ) ;
#28 = CARTESIAN_POINT ( 'NONE',  ( 1.469576158976823750E-15, 63.00000000000000000, 0.000000000000000000 ) ) ;
#29 = EDGE_CURVE ( 'NONE', #73, #300, #122, .T. ) ;
#30 = DIRECTION ( 'NONE',  ( -1.000000000000000000, 0.000000000000000000, 0.000000000000000000 ) ) ;
#31 = CARTESIAN_POINT ( 'NONE',  ( 6.123233995736766282E-16, 0.000000000000000000, 5.000000000000000000 ) ) ;
#32 = CIRCLE ( 'NONE', #15, 5.000000000000000000 ) ;
#33 = ADVANCED_FACE ( 'NONE', ( #10 ), #105, .T. ) ;
#34 = FACE_OUTER_BOUND ( 'NONE', #302, .T. ) ;
#35 = VERTEX_POINT ( 'NONE', #81 ) ;
#36 = AXIS2_PLACEMENT_3D ( 'NONE', #28, #275, #214 ) ;
#37 =( GEOMETRIC_REPRESENTATION_CONTEXT ( 3 ) GLOBAL_UNCERTAINTY_ASSIGNED_CONTEXT ( ( #13 ) ) GLOBAL_UNIT_ASSIGNED_CONTEXT ( ( #362, #191, #367 ) ) REPRESENTATION_CONTEXT ( 'NONE', 'WORKASPACE' ) );
#38 = DIRECTION ( 'NONE',  ( -0.000000000000000000, -1.000000000000000000, -0.000000000000000000 ) ) ;
#39 = DIRECTION ( 'NONE',  ( -0.000000000000000000, -1.000000000000000000, -0.000000000000000000 ) ) ;
#40 = UNCERTAINTY_MEASURE_WITH_UNIT (LENGTH_MEASURE( 1.000000000000000082E-05 ), #210, 'distance_accuracy_value', 'NONE');
#41 = PRESENTATION_STYLE_ASSIGNMENT (( #354 ) ) ;
#42 = VERTEX_POINT ( 'NONE', #186 ) ;
#43 = COLOUR_RGB ( '',1.000000000000000000, 0.000000000000000000, 0.000000000000000000 ) ;
#44 = EDGE_CURVE ( 'NONE', #42, #35, #368, .T. ) ;
#45 = VECTOR ( 'NONE', #5, 1000.000000000000000 ) ;
#46 = CARTESIAN_POINT ( 'NONE',  ( 5.000000000000000000, 63.00000000000000000, 0.000000000000000000 ) ) ;
#47 = ORIENTED_EDGE ( 'NONE', *, *, #14, .F. ) ;
#48 =( NAMED_UNIT ( * ) SI_UNIT ( $, .STERADIAN. ) SOLID_ANGLE_UNIT ( ) );
#49 = FILL_AREA_STYLE_COLOUR ( '', #202 ) ;
#50 = AXIS2_PLACEMENT_3D ( 'NONE', #231, #69, #135 ) ;
#51 = MECHANICAL_DESIGN_GEOMETRIC_PRESENTATION_REPRESENTATION (  '', ( #153 ), #22 ) ;
#52 = EDGE_CURVE ( 'NONE', #35, #243, #184, .T. ) ;
#53 =( LENGTH_UNIT ( ) NAMED_UNIT ( * ) SI_UNIT ( .MILLI., .METRE. ) );
#54 =( NAMED_UNIT ( * ) SI_UNIT ( $, .STERADIAN. ) SOLID_ANGLE_UNIT ( ) );
#55 = DIRECTION ( 'NONE',  ( -9.135657442593541248E-17, 1.000000000000000000, -0.000000000000000000 ) ) ;
#56 = ORIENTED_EDGE ( 'NONE', *, *, #83, .F. ) ;
#57 = PRODUCT_CONTEXT ( 'NONE', #96, 'mechanical' ) ;
#58 = CIRCLE ( 'NONE', #290, 0.4999999999999995559 ) ;
#59 = CARTESIAN_POINT ( 'NONE',  ( 0.000000000000000000, 0.000000000000000000, 0.000000000000000000 ) ) ;
#60 = TOROIDAL_SURFACE ( 'NONE', #280, 4.500000000000000888, 0.4999999999999997780 ) ;
#61 = DIRECTION ( 'NONE',  ( -1.000000000000000000, -9.135657442593541248E-17, 0.000000000000000000 ) ) ;
#62 = PRODUCT ( '59704', '59704', '', ( #57 ) ) ;
#63 = CARTESIAN_POINT ( 'NONE',  ( 5.854691731421723944E-15, 15.00000000000000000, 0.000000000000000000 ) ) ;
#64 = FILL_AREA_STYLE ('',( #311 ) ) ;
#65 = LINE ( 'NONE', #74, #160 ) ;
#66 = EDGE_CURVE ( 'NONE', #87, #42, #170, .T. ) ;
#67 = COLOUR_RGB ( '',1.000000000000000000, 0.000000000000000000, 0.000000000000000000 ) ;
#68 = PRODUCT_DEFINITION_CONTEXT ( 'detailed design', #328, 'design' ) ;
#69 = DIRECTION ( 'NONE',  ( 0.000000000000000000, 1.000000000000000000, 0.000000000000000000 ) ) ;
#70 = ADVANCED_FACE ( 'NONE', ( #244 ), #220, .T. ) ;
#71 = CARTESIAN_POINT ( 'NONE',  ( 5.510910596163089556E-16, 0.5000000000000000000, 4.500000000000000888 ) ) ;
#72 = SURFACE_SIDE_STYLE ('',( #128 ) ) ;
#73 = VERTEX_POINT ( 'NONE', #145 ) ;
#74 = CARTESIAN_POINT ( 'NONE',  ( 0.000000000000000000, 0.000000000000000000, -5.000000000000000000 ) ) ;
#75 = UNCERTAINTY_MEASURE_WITH_UNIT (LENGTH_MEASURE( 1.000000000000000082E-05 ), #116, 'distance_accuracy_value', 'NONE');
#76 = ADVANCED_FACE ( 'NONE', ( #340 ), #192, .F. ) ;
#77 = AXIS2_PLACEMENT_3D ( 'NONE', #195, #146, #337 ) ;
#78 = MECHANICAL_DESIGN_GEOMETRIC_PRESENTATION_REPRESENTATION (  '', ( #333 ), #164 ) ;
#79 = ORIENTED_EDGE ( 'NONE', *, *, #286, .T. ) ;
#80 =( LENGTH_UNIT ( ) NAMED_UNIT ( * ) SI_UNIT ( .MILLI., .METRE. ) );
#81 = CARTESIAN_POINT ( 'NONE',  ( 5.817072295949928412E-16, 0.000000000000000000, 4.500000000000000888 ) ) ;
#82 = SURFACE_STYLE_FILL_AREA ( #18 ) ;
#83 = EDGE_CURVE ( 'NONE', #300, #73, #32, .T. ) ;
#84 = EDGE_LOOP ( 'NONE', ( #241, #306 ) ) ;
#85 = PRESENTATION_STYLE_ASSIGNMENT (( #109 ) ) ;
#86 = AXIS2_PLACEMENT_3D ( 'NONE', #360, #181, #189 ) ;
#87 = VERTEX_POINT ( 'NONE', #174 ) ;
#88 = SHAPE_DEFINITION_REPRESENTATION ( #6, #316 ) ;
#89 = COLOUR_RGB ( '',0.7921568627450980005, 0.8196078431372548767, 0.9333333333333333481 ) ;
#90 = DIRECTION ( 'NONE',  ( 0.000000000000000000, 0.000000000000000000, -1.000000000000000000 ) ) ;
#91 =( NAMED_UNIT ( * ) SI_UNIT ( $, .STERADIAN. ) SOLID_ANGLE_UNIT ( ) );
#92 = FACE_OUTER_BOUND ( 'NONE', #366, .T. ) ;
#93 =( GEOMETRIC_REPRESENTATION_CONTEXT ( 3 ) GLOBAL_UNCERTAINTY_ASSIGNED_CONTEXT ( ( #325 ) ) GLOBAL_UNIT_ASSIGNED_CONTEXT ( ( #342, #301, #221 ) ) REPRESENTATION_CONTEXT ( 'NONE', 'WORKASPACE' ) );
#94 = DIRECTION ( 'NONE',  ( 0.000000000000000000, 0.000000000000000000, 1.000000000000000000 ) ) ;
#95 = DIRECTION ( 'NONE',  ( -9.135657442593541248E-17, 1.000000000000000000, -0.000000000000000000 ) ) ;
#96 = APPLICATION_CONTEXT ( 'automotive_design' ) ;
#97 = ADVANCED_FACE ( 'NONE', ( #92 ), #224, .T. ) ;
#98 =( LENGTH_UNIT ( ) NAMED_UNIT ( * ) SI_UNIT ( .MILLI., .METRE. ) );
#99 = ORIENTED_EDGE ( 'NONE', *, *, #286, .F. ) ;
#100 =( NAMED_UNIT ( * ) SI_UNIT ( $, .STERADIAN. ) SOLID_ANGLE_UNIT ( ) );
#101 = CARTESIAN_POINT ( 'NONE',  ( 0.000000000000000000, 15.00000000000000000, 0.000000000000000000 ) ) ;
#102 = FACE_OUTER_BOUND ( 'NONE', #84, .T. ) ;
#103 = EDGE_LOOP ( 'NONE', ( #213, #56 ) ) ;
#104 = FILL_AREA_STYLE_COLOUR ( '', #115 ) ;
#105 = CYLINDRICAL_SURFACE ( 'NONE', #349, 5.000000000000000000 ) ;
#106 = PRESENTATION_LAYER_ASSIGNMENT (  '', '', ( #279 ) ) ;
#107 = PRESENTATION_STYLE_ASSIGNMENT (( #134 ) ) ;
#108 = CARTESIAN_POINT ( 'NONE',  ( 0.000000000000000000, 0.5000000000000000000, -4.500000000000000888 ) ) ;
#109 = SURFACE_STYLE_USAGE ( .BOTH. , #363 ) ;
#110 = DIRECTION ( 'NONE',  ( 1.000000000000000000, 0.000000000000000000, 0.000000000000000000 ) ) ;
#111 =( NAMED_UNIT ( * ) PLANE_ANGLE_UNIT ( ) SI_UNIT ( $, .RADIAN. ) );
#112 =( GEOMETRIC_REPRESENTATION_CONTEXT ( 3 ) GLOBAL_UNCERTAINTY_ASSIGNED_CONTEXT ( ( #262 ) ) GLOBAL_UNIT_ASSIGNED_CONTEXT ( ( #98, #11, #319 ) ) REPRESENTATION_CONTEXT ( 'NONE', 'WORKASPACE' ) );
#113 = AXIS2_PLACEMENT_3D ( 'NONE', #59, #172, #120 ) ;
#114 = ORIENTED_EDGE ( 'NONE', *, *, #125, .T. ) ;
#115 = COLOUR_RGB ( '',1.000000000000000000, 0.000000000000000000, 0.000000000000000000 ) ;
#116 =( LENGTH_UNIT ( ) NAMED_UNIT ( * ) SI_UNIT ( .MILLI., .METRE. ) );
#117 = ORIENTED_EDGE ( 'NONE', *, *, #161, .T. ) ;
#118 = APPLICATION_PROTOCOL_DEFINITION ( 'draft international standard', 'automotive_design', 1998, #96 ) ;
#119 = DIRECTION ( 'NONE',  ( 0.000000000000000000, 0.000000000000000000, -1.000000000000000000 ) ) ;
#120 = DIRECTION ( 'NONE',  ( 0.000000000000000000, 0.000000000000000000, -1.000000000000000000 ) ) ;
#121 = CARTESIAN_POINT ( 'NONE',  ( -4.999999999999996447, 63.00000000000000000, 0.000000000000000000 ) ) ;
#122 = CIRCLE ( 'NONE', #225, 5.000000000000000000 ) ;
#123 = TOROIDAL_SURFACE ( 'NONE', #218, 4.500000000000000888, 0.4999999999999997780 ) ;
#124 = AXIS2_PLACEMENT_3D ( 'NONE', #242, #38, #119 ) ;
#125 = EDGE_CURVE ( 'NONE', #260, #26, #23, .T. ) ;
#126 = MECHANICAL_DESIGN_GEOMETRIC_PRESENTATION_REPRESENTATION (  '', ( #27 ), #93 ) ;
#127 = ORIENTED_EDGE ( 'NONE', *, *, #29, .T. ) ;
#128 = SURFACE_STYLE_FILL_AREA ( #263 ) ;
#129 = UNCERTAINTY_MEASURE_WITH_UNIT (LENGTH_MEASURE( 1.000000000000000082E-05 ), #53, 'distance_accuracy_value', 'NONE');
#130 = COLOUR_RGB ( '',0.7921568627450980005, 0.8196078431372548767, 0.9333333333333333481 ) ;
#131 = ADVANCED_FACE ( 'NONE', ( #370 ), #278, .T. ) ;
#132 = SURFACE_STYLE_FILL_AREA ( #201 ) ;
#133 =( LENGTH_UNIT ( ) NAMED_UNIT ( * ) SI_UNIT ( .MILLI., .METRE. ) );
#134 = SURFACE_STYLE_USAGE ( .BOTH. , #163 ) ;
#135 = DIRECTION ( 'NONE',  ( 0.000000000000000000, -0.000000000000000000, 1.000000000000000000 ) ) ;
#136 = CIRCLE ( 'NONE', #255, 4.999999999999993783 ) ;
#137 = DIRECTION ( 'NONE',  ( 0.000000000000000000, 0.000000000000000000, -1.000000000000000000 ) ) ;
#138 = SURFACE_STYLE_FILL_AREA ( #64 ) ;
#139 = FILL_AREA_STYLE ('',( #251 ) ) ;
#140 = ADVANCED_FACE ( 'NONE', ( #3 ), #123, .T. ) ;
#141 = ORIENTED_EDGE ( 'NONE', *, *, #318, .F. ) ;
#142 = CARTESIAN_POINT ( 'NONE',  ( 1.469576158976823750E-15, 63.00000000000000000, 0.000000000000000000 ) ) ;
#143 = AXIS2_PLACEMENT_3D ( 'NONE', #347, #8, #199 ) ;
#144 = VERTEX_POINT ( 'NONE', #121 ) ;
#145 = CARTESIAN_POINT ( 'NONE',  ( 0.000000000000000000, 15.00000000000000000, -5.000000000000000000 ) ) ;
#146 = DIRECTION ( 'NONE',  ( 0.000000000000000000, -1.000000000000000000, -0.000000000000000000 ) ) ;
#147 = EDGE_CURVE ( 'NONE', #300, #42, #229, .T. ) ;
#148 = CLOSED_SHELL ( 'NONE', ( #33, #365, #131, #140, #239, #2 ) ) ;
#149 = STYLED_ITEM ( 'NONE', ( #85 ), #140 ) ;
#150 = CARTESIAN_POINT ( 'NONE',  ( 0.000000000000000000, 0.5000000000000000000, 0.000000000000000000 ) ) ;
#151 = CYLINDRICAL_SURFACE ( 'NONE', #113, 5.000000000000000000 ) ;
#152 = EDGE_LOOP ( 'NONE', ( #204, #297, #245, #187 ) ) ;
#153 = STYLED_ITEM ( 'NONE', ( #217 ), #131 ) ;
#154 = SURFACE_STYLE_USAGE ( .BOTH. , #259 ) ;
#155 = FILL_AREA_STYLE_COLOUR ( '', #291 ) ;
#156 = FILL_AREA_STYLE ('',( #104 ) ) ;
#157 = DIRECTION ( 'NONE',  ( 0.000000000000000000, 0.000000000000000000, -1.000000000000000000 ) ) ;
#158 = UNCERTAINTY_MEASURE_WITH_UNIT (LENGTH_MEASURE( 1.000000000000000082E-05 ), #200, 'distance_accuracy_value', 'NONE');
#159 = MECHANICAL_DESIGN_GEOMETRIC_PRESENTATION_REPRESENTATION (  '', ( #322 ), #112 ) ;
#160 = VECTOR ( 'NONE', #182, 1000.000000000000000 ) ;
#161 = EDGE_CURVE ( 'NONE', #260, #330, #238, .T. ) ;
#162 = ORIENTED_EDGE ( 'NONE', *, *, #304, .T. ) ;
#163 = SURFACE_SIDE_STYLE ('',( #82 ) ) ;
#164 =( GEOMETRIC_REPRESENTATION_CONTEXT ( 3 ) GLOBAL_UNCERTAINTY_ASSIGNED_CONTEXT ( ( #158 ) ) GLOBAL_UNIT_ASSIGNED_CONTEXT ( ( #200, #258, #236 ) ) REPRESENTATION_CONTEXT ( 'NONE', 'WORKASPACE' ) );
#165 = EDGE_LOOP ( 'NONE', ( #250, #117, #162, #273 ) ) ;
#166 = ORIENTED_EDGE ( 'NONE', *, *, #304, .F. ) ;
#167 = DIRECTION ( 'NONE',  ( -0.000000000000000000, -1.000000000000000000, -0.000000000000000000 ) ) ;
#168 = SURFACE_STYLE_FILL_AREA ( #139 ) ;
#169 = ORIENTED_EDGE ( 'NONE', *, *, #83, .T. ) ;
#170 = CIRCLE ( 'NONE', #175, 5.000000000000000000 ) ;
#171 = VECTOR ( 'NONE', #257, 1000.000000000000000 ) ;
#172 = DIRECTION ( 'NONE',  ( -0.000000000000000000, -1.000000000000000000, -0.000000000000000000 ) ) ;
#173 = CARTESIAN_POINT ( 'NONE',  ( 6.123233995736766282E-16, 15.00000000000000000, 5.000000000000000000 ) ) ;
#174 = CARTESIAN_POINT ( 'NONE',  ( 0.000000000000000000, 0.5000000000000000000, -5.000000000000000000 ) ) ;
#175 = AXIS2_PLACEMENT_3D ( 'NONE', #223, #274, #90 ) ;
#176 = CARTESIAN_POINT ( 'NONE',  ( 0.000000000000000000, 0.5000000000000000000, 0.000000000000000000 ) ) ;
#177 = CARTESIAN_POINT ( 'NONE',  ( 1.469576158976823750E-15, 63.00000000000000000, 0.000000000000000000 ) ) ;
#178 = DIRECTION ( 'NONE',  ( 1.000000000000000000, 0.000000000000000000, -1.224646799147353207E-16 ) ) ;
#179 = CIRCLE ( 'NONE', #20, 4.500000000000000888 ) ;
#180 = CIRCLE ( 'NONE', #270, 4.999999999999998224 ) ;
#181 = DIRECTION ( 'NONE',  ( -9.135657442593541248E-17, 1.000000000000000000, -0.000000000000000000 ) ) ;
#182 = DIRECTION ( 'NONE',  ( -0.000000000000000000, -1.000000000000000000, -0.000000000000000000 ) ) ;
#183 =( NAMED_UNIT ( * ) SI_UNIT ( $, .STERADIAN. ) SOLID_ANGLE_UNIT ( ) );
#184 = CIRCLE ( 'NONE', #124, 4.500000000000000888 ) ;
#185 = ORIENTED_EDGE ( 'NONE', *, *, #7, .F. ) ;
#186 = CARTESIAN_POINT ( 'NONE',  ( 6.123233995736766282E-16, 0.5000000000000000000, 5.000000000000000000 ) ) ;
#187 = ORIENTED_EDGE ( 'NONE', *, *, #52, .F. ) ;
#188 = CARTESIAN_POINT ( 'NONE',  ( 0.000000000000000000, 0.000000000000000000, -4.500000000000000888 ) ) ;
#189 = DIRECTION ( 'NONE',  ( -1.000000000000000000, 0.000000000000000000, 0.000000000000000000 ) ) ;
#190 = ORIENTED_EDGE ( 'NONE', *, *, #66, .T. ) ;
#191 =( NAMED_UNIT ( * ) PLANE_ANGLE_UNIT ( ) SI_UNIT ( $, .RADIAN. ) );
#192 = PLANE ( 'NONE',  #226 ) ;
#193 = CARTESIAN_POINT ( 'NONE',  ( 0.000000000000000000, 0.5000000000000000000, 0.000000000000000000 ) ) ;
#194 = DIRECTION ( 'NONE',  ( -9.135657442593541248E-17, 1.000000000000000000, -0.000000000000000000 ) ) ;
#195 = CARTESIAN_POINT ( 'NONE',  ( 0.000000000000000000, 0.000000000000000000, 0.000000000000000000 ) ) ;
#196 = DIRECTION ( 'NONE',  ( -0.000000000000000000, -1.000000000000000000, -0.000000000000000000 ) ) ;
#197 = DIRECTION ( 'NONE',  ( -1.000000000000000000, 0.000000000000000000, 0.000000000000000000 ) ) ;
#198 =( GEOMETRIC_REPRESENTATION_CONTEXT ( 3 ) GLOBAL_UNCERTAINTY_ASSIGNED_CONTEXT ( ( #357 ) ) GLOBAL_UNIT_ASSIGNED_CONTEXT ( ( #80, #298, #48 ) ) REPRESENTATION_CONTEXT ( 'NONE', 'WORKASPACE' ) );
#199 = DIRECTION ( 'NONE',  ( -1.000000000000000000, 0.000000000000000000, 0.000000000000000000 ) ) ;
#200 =( LENGTH_UNIT ( ) NAMED_UNIT ( * ) SI_UNIT ( .MILLI., .METRE. ) );
#201 = FILL_AREA_STYLE ('',( #295 ) ) ;
#202 = COLOUR_RGB ( '',1.000000000000000000, 0.000000000000000000, 0.000000000000000000 ) ;
#203 = AXIS2_PLACEMENT_3D ( 'NONE', #142, #194, #248 ) ;
#204 = ORIENTED_EDGE ( 'NONE', *, *, #44, .F. ) ;
#205 = SURFACE_STYLE_FILL_AREA ( #19 ) ;
#206 = FILL_AREA_STYLE_COLOUR ( '', #89 ) ;
#207 = CIRCLE ( 'NONE', #265, 5.000000000000000000 ) ;
#208 = CARTESIAN_POINT ( 'NONE',  ( 0.000000000000000000, 0.000000000000000000, 0.000000000000000000 ) ) ;
#209 = PRESENTATION_LAYER_ASSIGNMENT (  '', '', ( #333 ) ) ;
#210 =( LENGTH_UNIT ( ) NAMED_UNIT ( * ) SI_UNIT ( .MILLI., .METRE. ) );
#211 = DIRECTION ( 'NONE',  ( 0.000000000000000000, 0.000000000000000000, 1.000000000000000000 ) ) ;
#212 = SURFACE_STYLE_FILL_AREA ( #299 ) ;
#213 = ORIENTED_EDGE ( 'NONE', *, *, #29, .F. ) ;
#214 = DIRECTION ( 'NONE',  ( -1.000000000000000000, 0.000000000000000000, 0.000000000000000000 ) ) ;
#215 = EDGE_LOOP ( 'NONE', ( #99, #246 ) ) ;
#216 = APPLICATION_PROTOCOL_DEFINITION ( 'draft international standard', 'automotive_design', 1998, #328 ) ;
#217 = PRESENTATION_STYLE_ASSIGNMENT (( #364 ) ) ;
#218 = AXIS2_PLACEMENT_3D ( 'NONE', #150, #196, #317 ) ;
#219 = ORIENTED_EDGE ( 'NONE', *, *, #147, .T. ) ;
#220 = CYLINDRICAL_SURFACE ( 'NONE', #36, 4.999999999999995559 ) ;
#221 =( NAMED_UNIT ( * ) SI_UNIT ( $, .STERADIAN. ) SOLID_ANGLE_UNIT ( ) );
#222 = EDGE_CURVE ( 'NONE', #42, #87, #207, .T. ) ;
#223 = CARTESIAN_POINT ( 'NONE',  ( 0.000000000000000000, 0.5000000000000000000, 0.000000000000000000 ) ) ;
#224 = CYLINDRICAL_SURFACE ( 'NONE', #203, 4.999999999999995559 ) ;
#225 = AXIS2_PLACEMENT_3D ( 'NONE', #101, #289, #157 ) ;
#226 = AXIS2_PLACEMENT_3D ( 'NONE', #307, #252, #61 ) ;
#227 = LINE ( 'NONE', #314, #45 ) ;
#228 = DIRECTION ( 'NONE',  ( -1.000000000000000000, 0.000000000000000000, 0.000000000000000000 ) ) ;
#229 = LINE ( 'NONE', #31, #171 ) ;
#230 =( GEOMETRIC_REPRESENTATION_CONTEXT ( 3 ) GLOBAL_UNCERTAINTY_ASSIGNED_CONTEXT ( ( #40 ) ) GLOBAL_UNIT_ASSIGNED_CONTEXT ( ( #210, #336, #54 ) ) REPRESENTATION_CONTEXT ( 'NONE', 'WORKASPACE' ) );
#231 = CARTESIAN_POINT ( 'NONE',  ( 0.000000000000000000, 15.00000000000000000, 0.000000000000000000 ) ) ;
#232 = PRESENTATION_LAYER_ASSIGNMENT (  '', '', ( #249 ) ) ;
#233 = DIRECTION ( 'NONE',  ( -0.000000000000000000, -1.000000000000000000, -0.000000000000000000 ) ) ;
#234 = SURFACE_STYLE_USAGE ( .BOTH. , #261 ) ;
#235 = DIRECTION ( 'NONE',  ( 0.000000000000000000, 0.000000000000000000, -1.000000000000000000 ) ) ;
#236 =( NAMED_UNIT ( * ) SI_UNIT ( $, .STERADIAN. ) SOLID_ANGLE_UNIT ( ) );
#237 = SURFACE_STYLE_FILL_AREA ( #156 ) ;
#238 = CIRCLE ( 'NONE', #143, 4.999999999999993783 ) ;
#239 = ADVANCED_FACE ( 'NONE', ( #34 ), #151, .T. ) ;
#240 = DIRECTION ( 'NONE',  ( 1.000000000000000000, 9.135657442593541248E-17, 0.000000000000000000 ) ) ;
#241 = ORIENTED_EDGE ( 'NONE', *, *, #14, .T. ) ;
#242 = CARTESIAN_POINT ( 'NONE',  ( 0.000000000000000000, 0.000000000000000000, 0.000000000000000000 ) ) ;
#243 = VERTEX_POINT ( 'NONE', #188 ) ;
#244 = FACE_OUTER_BOUND ( 'NONE', #165, .T. ) ;
#245 = ORIENTED_EDGE ( 'NONE', *, *, #254, .T. ) ;
#246 = ORIENTED_EDGE ( 'NONE', *, *, #161, .F. ) ;
#247 = MECHANICAL_DESIGN_GEOMETRIC_PRESENTATION_REPRESENTATION (  '', ( #264 ), #230 ) ;
#248 = DIRECTION ( 'NONE',  ( -1.000000000000000000, 0.000000000000000000, 0.000000000000000000 ) ) ;
#249 = STYLED_ITEM ( 'NONE', ( #17 ), #334 ) ;
#250 = ORIENTED_EDGE ( 'NONE', *, *, #125, .F. ) ;
#251 = FILL_AREA_STYLE_COLOUR ( '', #303 ) ;
#252 = DIRECTION ( 'NONE',  ( -9.135657442593541248E-17, 1.000000000000000000, 0.000000000000000000 ) ) ;
#253 = PRESENTATION_LAYER_ASSIGNMENT (  '', '', ( #264 ) ) ;
#254 = EDGE_CURVE ( 'NONE', #87, #243, #58, .T. ) ;
#255 = AXIS2_PLACEMENT_3D ( 'NONE', #63, #95, #197 ) ;
#256 = PRODUCT_DEFINITION_FORMATION_WITH_SPECIFIED_SOURCE ( 'ANY', '', #62, .NOT_KNOWN. ) ;
#257 = DIRECTION ( 'NONE',  ( -0.000000000000000000, -1.000000000000000000, -0.000000000000000000 ) ) ;
#258 =( NAMED_UNIT ( * ) PLANE_ANGLE_UNIT ( ) SI_UNIT ( $, .RADIAN. ) );
#259 = SURFACE_SIDE_STYLE ('',( #212 ) ) ;
#260 = VERTEX_POINT ( 'NONE', #313 ) ;
#261 = SURFACE_SIDE_STYLE ('',( #205 ) ) ;
#262 = UNCERTAINTY_MEASURE_WITH_UNIT (LENGTH_MEASURE( 1.000000000000000082E-05 ), #98, 'distance_accuracy_value', 'NONE');
#263 = FILL_AREA_STYLE ('',( #206 ) ) ;
#264 = STYLED_ITEM ( 'NONE', ( #107 ), #2 ) ;
#265 = AXIS2_PLACEMENT_3D ( 'NONE', #176, #285, #9 ) ;
#266 = DIRECTION ( 'NONE',  ( 9.135657442593541248E-17, -1.000000000000000000, 0.000000000000000000 ) ) ;
#267 = FACE_OUTER_BOUND ( 'NONE', #103, .T. ) ;
#268 = PLANE ( 'NONE',  #310 ) ;
#269 = ORIENTED_EDGE ( 'NONE', *, *, #318, .T. ) ;
#270 = AXIS2_PLACEMENT_3D ( 'NONE', #177, #288, #30 ) ;
#271 = CARTESIAN_POINT ( 'NONE',  ( 0.000000000000000000, 0.000000000000000000, 0.000000000000000000 ) ) ;
#272 = AXIS2_PLACEMENT_3D ( 'NONE', #281, #211, #110 ) ;
#273 = ORIENTED_EDGE ( 'NONE', *, *, #312, .F. ) ;
#274 = DIRECTION ( 'NONE',  ( -0.000000000000000000, -1.000000000000000000, -0.000000000000000000 ) ) ;
#275 = DIRECTION ( 'NONE',  ( -9.135657442593541248E-17, 1.000000000000000000, -0.000000000000000000 ) ) ;
#276 = EDGE_LOOP ( 'NONE', ( #190, #351, #185, #327 ) ) ;
#277 = CIRCLE ( 'NONE', #86, 4.999999999999998224 ) ;
#278 = PLANE ( 'NONE',  #77 ) ;
#279 = STYLED_ITEM ( 'NONE', ( #331 ), #343 ) ;
#280 = AXIS2_PLACEMENT_3D ( 'NONE', #193, #167, #137 ) ;
#281 = CARTESIAN_POINT ( 'NONE',  ( 0.000000000000000000, 0.000000000000000000, 0.000000000000000000 ) ) ;
#282 =( NAMED_UNIT ( * ) PLANE_ANGLE_UNIT ( ) SI_UNIT ( $, .RADIAN. ) );
#283 = PRODUCT_RELATED_PRODUCT_CATEGORY ( 'part', '', ( #62 ) ) ;
#284 =( GEOMETRIC_REPRESENTATION_CONTEXT ( 3 ) GLOBAL_UNCERTAINTY_ASSIGNED_CONTEXT ( ( #294 ) ) GLOBAL_UNIT_ASSIGNED_CONTEXT ( ( #133, #16, #183 ) ) REPRESENTATION_CONTEXT ( 'NONE', 'WORKASPACE' ) );
#285 = DIRECTION ( 'NONE',  ( -0.000000000000000000, -1.000000000000000000, -0.000000000000000000 ) ) ;
#286 = EDGE_CURVE ( 'NONE', #330, #260, #136, .T. ) ;
#287 = PRESENTATION_STYLE_ASSIGNMENT (( #154 ) ) ;
#288 = DIRECTION ( 'NONE',  ( -9.135657442593541248E-17, 1.000000000000000000, -0.000000000000000000 ) ) ;
#289 = DIRECTION ( 'NONE',  ( -0.000000000000000000, -1.000000000000000000, -0.000000000000000000 ) ) ;
#290 = AXIS2_PLACEMENT_3D ( 'NONE', #108, #228, #94 ) ;
#291 = COLOUR_RGB ( '',1.000000000000000000, 0.000000000000000000, 0.000000000000000000 ) ;
#292 = CARTESIAN_POINT ( 'NONE',  ( 5.000000000000000000, 63.00000000000000000, 6.123233995736762338E-16 ) ) ;
#293 = SURFACE_STYLE_USAGE ( .BOTH. , #72 ) ;
#294 = UNCERTAINTY_MEASURE_WITH_UNIT (LENGTH_MEASURE( 1.000000000000000082E-05 ), #133, 'distance_accuracy_value', 'NONE');
#295 = FILL_AREA_STYLE_COLOUR ( '', #130 ) ;
#296 = PRESENTATION_LAYER_ASSIGNMENT (  '', '', ( #149 ) ) ;
#297 = ORIENTED_EDGE ( 'NONE', *, *, #222, .T. ) ;
#298 =( NAMED_UNIT ( * ) PLANE_ANGLE_UNIT ( ) SI_UNIT ( $, .RADIAN. ) );
#299 = FILL_AREA_STYLE ('',( #350 ) ) ;
#300 = VERTEX_POINT ( 'NONE', #173 ) ;
#301 =( NAMED_UNIT ( * ) PLANE_ANGLE_UNIT ( ) SI_UNIT ( $, .RADIAN. ) );
#302 = EDGE_LOOP ( 'NONE', ( #21, #169, #269, #24 ) ) ;
#303 = COLOUR_RGB ( '',1.000000000000000000, 0.000000000000000000, 0.000000000000000000 ) ;
#304 = EDGE_CURVE ( 'NONE', #330, #144, #227, .T. ) ;
#305 = DIRECTION ( 'NONE',  ( 0.000000000000000000, 0.000000000000000000, -1.000000000000000000 ) ) ;
#306 = ORIENTED_EDGE ( 'NONE', *, *, #312, .T. ) ;
#307 = CARTESIAN_POINT ( 'NONE',  ( 5.854691731421723944E-15, 15.00000000000000000, 0.000000000000000000 ) ) ;
#308 = CLOSED_SHELL ( 'NONE', ( #97, #76, #70, #348 ) ) ;
#309 = CARTESIAN_POINT ( 'NONE',  ( 4.999999999999997335, 63.00000000000000000, 6.123233995736761352E-16 ) ) ;
#310 = AXIS2_PLACEMENT_3D ( 'NONE', #46, #266, #240 ) ;
#311 = FILL_AREA_STYLE_COLOUR ( '', #67 ) ;
#312 = EDGE_CURVE ( 'NONE', #26, #144, #180, .T. ) ;
#313 = CARTESIAN_POINT ( 'NONE',  ( 5.000000000000000000, 15.00000000000000000, 6.123233995736762338E-16 ) ) ;
#314 = CARTESIAN_POINT ( 'NONE',  ( -4.999999999999993783, 63.00000000000000000, 0.000000000000000000 ) ) ;
#315 = PRESENTATION_LAYER_ASSIGNMENT (  '', '', ( #27 ) ) ;
#316 = ADVANCED_BREP_SHAPE_REPRESENTATION ( '59704', ( #343, #334, #272 ), #37 ) ;
#317 = DIRECTION ( 'NONE',  ( 0.000000000000000000, 0.000000000000000000, -1.000000000000000000 ) ) ;
#318 = EDGE_CURVE ( 'NONE', #73, #87, #65, .T. ) ;
#319 =( NAMED_UNIT ( * ) SI_UNIT ( $, .STERADIAN. ) SOLID_ANGLE_UNIT ( ) );
#320 = DIRECTION ( 'NONE',  ( 0.000000000000000000, 0.000000000000000000, -1.000000000000000000 ) ) ;
#321 = SURFACE_SIDE_STYLE ('',( #132 ) ) ;
#322 = STYLED_ITEM ( 'NONE', ( #287 ), #33 ) ;
#323 = ORIENTED_EDGE ( 'NONE', *, *, #52, .T. ) ;
#324 = FACE_OUTER_BOUND ( 'NONE', #276, .T. ) ;
#325 = UNCERTAINTY_MEASURE_WITH_UNIT (LENGTH_MEASURE( 1.000000000000000082E-05 ), #342, 'distance_accuracy_value', 'NONE');
#326 = SURFACE_SIDE_STYLE ('',( #237 ) ) ;
#327 = ORIENTED_EDGE ( 'NONE', *, *, #254, .F. ) ;
#328 = APPLICATION_CONTEXT ( 'automotive_design' ) ;
#329 = AXIS2_PLACEMENT_3D ( 'NONE', #71, #178, #353 ) ;
#330 = VERTEX_POINT ( 'NONE', #12 ) ;
#331 = PRESENTATION_STYLE_ASSIGNMENT (( #358 ) ) ;
#332 = MECHANICAL_DESIGN_GEOMETRIC_PRESENTATION_REPRESENTATION (  '', ( #149 ), #359 ) ;
#333 = STYLED_ITEM ( 'NONE', ( #352 ), #365 ) ;
#334 = MANIFOLD_SOLID_BREP ( 'Revolve - Tool Body (Straight Shanked)', #308 ) ;
#335 = ORIENTED_EDGE ( 'NONE', *, *, #7, .T. ) ;
#336 =( NAMED_UNIT ( * ) PLANE_ANGLE_UNIT ( ) SI_UNIT ( $, .RADIAN. ) );
#337 = DIRECTION ( 'NONE',  ( 0.000000000000000000, 0.000000000000000000, -1.000000000000000000 ) ) ;
#338 = ORIENTED_EDGE ( 'NONE', *, *, #66, .F. ) ;
#339 = PRESENTATION_LAYER_ASSIGNMENT (  '', '', ( #322 ) ) ;
#340 = FACE_OUTER_BOUND ( 'NONE', #215, .T. ) ;
#341 = EDGE_LOOP ( 'NONE', ( #127, #219, #338, #141 ) ) ;
#342 =( LENGTH_UNIT ( ) NAMED_UNIT ( * ) SI_UNIT ( .MILLI., .METRE. ) );
#343 = MANIFOLD_SOLID_BREP ( 'Revolve - Cutting Edge', #148 ) ;
#344 = CARTESIAN_POINT ( 'NONE',  ( 0.000000000000000000, 15.00000000000000000, 0.000000000000000000 ) ) ;
#345 = SURFACE_SIDE_STYLE ('',( #168 ) ) ;
#346 = VECTOR ( 'NONE', #55, 1000.000000000000000 ) ;
#347 = CARTESIAN_POINT ( 'NONE',  ( 5.854691731421723944E-15, 15.00000000000000000, 0.000000000000000000 ) ) ;
#348 = ADVANCED_FACE ( 'NONE', ( #102 ), #268, .F. ) ;
#349 = AXIS2_PLACEMENT_3D ( 'NONE', #208, #233, #320 ) ;
#350 = FILL_AREA_STYLE_COLOUR ( '', #43 ) ;
#351 = ORIENTED_EDGE ( 'NONE', *, *, #44, .T. ) ;
#352 = PRESENTATION_STYLE_ASSIGNMENT (( #234 ) ) ;
#353 = DIRECTION ( 'NONE',  ( -1.224646799147353454E-16, 0.000000000000000000, -1.000000000000000000 ) ) ;
#354 = SURFACE_STYLE_USAGE ( .BOTH. , #326 ) ;
#355 = PRODUCT_DEFINITION ( 'UNKNOWN', '', #256, #68 ) ;
#356 = PRESENTATION_LAYER_ASSIGNMENT (  '', '', ( #153 ) ) ;
#357 = UNCERTAINTY_MEASURE_WITH_UNIT (LENGTH_MEASURE( 1.000000000000000082E-05 ), #80, 'distance_accuracy_value', 'NONE');
#358 = SURFACE_STYLE_USAGE ( .BOTH. , #321 ) ;
#359 =( GEOMETRIC_REPRESENTATION_CONTEXT ( 3 ) GLOBAL_UNCERTAINTY_ASSIGNED_CONTEXT ( ( #129 ) ) GLOBAL_UNIT_ASSIGNED_CONTEXT ( ( #53, #111, #100 ) ) REPRESENTATION_CONTEXT ( 'NONE', 'WORKASPACE' ) );
#360 = CARTESIAN_POINT ( 'NONE',  ( 1.469576158976823750E-15, 63.00000000000000000, 0.000000000000000000 ) ) ;
#361 = PLANE ( 'NONE',  #50 ) ;
#362 =( LENGTH_UNIT ( ) NAMED_UNIT ( * ) SI_UNIT ( .MILLI., .METRE. ) );
#363 = SURFACE_SIDE_STYLE ('',( #138 ) ) ;
#364 = SURFACE_STYLE_USAGE ( .BOTH. , #345 ) ;
#365 = ADVANCED_FACE ( 'NONE', ( #324 ), #60, .T. ) ;
#366 = EDGE_LOOP ( 'NONE', ( #79, #114, #47, #166 ) ) ;
#367 =( NAMED_UNIT ( * ) SI_UNIT ( $, .STERADIAN. ) SOLID_ANGLE_UNIT ( ) );
#368 = CIRCLE ( 'NONE', #329, 0.4999999999999995559 ) ;
#369 = MECHANICAL_DESIGN_GEOMETRIC_PRESENTATION_REPRESENTATION (  '', ( #249 ), #284 ) ;
#370 = FACE_OUTER_BOUND ( 'NONE', #1, .T. ) ;
ENDSEC;
END-ISO-10303-21;
