ISO-10303-21;
HEADER;
FILE_DESCRIPTION (( 'STEP AP214' ),
    '1' );
FILE_NAME ('84993.STEP',
    '2023-06-23T15:27:36',
    ( '' ),
    ( '' ),
    'SwSTEP 2.0',
    'SolidWorks 2023',
    '' );
FILE_SCHEMA (( 'AUTOMOTIVE_DESIGN' ));
ENDSEC;

DATA;
#1 = DIRECTION ( 'NONE',  ( -0.000000000000000000, -1.000000000000000000, -0.000000000000000000 ) ) ;
#2 = EDGE_CURVE ( 'NONE', #40, #269, #254, .T. ) ;
#3 = SURFACE_SIDE_STYLE ('',( #238 ) ) ;
#4 = CIRCLE ( 'NONE', #121, 0.5000000000000000000 ) ;
#5 = ORIENTED_EDGE ( 'NONE', *, *, #243, .T. ) ;
#6 =( LENGTH_UNIT ( ) NAMED_UNIT ( * ) SI_UNIT ( $, .METRE. ) );
#7 = AXIS2_PLACEMENT_3D ( 'NONE', #246, #152, #130 ) ;
#8 = ORIENTED_EDGE ( 'NONE', *, *, #94, .T. ) ;
#9 = DIMENSIONAL_EXPONENTS ( 1.000000000000000000, 0.000000000000000000, 0.000000000000000000, 0.000000000000000000, 0.000000000000000000, 0.000000000000000000, 0.000000000000000000 ) ;
#10 = SHAPE_DEFINITION_REPRESENTATION ( #144, #253 ) ;
#11 = SURFACE_SIDE_STYLE ('',( #207 ) ) ;
#12 = LINE ( 'NONE', #156, #219 ) ;
#13 = STYLED_ITEM ( 'NONE', ( #18 ), #87 ) ;
#14 =( NAMED_UNIT ( * ) SI_UNIT ( $, .STERADIAN. ) SOLID_ANGLE_UNIT ( ) );
#15 = AXIS2_PLACEMENT_3D ( 'NONE', #212, #109, #211 ) ;
#16 = CARTESIAN_POINT ( 'NONE',  ( -6.123233995736759873E-17, 5.000000000000000000, 0.000000000000000000 ) ) ;
#17 = DIRECTION ( 'NONE',  ( 2.578203787678635185E-17, -1.000000000000000000, 0.000000000000000000 ) ) ;
#18 = PRESENTATION_STYLE_ASSIGNMENT (( #260 ) ) ;
#19 = CARTESIAN_POINT ( 'NONE',  ( 0.000000000000000000, 2.625000000000000000, 0.000000000000000000 ) ) ;
#20 = CARTESIAN_POINT ( 'NONE',  ( 0.000000000000000000, 0.000000000000000000, 0.000000000000000000 ) ) ;
#21 = ORIENTED_EDGE ( 'NONE', *, *, #278, .T. ) ;
#22 = LENGTH_MEASURE_WITH_UNIT ( LENGTH_MEASURE( 0.02539999999999999897 ), #239 );
#23 = SURFACE_SIDE_STYLE ('',( #134 ) ) ;
#24 = FILL_AREA_STYLE ('',( #76 ) ) ;
#25 =( LENGTH_UNIT ( ) NAMED_UNIT ( * ) SI_UNIT ( $, .METRE. ) );
#26 = SURFACE_STYLE_USAGE ( .BOTH. , #166 ) ;
#27 = SURFACE_STYLE_FILL_AREA ( #185 ) ;
#28 = AXIS2_PLACEMENT_3D ( 'NONE', #270, #122, #191 ) ;
#29 = CARTESIAN_POINT ( 'NONE',  ( 0.000000000000000000, 0.000000000000000000, 0.000000000000000000 ) ) ;
#30 =( NAMED_UNIT ( * ) PLANE_ANGLE_UNIT ( ) SI_UNIT ( $, .RADIAN. ) );
#31 = PRESENTATION_LAYER_ASSIGNMENT (  '', '', ( #56 ) ) ;
#32 = CARTESIAN_POINT ( 'NONE',  ( 1.661783692700115704E-34, 2.625000000000000000, 0.000000000000000000 ) ) ;
#33 = CARTESIAN_POINT ( 'NONE',  ( 6.123233995736766036E-17, 0.000000000000000000, 0.5000000000000000000 ) ) ;
#34 = DIRECTION ( 'NONE',  ( -0.000000000000000000, -1.000000000000000000, -0.000000000000000000 ) ) ;
#35 = FACE_OUTER_BOUND ( 'NONE', #44, .T. ) ;
#36 = FACE_OUTER_BOUND ( 'NONE', #149, .T. ) ;
#37 = AXIS2_PLACEMENT_3D ( 'NONE', #32, #192, #264 ) ;
#38 = MECHANICAL_DESIGN_GEOMETRIC_PRESENTATION_REPRESENTATION (  '', ( #80 ), #213 ) ;
#39 = SURFACE_STYLE_USAGE ( .BOTH. , #11 ) ;
#40 = VERTEX_POINT ( 'NONE', #138 ) ;
#41 = DIRECTION ( 'NONE',  ( -2.578203787678635493E-17, 1.000000000000000000, -0.000000000000000000 ) ) ;
#42 = AXIS2_PLACEMENT_3D ( 'NONE', #302, #232, #176 ) ;
#43 = PRODUCT_CONTEXT ( 'NONE', #96, 'mechanical' ) ;
#44 = EDGE_LOOP ( 'NONE', ( #298, #82 ) ) ;
#45 = CARTESIAN_POINT ( 'NONE',  ( 0.000000000000000000, 0.000000000000000000, 0.000000000000000000 ) ) ;
#46 = ORIENTED_EDGE ( 'NONE', *, *, #283, .F. ) ;
#47 = SURFACE_STYLE_FILL_AREA ( #242 ) ;
#48 = EDGE_CURVE ( 'NONE', #235, #279, #4, .T. ) ;
#49 = FILL_AREA_STYLE ('',( #83 ) ) ;
#50 = DIRECTION ( 'NONE',  ( -2.578203787678635185E-17, 1.000000000000000000, -0.000000000000000000 ) ) ;
#51 =( GEOMETRIC_REPRESENTATION_CONTEXT ( 3 ) GLOBAL_UNCERTAINTY_ASSIGNED_CONTEXT ( ( #58 ) ) GLOBAL_UNIT_ASSIGNED_CONTEXT ( ( #206, #168, #267 ) ) REPRESENTATION_CONTEXT ( 'NONE', 'WORKASPACE' ) );
#52 = STYLED_ITEM ( 'NONE', ( #108 ), #290 ) ;
#53 = SURFACE_SIDE_STYLE ('',( #47 ) ) ;
#54 =( NAMED_UNIT ( * ) PLANE_ANGLE_UNIT ( ) SI_UNIT ( $, .RADIAN. ) );
#55 = APPLICATION_PROTOCOL_DEFINITION ( 'draft international standard', 'automotive_design', 1998, #96 ) ;
#56 = STYLED_ITEM ( 'NONE', ( #258 ), #236 ) ;
#57 = ADVANCED_FACE ( 'NONE', ( #36 ), #289, .F. ) ;
#58 = UNCERTAINTY_MEASURE_WITH_UNIT (LENGTH_MEASURE( 1.000000000000000082E-05 ), #206, 'distance_accuracy_value', 'NONE');
#59 = DIRECTION ( 'NONE',  ( -1.000000000000000000, 0.000000000000000000, 0.000000000000000000 ) ) ;
#60 = AXIS2_PLACEMENT_3D ( 'NONE', #64, #173, #274 ) ;
#61 = LINE ( 'NONE', #155, #153 ) ;
#62 =( NAMED_UNIT ( * ) SI_UNIT ( $, .STERADIAN. ) SOLID_ANGLE_UNIT ( ) );
#63 = EDGE_LOOP ( 'NONE', ( #21, #8 ) ) ;
#64 = CARTESIAN_POINT ( 'NONE',  ( -6.123233995736759873E-17, 5.000000000000000000, 0.000000000000000000 ) ) ;
#65 = ORIENTED_EDGE ( 'NONE', *, *, #2, .F. ) ;
#66 = PLANE ( 'NONE',  #7 ) ;
#67 = MECHANICAL_DESIGN_GEOMETRIC_PRESENTATION_REPRESENTATION (  '', ( #56 ), #292 ) ;
#68 = SURFACE_SIDE_STYLE ('',( #106 ) ) ;
#69 = ORIENTED_EDGE ( 'NONE', *, *, #200, .F. ) ;
#70 = CARTESIAN_POINT ( 'NONE',  ( -0.5000000000000001110, 5.000000000000000000, 0.000000000000000000 ) ) ;
#71 = MECHANICAL_DESIGN_GEOMETRIC_PRESENTATION_REPRESENTATION (  '', ( #52 ), #110 ) ;
#72 = CARTESIAN_POINT ( 'NONE',  ( -6.123233995736759873E-17, 5.000000000000000000, 0.000000000000000000 ) ) ;
#73 =( CONVERSION_BASED_UNIT ( 'INCH', #112 ) LENGTH_UNIT ( ) NAMED_UNIT ( #228 ) );
#74 = LINE ( 'NONE', #33, #215 ) ;
#75 = COLOUR_RGB ( '',1.000000000000000000, 0.000000000000000000, 0.000000000000000000 ) ;
#76 = FILL_AREA_STYLE_COLOUR ( '', #147 ) ;
#77 = DIRECTION ( 'NONE',  ( 0.000000000000000000, 0.000000000000000000, -1.000000000000000000 ) ) ;
#78 =( GEOMETRIC_REPRESENTATION_CONTEXT ( 3 ) GLOBAL_UNCERTAINTY_ASSIGNED_CONTEXT ( ( #217 ) ) GLOBAL_UNIT_ASSIGNED_CONTEXT ( ( #73, #54, #221 ) ) REPRESENTATION_CONTEXT ( 'NONE', 'WORKASPACE' ) );
#79 = LENGTH_MEASURE_WITH_UNIT ( LENGTH_MEASURE( 0.02539999999999999897 ), #6 );
#80 = STYLED_ITEM ( 'NONE', ( #100 ), #220 ) ;
#81 = CARTESIAN_POINT ( 'NONE',  ( 0.5000000000000000000, 5.000000000000000000, 0.000000000000000000 ) ) ;
#82 = ORIENTED_EDGE ( 'NONE', *, *, #48, .F. ) ;
#83 = FILL_AREA_STYLE_COLOUR ( '', #190 ) ;
#84 = DIRECTION ( 'NONE',  ( -0.000000000000000000, -1.000000000000000000, -0.000000000000000000 ) ) ;
#85 = PRESENTATION_LAYER_ASSIGNMENT (  '', '', ( #240 ) ) ;
#86 = DIRECTION ( 'NONE',  ( -1.000000000000000000, 0.000000000000000000, 0.000000000000000000 ) ) ;
#87 = MANIFOLD_SOLID_BREP ( 'Revolve - Tool Body (Straight Shanked)', #262 ) ;
#88 = ADVANCED_FACE ( 'NONE', ( #256 ), #307, .T. ) ;
#89 = ORIENTED_EDGE ( 'NONE', *, *, #283, .T. ) ;
#90 =( LENGTH_UNIT ( ) NAMED_UNIT ( * ) SI_UNIT ( $, .METRE. ) );
#91 = ORIENTED_EDGE ( 'NONE', *, *, #135, .T. ) ;
#92 = FACE_OUTER_BOUND ( 'NONE', #63, .T. ) ;
#93 = AXIS2_PLACEMENT_3D ( 'NONE', #160, #111, #140 ) ;
#94 = EDGE_CURVE ( 'NONE', #257, #225, #99, .T. ) ;
#95 = FILL_AREA_STYLE_COLOUR ( '', #75 ) ;
#96 = APPLICATION_CONTEXT ( 'automotive_design' ) ;
#97 = PRODUCT_DEFINITION_FORMATION_WITH_SPECIFIED_SOURCE ( 'ANY', '', #167, .NOT_KNOWN. ) ;
#98 = FILL_AREA_STYLE_COLOUR ( '', #248 ) ;
#99 = CIRCLE ( 'NONE', #93, 0.5000000000000000000 ) ;
#100 = PRESENTATION_STYLE_ASSIGNMENT (( #39 ) ) ;
#101 = ORIENTED_EDGE ( 'NONE', *, *, #265, .F. ) ;
#102 = LENGTH_MEASURE_WITH_UNIT ( LENGTH_MEASURE( 0.02539999999999999897 ), #127 );
#103 = AXIS2_PLACEMENT_3D ( 'NONE', #214, #1, #288 ) ;
#104 = FILL_AREA_STYLE_COLOUR ( '', #174 ) ;
#105 = ORIENTED_EDGE ( 'NONE', *, *, #293, .T. ) ;
#106 = SURFACE_STYLE_FILL_AREA ( #24 ) ;
#107 = DIRECTION ( 'NONE',  ( -2.578203787678635493E-17, 1.000000000000000000, -0.000000000000000000 ) ) ;
#108 = PRESENTATION_STYLE_ASSIGNMENT (( #230 ) ) ;
#109 = DIRECTION ( 'NONE',  ( 0.000000000000000000, 1.000000000000000000, 0.000000000000000000 ) ) ;
#110 =( GEOMETRIC_REPRESENTATION_CONTEXT ( 3 ) GLOBAL_UNCERTAINTY_ASSIGNED_CONTEXT ( ( #120 ) ) GLOBAL_UNIT_ASSIGNED_CONTEXT ( ( #133, #30, #162 ) ) REPRESENTATION_CONTEXT ( 'NONE', 'WORKASPACE' ) );
#111 = DIRECTION ( 'NONE',  ( -0.000000000000000000, -1.000000000000000000, -0.000000000000000000 ) ) ;
#112 = LENGTH_MEASURE_WITH_UNIT ( LENGTH_MEASURE( 0.02539999999999999897 ), #268 );
#113 = DIRECTION ( 'NONE',  ( -0.000000000000000000, -1.000000000000000000, -0.000000000000000000 ) ) ;
#114 = UNCERTAINTY_MEASURE_WITH_UNIT (LENGTH_MEASURE( 1.000000000000000082E-05 ), #308, 'distance_accuracy_value', 'NONE');
#115 = FILL_AREA_STYLE ('',( #98 ) ) ;
#116 = PRODUCT_DEFINITION ( 'UNKNOWN', '', #97, #224 ) ;
#117 = PRESENTATION_LAYER_ASSIGNMENT (  '', '', ( #80 ) ) ;
#118 = CARTESIAN_POINT ( 'NONE',  ( -0.5000000000000001110, 5.000000000000000000, 0.000000000000000000 ) ) ;
#119 = EDGE_CURVE ( 'NONE', #279, #235, #309, .T. ) ;
#120 = UNCERTAINTY_MEASURE_WITH_UNIT (LENGTH_MEASURE( 1.000000000000000082E-05 ), #133, 'distance_accuracy_value', 'NONE');
#121 = AXIS2_PLACEMENT_3D ( 'NONE', #234, #304, #77 ) ;
#122 = DIRECTION ( 'NONE',  ( 0.000000000000000000, 0.000000000000000000, 1.000000000000000000 ) ) ;
#123 = CIRCLE ( 'NONE', #301, 0.5000000000000000000 ) ;
#124 = APPLICATION_CONTEXT ( 'automotive_design' ) ;
#125 = APPLICATION_PROTOCOL_DEFINITION ( 'draft international standard', 'automotive_design', 1998, #124 ) ;
#126 = DIRECTION ( 'NONE',  ( -2.578203787678635493E-17, 1.000000000000000000, -0.000000000000000000 ) ) ;
#127 =( LENGTH_UNIT ( ) NAMED_UNIT ( * ) SI_UNIT ( $, .METRE. ) );
#128 = EDGE_LOOP ( 'NONE', ( #69, #5, #295, #291 ) ) ;
#129 = DIMENSIONAL_EXPONENTS ( 1.000000000000000000, 0.000000000000000000, 0.000000000000000000, 0.000000000000000000, 0.000000000000000000, 0.000000000000000000, 0.000000000000000000 ) ;
#130 = DIRECTION ( 'NONE',  ( 0.000000000000000000, 0.000000000000000000, -1.000000000000000000 ) ) ;
#131 = AXIS2_PLACEMENT_3D ( 'NONE', #81, #17, #297 ) ;
#132 = PRESENTATION_STYLE_ASSIGNMENT (( #26 ) ) ;
#133 =( CONVERSION_BASED_UNIT ( 'INCH', #142 ) LENGTH_UNIT ( ) NAMED_UNIT ( #277 ) );
#134 = SURFACE_STYLE_FILL_AREA ( #49 ) ;
#135 = EDGE_CURVE ( 'NONE', #235, #257, #74, .T. ) ;
#136 = CARTESIAN_POINT ( 'NONE',  ( 0.000000000000000000, 2.625000000000000000, -0.5000000000000000000 ) ) ;
#137 = VECTOR ( 'NONE', #50, 39.37007874015748143 ) ;
#138 = CARTESIAN_POINT ( 'NONE',  ( -0.5000000000000000000, 2.625000000000000000, 0.000000000000000000 ) ) ;
#139 = CYLINDRICAL_SURFACE ( 'NONE', #233, 0.5000000000000000000 ) ;
#140 = DIRECTION ( 'NONE',  ( 0.000000000000000000, 0.000000000000000000, -1.000000000000000000 ) ) ;
#141 = MECHANICAL_DESIGN_GEOMETRIC_PRESENTATION_REPRESENTATION (  '', ( #240 ), #51 ) ;
#142 = LENGTH_MEASURE_WITH_UNIT ( LENGTH_MEASURE( 0.02539999999999999897 ), #25 );
#143 = SURFACE_STYLE_USAGE ( .BOTH. , #3 ) ;
#144 = PRODUCT_DEFINITION_SHAPE ( 'NONE', 'NONE',  #116 ) ;
#145 = UNCERTAINTY_MEASURE_WITH_UNIT (LENGTH_MEASURE( 1.000000000000000082E-05 ), #271, 'distance_accuracy_value', 'NONE');
#146 =( NAMED_UNIT ( * ) PLANE_ANGLE_UNIT ( ) SI_UNIT ( $, .RADIAN. ) );
#147 = COLOUR_RGB ( '',0.7921568627450980005, 0.8196078431372548767, 0.9333333333333333481 ) ;
#148 = ORIENTED_EDGE ( 'NONE', *, *, #48, .T. ) ;
#149 = EDGE_LOOP ( 'NONE', ( #46, #182 ) ) ;
#150 = LENGTH_MEASURE_WITH_UNIT ( LENGTH_MEASURE( 0.02539999999999999897 ), #90 );
#151 = DIRECTION ( 'NONE',  ( 0.000000000000000000, 0.000000000000000000, -1.000000000000000000 ) ) ;
#152 = DIRECTION ( 'NONE',  ( 0.000000000000000000, -1.000000000000000000, -0.000000000000000000 ) ) ;
#153 = VECTOR ( 'NONE', #244, 39.37007874015748143 ) ;
#154 = EDGE_LOOP ( 'NONE', ( #202, #91, #218, #101 ) ) ;
#155 = CARTESIAN_POINT ( 'NONE',  ( 0.4999999999999999445, 5.000000000000000000, 6.123233995736766036E-17 ) ) ;
#156 = CARTESIAN_POINT ( 'NONE',  ( 0.000000000000000000, 0.000000000000000000, -0.5000000000000000000 ) ) ;
#157 = CARTESIAN_POINT ( 'NONE',  ( 6.123233995736766036E-17, 0.000000000000000000, 0.5000000000000000000 ) ) ;
#158 = FACE_OUTER_BOUND ( 'NONE', #204, .T. ) ;
#159 = AXIS2_PLACEMENT_3D ( 'NONE', #45, #247, #179 ) ;
#160 = CARTESIAN_POINT ( 'NONE',  ( 0.000000000000000000, 0.000000000000000000, 0.000000000000000000 ) ) ;
#161 = CARTESIAN_POINT ( 'NONE',  ( 0.5000000000000000000, 5.000000000000000000, 6.123233995736766036E-17 ) ) ;
#162 =( NAMED_UNIT ( * ) SI_UNIT ( $, .STERADIAN. ) SOLID_ANGLE_UNIT ( ) );
#163 = DIRECTION ( 'NONE',  ( -2.578203787678635493E-17, 1.000000000000000000, -0.000000000000000000 ) ) ;
#164 = EDGE_LOOP ( 'NONE', ( #89, #196, #222, #65 ) ) ;
#165 = CIRCLE ( 'NONE', #42, 0.5000000000000000000 ) ;
#166 = SURFACE_SIDE_STYLE ('',( #27 ) ) ;
#167 = PRODUCT ( '84993', '84993', '', ( #43 ) ) ;
#168 =( NAMED_UNIT ( * ) PLANE_ANGLE_UNIT ( ) SI_UNIT ( $, .RADIAN. ) );
#169 = SURFACE_STYLE_USAGE ( .BOTH. , #53 ) ;
#170 = FACE_OUTER_BOUND ( 'NONE', #128, .T. ) ;
#171 =( NAMED_UNIT ( * ) PLANE_ANGLE_UNIT ( ) SI_UNIT ( $, .RADIAN. ) );
#172 =( NAMED_UNIT ( * ) SI_UNIT ( $, .STERADIAN. ) SOLID_ANGLE_UNIT ( ) );
#173 = DIRECTION ( 'NONE',  ( -2.578203787678635493E-17, 1.000000000000000000, -0.000000000000000000 ) ) ;
#174 = COLOUR_RGB ( '',1.000000000000000000, 0.000000000000000000, 0.000000000000000000 ) ;
#175 = ADVANCED_FACE ( 'NONE', ( #158 ), #226, .F. ) ;
#176 = DIRECTION ( 'NONE',  ( -1.000000000000000000, 0.000000000000000000, 0.000000000000000000 ) ) ;
#177 = AXIS2_PLACEMENT_3D ( 'NONE', #72, #163, #287 ) ;
#178 = VERTEX_POINT ( 'NONE', #161 ) ;
#179 = DIRECTION ( 'NONE',  ( 0.000000000000000000, 0.000000000000000000, -1.000000000000000000 ) ) ;
#180 = DIMENSIONAL_EXPONENTS ( 1.000000000000000000, 0.000000000000000000, 0.000000000000000000, 0.000000000000000000, 0.000000000000000000, 0.000000000000000000, 0.000000000000000000 ) ;
#181 = MECHANICAL_DESIGN_GEOMETRIC_PRESENTATION_REPRESENTATION (  '', ( #203 ), #78 ) ;
#182 = ORIENTED_EDGE ( 'NONE', *, *, #243, .F. ) ;
#183 = AXIS2_PLACEMENT_3D ( 'NONE', #20, #84, #151 ) ;
#184 = ORIENTED_EDGE ( 'NONE', *, *, #265, .T. ) ;
#185 = FILL_AREA_STYLE ('',( #281 ) ) ;
#186 =( GEOMETRIC_REPRESENTATION_CONTEXT ( 3 ) GLOBAL_UNCERTAINTY_ASSIGNED_CONTEXT ( ( #193 ) ) GLOBAL_UNIT_ASSIGNED_CONTEXT ( ( #294, #171, #14 ) ) REPRESENTATION_CONTEXT ( 'NONE', 'WORKASPACE' ) );
#187 =( LENGTH_UNIT ( ) NAMED_UNIT ( * ) SI_UNIT ( $, .METRE. ) );
#188 = PLANE ( 'NONE',  #15 ) ;
#189 =( NAMED_UNIT ( * ) PLANE_ANGLE_UNIT ( ) SI_UNIT ( $, .RADIAN. ) );
#190 = COLOUR_RGB ( '',1.000000000000000000, 0.000000000000000000, 0.000000000000000000 ) ;
#191 = DIRECTION ( 'NONE',  ( 1.000000000000000000, 0.000000000000000000, 0.000000000000000000 ) ) ;
#192 = DIRECTION ( 'NONE',  ( -2.578203787678635185E-17, 1.000000000000000000, 0.000000000000000000 ) ) ;
#193 = UNCERTAINTY_MEASURE_WITH_UNIT (LENGTH_MEASURE( 1.000000000000000082E-05 ), #294, 'distance_accuracy_value', 'NONE');
#194 = FILL_AREA_STYLE ('',( #104 ) ) ;
#195 = EDGE_CURVE ( 'NONE', #269, #178, #285, .T. ) ;
#196 = ORIENTED_EDGE ( 'NONE', *, *, #200, .T. ) ;
#197 =( CONVERSION_BASED_UNIT ( 'INCH', #150 ) LENGTH_UNIT ( ) NAMED_UNIT ( #9 ) );
#198 = DIMENSIONAL_EXPONENTS ( 1.000000000000000000, 0.000000000000000000, 0.000000000000000000, 0.000000000000000000, 0.000000000000000000, 0.000000000000000000, 0.000000000000000000 ) ;
#199 = ORIENTED_EDGE ( 'NONE', *, *, #135, .F. ) ;
#200 = EDGE_CURVE ( 'NONE', #300, #178, #61, .T. ) ;
#201 = MANIFOLD_SOLID_BREP ( 'Revolve - Cutting Edge', #272 ) ;
#202 = ORIENTED_EDGE ( 'NONE', *, *, #119, .T. ) ;
#203 = STYLED_ITEM ( 'NONE', ( #132 ), #201 ) ;
#204 = EDGE_LOOP ( 'NONE', ( #241, #105 ) ) ;
#205 =( NAMED_UNIT ( * ) PLANE_ANGLE_UNIT ( ) SI_UNIT ( $, .RADIAN. ) );
#206 =( CONVERSION_BASED_UNIT ( 'INCH', #22 ) LENGTH_UNIT ( ) NAMED_UNIT ( #180 ) );
#207 = SURFACE_STYLE_FILL_AREA ( #194 ) ;
#208 = MECHANICAL_DESIGN_GEOMETRIC_PRESENTATION_REPRESENTATION (  '', ( #13 ), #186 ) ;
#209 = CARTESIAN_POINT ( 'NONE',  ( 0.000000000000000000, 0.000000000000000000, -0.5000000000000000000 ) ) ;
#210 = PRODUCT_RELATED_PRODUCT_CATEGORY ( 'part', '', ( #167 ) ) ;
#211 = DIRECTION ( 'NONE',  ( 0.000000000000000000, -0.000000000000000000, 1.000000000000000000 ) ) ;
#212 = CARTESIAN_POINT ( 'NONE',  ( 0.000000000000000000, 2.625000000000000000, 0.000000000000000000 ) ) ;
#213 =( GEOMETRIC_REPRESENTATION_CONTEXT ( 3 ) GLOBAL_UNCERTAINTY_ASSIGNED_CONTEXT ( ( #114 ) ) GLOBAL_UNIT_ASSIGNED_CONTEXT ( ( #308, #189, #172 ) ) REPRESENTATION_CONTEXT ( 'NONE', 'WORKASPACE' ) );
#214 = CARTESIAN_POINT ( 'NONE',  ( 0.000000000000000000, 2.625000000000000000, 0.000000000000000000 ) ) ;
#215 = VECTOR ( 'NONE', #34, 39.37007874015748143 ) ;
#216 = ADVANCED_FACE ( 'NONE', ( #306 ), #139, .T. ) ;
#217 = UNCERTAINTY_MEASURE_WITH_UNIT (LENGTH_MEASURE( 1.000000000000000082E-05 ), #73, 'distance_accuracy_value', 'NONE');
#218 = ORIENTED_EDGE ( 'NONE', *, *, #278, .F. ) ;
#219 = VECTOR ( 'NONE', #245, 39.37007874015748143 ) ;
#220 = ADVANCED_FACE ( 'NONE', ( #35 ), #188, .T. ) ;
#221 =( NAMED_UNIT ( * ) SI_UNIT ( $, .STERADIAN. ) SOLID_ANGLE_UNIT ( ) );
#222 = ORIENTED_EDGE ( 'NONE', *, *, #195, .F. ) ;
#223 = DIMENSIONAL_EXPONENTS ( 1.000000000000000000, 0.000000000000000000, 0.000000000000000000, 0.000000000000000000, 0.000000000000000000, 0.000000000000000000, 0.000000000000000000 ) ;
#224 = PRODUCT_DEFINITION_CONTEXT ( 'detailed design', #124, 'design' ) ;
#225 = VERTEX_POINT ( 'NONE', #209 ) ;
#226 = PLANE ( 'NONE',  #131 ) ;
#227 = COLOUR_RGB ( '',0.7921568627450980005, 0.8196078431372548767, 0.9333333333333333481 ) ;
#228 = DIMENSIONAL_EXPONENTS ( 1.000000000000000000, 0.000000000000000000, 0.000000000000000000, 0.000000000000000000, 0.000000000000000000, 0.000000000000000000, 0.000000000000000000 ) ;
#229 = CIRCLE ( 'NONE', #177, 0.5000000000000001110 ) ;
#230 = SURFACE_STYLE_USAGE ( .BOTH. , #23 ) ;
#231 = CYLINDRICAL_SURFACE ( 'NONE', #263, 0.5000000000000000000 ) ;
#232 = DIRECTION ( 'NONE',  ( -2.578203787678635493E-17, 1.000000000000000000, -0.000000000000000000 ) ) ;
#233 = AXIS2_PLACEMENT_3D ( 'NONE', #16, #107, #259 ) ;
#234 = CARTESIAN_POINT ( 'NONE',  ( 0.000000000000000000, 2.625000000000000000, 0.000000000000000000 ) ) ;
#235 = VERTEX_POINT ( 'NONE', #255 ) ;
#236 = ADVANCED_FACE ( 'NONE', ( #92 ), #66, .T. ) ;
#237 = CIRCLE ( 'NONE', #280, 0.5000000000000000000 ) ;
#238 = SURFACE_STYLE_FILL_AREA ( #115 ) ;
#239 =( LENGTH_UNIT ( ) NAMED_UNIT ( * ) SI_UNIT ( $, .METRE. ) );
#240 = STYLED_ITEM ( 'NONE', ( #266 ), #88 ) ;
#241 = ORIENTED_EDGE ( 'NONE', *, *, #195, .T. ) ;
#242 = FILL_AREA_STYLE ('',( #95 ) ) ;
#243 = EDGE_CURVE ( 'NONE', #300, #40, #237, .T. ) ;
#244 = DIRECTION ( 'NONE',  ( -2.578203787678635185E-17, 1.000000000000000000, -0.000000000000000000 ) ) ;
#245 = DIRECTION ( 'NONE',  ( -0.000000000000000000, -1.000000000000000000, -0.000000000000000000 ) ) ;
#246 = CARTESIAN_POINT ( 'NONE',  ( 0.000000000000000000, 0.000000000000000000, 0.000000000000000000 ) ) ;
#247 = DIRECTION ( 'NONE',  ( -0.000000000000000000, -1.000000000000000000, -0.000000000000000000 ) ) ;
#248 = COLOUR_RGB ( '',1.000000000000000000, 0.000000000000000000, 0.000000000000000000 ) ;
#249 = ADVANCED_FACE ( 'NONE', ( #170 ), #231, .T. ) ;
#250 = CYLINDRICAL_SURFACE ( 'NONE', #183, 0.5000000000000000000 ) ;
#251 = LENGTH_MEASURE_WITH_UNIT ( LENGTH_MEASURE( 0.02539999999999999897 ), #187 );
#252 = FACE_OUTER_BOUND ( 'NONE', #154, .T. ) ;
#253 = ADVANCED_BREP_SHAPE_REPRESENTATION ( '84993', ( #201, #87, #28 ), #284 ) ;
#254 = LINE ( 'NONE', #70, #137 ) ;
#255 = CARTESIAN_POINT ( 'NONE',  ( 6.123233995736766036E-17, 2.625000000000000000, 0.5000000000000000000 ) ) ;
#256 = FACE_OUTER_BOUND ( 'NONE', #276, .T. ) ;
#257 = VERTEX_POINT ( 'NONE', #157 ) ;
#258 = PRESENTATION_STYLE_ASSIGNMENT (( #143 ) ) ;
#259 = DIRECTION ( 'NONE',  ( -1.000000000000000000, 0.000000000000000000, 0.000000000000000000 ) ) ;
#260 = SURFACE_STYLE_USAGE ( .BOTH. , #68 ) ;
#261 = CARTESIAN_POINT ( 'NONE',  ( 0.5000000000000000000, 2.625000000000000000, 6.123233995736766036E-17 ) ) ;
#262 = CLOSED_SHELL ( 'NONE', ( #216, #57, #249, #175 ) ) ;
#263 = AXIS2_PLACEMENT_3D ( 'NONE', #303, #126, #59 ) ;
#264 = DIRECTION ( 'NONE',  ( -1.000000000000000000, -2.578203787678635185E-17, 0.000000000000000000 ) ) ;
#265 = EDGE_CURVE ( 'NONE', #279, #225, #12, .T. ) ;
#266 = PRESENTATION_STYLE_ASSIGNMENT (( #169 ) ) ;
#267 =( NAMED_UNIT ( * ) SI_UNIT ( $, .STERADIAN. ) SOLID_ANGLE_UNIT ( ) );
#268 =( LENGTH_UNIT ( ) NAMED_UNIT ( * ) SI_UNIT ( $, .METRE. ) );
#269 = VERTEX_POINT ( 'NONE', #118 ) ;
#270 = CARTESIAN_POINT ( 'NONE',  ( 0.000000000000000000, 0.000000000000000000, 0.000000000000000000 ) ) ;
#271 =( CONVERSION_BASED_UNIT ( 'INCH', #79 ) LENGTH_UNIT ( ) NAMED_UNIT ( #223 ) );
#272 = CLOSED_SHELL ( 'NONE', ( #290, #220, #88, #236 ) ) ;
#273 = PRESENTATION_LAYER_ASSIGNMENT (  '', '', ( #13 ) ) ;
#274 = DIRECTION ( 'NONE',  ( -1.000000000000000000, 0.000000000000000000, 0.000000000000000000 ) ) ;
#275 = UNCERTAINTY_MEASURE_WITH_UNIT (LENGTH_MEASURE( 1.000000000000000082E-05 ), #197, 'distance_accuracy_value', 'NONE');
#276 = EDGE_LOOP ( 'NONE', ( #199, #148, #184, #305 ) ) ;
#277 = DIMENSIONAL_EXPONENTS ( 1.000000000000000000, 0.000000000000000000, 0.000000000000000000, 0.000000000000000000, 0.000000000000000000, 0.000000000000000000, 0.000000000000000000 ) ;
#278 = EDGE_CURVE ( 'NONE', #225, #257, #123, .T. ) ;
#279 = VERTEX_POINT ( 'NONE', #136 ) ;
#280 = AXIS2_PLACEMENT_3D ( 'NONE', #19, #41, #86 ) ;
#281 = FILL_AREA_STYLE_COLOUR ( '', #227 ) ;
#282 = DIRECTION ( 'NONE',  ( 0.000000000000000000, 0.000000000000000000, -1.000000000000000000 ) ) ;
#283 = EDGE_CURVE ( 'NONE', #40, #300, #165, .T. ) ;
#284 =( GEOMETRIC_REPRESENTATION_CONTEXT ( 3 ) GLOBAL_UNCERTAINTY_ASSIGNED_CONTEXT ( ( #145 ) ) GLOBAL_UNIT_ASSIGNED_CONTEXT ( ( #271, #146, #296 ) ) REPRESENTATION_CONTEXT ( 'NONE', 'WORKASPACE' ) );
#285 = CIRCLE ( 'NONE', #60, 0.5000000000000001110 ) ;
#286 = PRESENTATION_LAYER_ASSIGNMENT (  '', '', ( #52 ) ) ;
#287 = DIRECTION ( 'NONE',  ( -1.000000000000000000, 0.000000000000000000, 0.000000000000000000 ) ) ;
#288 = DIRECTION ( 'NONE',  ( 0.000000000000000000, 0.000000000000000000, -1.000000000000000000 ) ) ;
#289 = PLANE ( 'NONE',  #37 ) ;
#290 = ADVANCED_FACE ( 'NONE', ( #252 ), #250, .T. ) ;
#291 = ORIENTED_EDGE ( 'NONE', *, *, #293, .F. ) ;
#292 =( GEOMETRIC_REPRESENTATION_CONTEXT ( 3 ) GLOBAL_UNCERTAINTY_ASSIGNED_CONTEXT ( ( #275 ) ) GLOBAL_UNIT_ASSIGNED_CONTEXT ( ( #197, #205, #62 ) ) REPRESENTATION_CONTEXT ( 'NONE', 'WORKASPACE' ) );
#293 = EDGE_CURVE ( 'NONE', #178, #269, #229, .T. ) ;
#294 =( CONVERSION_BASED_UNIT ( 'INCH', #102 ) LENGTH_UNIT ( ) NAMED_UNIT ( #198 ) );
#295 = ORIENTED_EDGE ( 'NONE', *, *, #2, .T. ) ;
#296 =( NAMED_UNIT ( * ) SI_UNIT ( $, .STERADIAN. ) SOLID_ANGLE_UNIT ( ) );
#297 = DIRECTION ( 'NONE',  ( 1.000000000000000000, 2.578203787678635185E-17, 0.000000000000000000 ) ) ;
#298 = ORIENTED_EDGE ( 'NONE', *, *, #119, .F. ) ;
#299 = PRESENTATION_LAYER_ASSIGNMENT (  '', '', ( #203 ) ) ;
#300 = VERTEX_POINT ( 'NONE', #261 ) ;
#301 = AXIS2_PLACEMENT_3D ( 'NONE', #29, #113, #282 ) ;
#302 = CARTESIAN_POINT ( 'NONE',  ( 0.000000000000000000, 2.625000000000000000, 0.000000000000000000 ) ) ;
#303 = CARTESIAN_POINT ( 'NONE',  ( -6.123233995736759873E-17, 5.000000000000000000, 0.000000000000000000 ) ) ;
#304 = DIRECTION ( 'NONE',  ( -0.000000000000000000, -1.000000000000000000, -0.000000000000000000 ) ) ;
#305 = ORIENTED_EDGE ( 'NONE', *, *, #94, .F. ) ;
#306 = FACE_OUTER_BOUND ( 'NONE', #164, .T. ) ;
#307 = CYLINDRICAL_SURFACE ( 'NONE', #159, 0.5000000000000000000 ) ;
#308 =( CONVERSION_BASED_UNIT ( 'INCH', #251 ) LENGTH_UNIT ( ) NAMED_UNIT ( #129 ) );
#309 = CIRCLE ( 'NONE', #103, 0.5000000000000000000 ) ;
ENDSEC;
END-ISO-10303-21;
