ISO-10303-21;
HEADER;
FILE_DESCRIPTION (( 'STEP AP214' ),
    '1' );
FILE_NAME ('59444.STEP',
    '2023-06-30T22:17:46',
    ( '' ),
    ( '' ),
    'SwSTEP 2.0',
    'SolidWorks 2023',
    '' );
FILE_SCHEMA (( 'AUTOMOTIVE_DESIGN' ));
ENDSEC;

DATA;
#1 = SURFACE_STYLE_USAGE ( .BOTH. , #137 ) ;
#2 = CARTESIAN_POINT ( 'NONE',  ( -2.296212748401287726E-17, 0.1875000000000000278, 0.000000000000000000 ) ) ;
#3 = VERTEX_POINT ( 'NONE', #220 ) ;
#4 = LENGTH_MEASURE_WITH_UNIT ( LENGTH_MEASURE( 0.02539999999999999897 ), #272 );
#5 =( GEOMETRIC_REPRESENTATION_CONTEXT ( 3 ) GLOBAL_UNCERTAINTY_ASSIGNED_CONTEXT ( ( #296 ) ) GLOBAL_UNIT_ASSIGNED_CONTEXT ( ( #338, #308, #181 ) ) REPRESENTATION_CONTEXT ( 'NONE', 'WORKASPACE' ) );
#6 = SURFACE_SIDE_STYLE ('',( #62 ) ) ;
#7 = DIRECTION ( 'NONE',  ( -0.000000000000000000, -1.000000000000000000, -0.000000000000000000 ) ) ;
#8 =( NAMED_UNIT ( * ) SI_UNIT ( $, .STERADIAN. ) SOLID_ANGLE_UNIT ( ) );
#9 = PRODUCT_DEFINITION_SHAPE ( 'NONE', 'NONE',  #250 ) ;
#10 = SURFACE_SIDE_STYLE ('',( #152 ) ) ;
#11 = CIRCLE ( 'NONE', #274, 0.1874999999999999722 ) ;
#12 = PRESENTATION_LAYER_ASSIGNMENT (  '', '', ( #294 ) ) ;
#13 = UNCERTAINTY_MEASURE_WITH_UNIT (LENGTH_MEASURE( 1.000000000000000082E-05 ), #232, 'distance_accuracy_value', 'NONE');
#14 = ADVANCED_FACE ( 'NONE', ( #279 ), #108, .T. ) ;
#15 = CARTESIAN_POINT ( 'NONE',  ( -1.224646799147353700E-16, 3.000000000000000444, 0.000000000000000000 ) ) ;
#16 = ORIENTED_EDGE ( 'NONE', *, *, #151, .T. ) ;
#17 = CARTESIAN_POINT ( 'NONE',  ( 0.1874999999999996947, 3.000000000000000444, 2.296212748401285260E-17 ) ) ;
#18 = AXIS2_PLACEMENT_3D ( 'NONE', #15, #230, #347 ) ;
#19 = EDGE_LOOP ( 'NONE', ( #243, #245, #161, #182 ) ) ;
#20 = DIRECTION ( 'NONE',  ( -1.000000000000000000, 0.000000000000000000, 0.000000000000000000 ) ) ;
#21 = ORIENTED_EDGE ( 'NONE', *, *, #147, .F. ) ;
#22 = LENGTH_MEASURE_WITH_UNIT ( LENGTH_MEASURE( 0.02539999999999999897 ), #321 );
#23 =( CONVERSION_BASED_UNIT ( 'INCH', #218 ) LENGTH_UNIT ( ) NAMED_UNIT ( #32 ) );
#24 = EDGE_CURVE ( 'NONE', #78, #330, #140, .T. ) ;
#25 = AXIS2_PLACEMENT_3D ( 'NONE', #83, #309, #59 ) ;
#26 =( GEOMETRIC_REPRESENTATION_CONTEXT ( 3 ) GLOBAL_UNCERTAINTY_ASSIGNED_CONTEXT ( ( #369 ) ) GLOBAL_UNIT_ASSIGNED_CONTEXT ( ( #113, #340, #8 ) ) REPRESENTATION_CONTEXT ( 'NONE', 'WORKASPACE' ) );
#27 = PRODUCT_CONTEXT ( 'NONE', #106, 'mechanical' ) ;
#28 = ORIENTED_EDGE ( 'NONE', *, *, #66, .T. ) ;
#29 = FILL_AREA_STYLE_COLOUR ( '', #177 ) ;
#30 = DIRECTION ( 'NONE',  ( 0.000000000000000000, 0.000000000000000000, 1.000000000000000000 ) ) ;
#31 = LENGTH_MEASURE_WITH_UNIT ( LENGTH_MEASURE( 0.02539999999999999897 ), #148 );
#32 = DIMENSIONAL_EXPONENTS ( 1.000000000000000000, 0.000000000000000000, 0.000000000000000000, 0.000000000000000000, 0.000000000000000000, 0.000000000000000000, 0.000000000000000000 ) ;
#33 = FILL_AREA_STYLE ('',( #205 ) ) ;
#34 =( NAMED_UNIT ( * ) SI_UNIT ( $, .STERADIAN. ) SOLID_ANGLE_UNIT ( ) );
#35 = PRESENTATION_LAYER_ASSIGNMENT (  '', '', ( #194 ) ) ;
#36 = CARTESIAN_POINT ( 'NONE',  ( 0.000000000000000000, 0.1875000000000000555, 0.000000000000000000 ) ) ;
#37 = FACE_OUTER_BOUND ( 'NONE', #76, .T. ) ;
#38 = ADVANCED_FACE ( 'NONE', ( #166 ), #112, .T. ) ;
#39 = MECHANICAL_DESIGN_GEOMETRIC_PRESENTATION_REPRESENTATION (  '', ( #190 ), #239 ) ;
#40 = AXIS2_PLACEMENT_3D ( 'NONE', #101, #362, #20 ) ;
#41 =( CONVERSION_BASED_UNIT ( 'INCH', #75 ) LENGTH_UNIT ( ) NAMED_UNIT ( #251 ) );
#42 = CARTESIAN_POINT ( 'NONE',  ( 2.143131898507868297E-16, 1.250000000000000000, 0.000000000000000000 ) ) ;
#43 = ORIENTED_EDGE ( 'NONE', *, *, #368, .T. ) ;
#44 = UNCERTAINTY_MEASURE_WITH_UNIT (LENGTH_MEASURE( 1.000000000000000082E-05 ), #359, 'distance_accuracy_value', 'NONE');
#45 = CARTESIAN_POINT ( 'NONE',  ( -1.148106374200643863E-17, 0.000000000000000000, 0.000000000000000000 ) ) ;
#46 = DIRECTION ( 'NONE',  ( -0.000000000000000000, -1.000000000000000000, -0.000000000000000000 ) ) ;
#47 = VERTEX_POINT ( 'NONE', #253 ) ;
#48 = EDGE_CURVE ( 'NONE', #54, #263, #267, .T. ) ;
#49 = MECHANICAL_DESIGN_GEOMETRIC_PRESENTATION_REPRESENTATION (  '', ( #281 ), #227 ) ;
#50 = DIRECTION ( 'NONE',  ( -1.000000000000000000, 0.000000000000000000, 0.000000000000000000 ) ) ;
#51 = UNCERTAINTY_MEASURE_WITH_UNIT (LENGTH_MEASURE( 1.000000000000000082E-05 ), #41, 'distance_accuracy_value', 'NONE');
#52 = ORIENTED_EDGE ( 'NONE', *, *, #206, .T. ) ;
#53 = EDGE_CURVE ( 'NONE', #78, #54, #345, .T. ) ;
#54 = VERTEX_POINT ( 'NONE', #339 ) ;
#55 = CIRCLE ( 'NONE', #118, 0.1874999999999998335 ) ;
#56 = FACE_OUTER_BOUND ( 'NONE', #19, .T. ) ;
#57 = FACE_OUTER_BOUND ( 'NONE', #186, .T. ) ;
#58 =( NAMED_UNIT ( * ) SI_UNIT ( $, .STERADIAN. ) SOLID_ANGLE_UNIT ( ) );
#59 = DIRECTION ( 'NONE',  ( 1.000000000000000000, 0.000000000000000000, -1.224646799147353207E-16 ) ) ;
#60 = CARTESIAN_POINT ( 'NONE',  ( 2.143131898507867804E-16, 1.250000000000000000, 0.000000000000000000 ) ) ;
#61 = STYLED_ITEM ( 'NONE', ( #172 ), #320 ) ;
#62 = SURFACE_STYLE_FILL_AREA ( #80 ) ;
#63 = DIRECTION ( 'NONE',  ( 0.000000000000000000, 0.000000000000000000, 1.000000000000000000 ) ) ;
#64 = CARTESIAN_POINT ( 'NONE',  ( -1.224646799147353700E-16, 3.000000000000000444, 0.000000000000000000 ) ) ;
#65 = MANIFOLD_SOLID_BREP ( 'Revolve - Cutting Edge', #238 ) ;
#66 = EDGE_CURVE ( 'NONE', #47, #360, #372, .T. ) ;
#67 = PLANE ( 'NONE',  #208 ) ;
#68 = DIRECTION ( 'NONE',  ( -1.000000000000000000, 0.000000000000000000, 0.000000000000000000 ) ) ;
#69 = VERTEX_POINT ( 'NONE', #351 ) ;
#70 = PRESENTATION_LAYER_ASSIGNMENT (  '', '', ( #281 ) ) ;
#71 = COLOUR_RGB ( '',1.000000000000000000, 0.000000000000000000, 0.000000000000000000 ) ;
#72 = LINE ( 'NONE', #179, #88 ) ;
#73 = ORIENTED_EDGE ( 'NONE', *, *, #273, .T. ) ;
#74 = PRESENTATION_STYLE_ASSIGNMENT (( #291 ) ) ;
#75 = LENGTH_MEASURE_WITH_UNIT ( LENGTH_MEASURE( 0.02539999999999999897 ), #175 );
#76 = EDGE_LOOP ( 'NONE', ( #28, #52, #191, #222 ) ) ;
#77 = AXIS2_PLACEMENT_3D ( 'NONE', #64, #262, #171 ) ;
#78 = VERTEX_POINT ( 'NONE', #123 ) ;
#79 = CARTESIAN_POINT ( 'NONE',  ( 2.143131898507867804E-16, 1.250000000000000000, 0.000000000000000000 ) ) ;
#80 = FILL_AREA_STYLE ('',( #310 ) ) ;
#81 = CLOSED_SHELL ( 'NONE', ( #134, #124, #343, #302 ) ) ;
#82 = ORIENTED_EDGE ( 'NONE', *, *, #368, .F. ) ;
#83 = CARTESIAN_POINT ( 'NONE',  ( -2.296212748401287726E-17, 0.1875000000000000278, 0.000000000000000000 ) ) ;
#84 =( LENGTH_UNIT ( ) NAMED_UNIT ( * ) SI_UNIT ( $, .METRE. ) );
#85 =( LENGTH_UNIT ( ) NAMED_UNIT ( * ) SI_UNIT ( $, .METRE. ) );
#86 = PRESENTATION_STYLE_ASSIGNMENT (( #344 ) ) ;
#87 = PRESENTATION_LAYER_ASSIGNMENT (  '', '', ( #190 ) ) ;
#88 = VECTOR ( 'NONE', #156, 39.37007874015748143 ) ;
#89 = CARTESIAN_POINT ( 'NONE',  ( 0.000000000000000000, 0.1875000000000000555, 0.000000000000000000 ) ) ;
#90 = PLANE ( 'NONE',  #364 ) ;
#91 = SURFACE_SIDE_STYLE ('',( #144 ) ) ;
#92 = LENGTH_MEASURE_WITH_UNIT ( LENGTH_MEASURE( 0.02539999999999999897 ), #283 );
#93 = VECTOR ( 'NONE', #335, 39.37007874015748143 ) ;
#94 = CIRCLE ( 'NONE', #346, 0.1875000000000000278 ) ;
#95 = CARTESIAN_POINT ( 'NONE',  ( 0.000000000000000000, 1.250000000000000000, 0.000000000000000000 ) ) ;
#96 = DIRECTION ( 'NONE',  ( -1.924444970088698003E-16, 1.000000000000000000, -0.000000000000000000 ) ) ;
#97 = AXIS2_PLACEMENT_3D ( 'NONE', #255, #312, #226 ) ;
#98 = CARTESIAN_POINT ( 'NONE',  ( 0.000000000000000000, 0.1875000000000000555, 0.000000000000000000 ) ) ;
#99 = LENGTH_MEASURE_WITH_UNIT ( LENGTH_MEASURE( 0.02539999999999999897 ), #270 );
#100 = ORIENTED_EDGE ( 'NONE', *, *, #328, .F. ) ;
#101 = CARTESIAN_POINT ( 'NONE',  ( -1.224646799147353700E-16, 3.000000000000000444, 0.000000000000000000 ) ) ;
#102 = ORIENTED_EDGE ( 'NONE', *, *, #206, .F. ) ;
#103 = CARTESIAN_POINT ( 'NONE',  ( 0.1874999999999998335, 1.250000000000000000, 2.296212748401286493E-17 ) ) ;
#104 = ORIENTED_EDGE ( 'NONE', *, *, #313, .F. ) ;
#105 = DIRECTION ( 'NONE',  ( -1.924444970088698003E-16, 1.000000000000000000, -0.000000000000000000 ) ) ;
#106 = APPLICATION_CONTEXT ( 'automotive_design' ) ;
#107 = FILL_AREA_STYLE ('',( #163 ) ) ;
#108 = CYLINDRICAL_SURFACE ( 'NONE', #188, 0.1874999999999999167 ) ;
#109 = AXIS2_PLACEMENT_3D ( 'NONE', #36, #150, #146 ) ;
#110 = AXIS2_PLACEMENT_3D ( 'NONE', #264, #210, #184 ) ;
#111 = FILL_AREA_STYLE_COLOUR ( '', #249 ) ;
#112 = SPHERICAL_SURFACE ( 'NONE', #318, 0.1875000000000000278 ) ;
#113 =( CONVERSION_BASED_UNIT ( 'INCH', #31 ) LENGTH_UNIT ( ) NAMED_UNIT ( #235 ) );
#114 = SURFACE_STYLE_FILL_AREA ( #201 ) ;
#115 = EDGE_CURVE ( 'NONE', #132, #69, #55, .T. ) ;
#116 = PRESENTATION_STYLE_ASSIGNMENT (( #306 ) ) ;
#117 = MECHANICAL_DESIGN_GEOMETRIC_PRESENTATION_REPRESENTATION (  '', ( #305 ), #5 ) ;
#118 = AXIS2_PLACEMENT_3D ( 'NONE', #95, #295, #290 ) ;
#119 = APPLICATION_PROTOCOL_DEFINITION ( 'draft international standard', 'automotive_design', 1998, #183 ) ;
#120 = DIMENSIONAL_EXPONENTS ( 1.000000000000000000, 0.000000000000000000, 0.000000000000000000, 0.000000000000000000, 0.000000000000000000, 0.000000000000000000, 0.000000000000000000 ) ;
#121 = APPLICATION_PROTOCOL_DEFINITION ( 'draft international standard', 'automotive_design', 1998, #106 ) ;
#122 = FACE_OUTER_BOUND ( 'NONE', #157, .T. ) ;
#123 = CARTESIAN_POINT ( 'NONE',  ( -0.1875000000000000278, 0.1875000000000000555, 2.296212748401287109E-17 ) ) ;
#124 = ADVANCED_FACE ( 'NONE', ( #178 ), #67, .F. ) ;
#125 = AXIS2_PLACEMENT_3D ( 'NONE', #131, #277, #370 ) ;
#126 = SURFACE_STYLE_USAGE ( .BOTH. , #10 ) ;
#127 =( NAMED_UNIT ( * ) SI_UNIT ( $, .STERADIAN. ) SOLID_ANGLE_UNIT ( ) );
#128 =( NAMED_UNIT ( * ) PLANE_ANGLE_UNIT ( ) SI_UNIT ( $, .RADIAN. ) );
#129 = ORIENTED_EDGE ( 'NONE', *, *, #180, .F. ) ;
#130 = AXIS2_PLACEMENT_3D ( 'NONE', #60, #96, #68 ) ;
#131 = CARTESIAN_POINT ( 'NONE',  ( 0.000000000000000000, 0.000000000000000000, 0.000000000000000000 ) ) ;
#132 = VERTEX_POINT ( 'NONE', #155 ) ;
#133 = CARTESIAN_POINT ( 'NONE',  ( -2.296212748401287726E-17, 0.1875000000000000278, 0.000000000000000000 ) ) ;
#134 = ADVANCED_FACE ( 'NONE', ( #37 ), #317, .T. ) ;
#135 = EDGE_LOOP ( 'NONE', ( #237, #43, #160, #363, #21 ) ) ;
#136 =( GEOMETRIC_REPRESENTATION_CONTEXT ( 3 ) GLOBAL_UNCERTAINTY_ASSIGNED_CONTEXT ( ( #354 ) ) GLOBAL_UNIT_ASSIGNED_CONTEXT ( ( #138, #337, #58 ) ) REPRESENTATION_CONTEXT ( 'NONE', 'WORKASPACE' ) );
#137 = SURFACE_SIDE_STYLE ('',( #275 ) ) ;
#138 =( CONVERSION_BASED_UNIT ( 'INCH', #307 ) LENGTH_UNIT ( ) NAMED_UNIT ( #355 ) );
#139 =( NAMED_UNIT ( * ) SI_UNIT ( $, .STERADIAN. ) SOLID_ANGLE_UNIT ( ) );
#140 = CIRCLE ( 'NONE', #25, 0.1875000000000000278 ) ;
#141 = AXIS2_PLACEMENT_3D ( 'NONE', #79, #304, #219 ) ;
#142 = DIMENSIONAL_EXPONENTS ( 1.000000000000000000, 0.000000000000000000, 0.000000000000000000, 0.000000000000000000, 0.000000000000000000, 0.000000000000000000, 0.000000000000000000 ) ;
#143 = CIRCLE ( 'NONE', #141, 0.1874999999999996392 ) ;
#144 = SURFACE_STYLE_FILL_AREA ( #33 ) ;
#145 = AXIS2_PLACEMENT_3D ( 'NONE', #212, #242, #187 ) ;
#146 = DIRECTION ( 'NONE',  ( 0.000000000000000000, 0.000000000000000000, -1.000000000000000000 ) ) ;
#147 = EDGE_CURVE ( 'NONE', #3, #78, #244, .T. ) ;
#148 =( LENGTH_UNIT ( ) NAMED_UNIT ( * ) SI_UNIT ( $, .METRE. ) );
#149 = DIRECTION ( 'NONE',  ( 1.000000000000000000, 0.000000000000000000, 0.000000000000000000 ) ) ;
#150 = DIRECTION ( 'NONE',  ( -0.000000000000000000, -1.000000000000000000, -0.000000000000000000 ) ) ;
#151 = EDGE_CURVE ( 'NONE', #192, #224, #153, .T. ) ;
#152 = SURFACE_STYLE_FILL_AREA ( #292 ) ;
#153 = CIRCLE ( 'NONE', #18, 0.1875000000000000278 ) ;
#154 = EDGE_CURVE ( 'NONE', #69, #3, #259, .T. ) ;
#155 = CARTESIAN_POINT ( 'NONE',  ( 0.000000000000000000, 1.250000000000000000, -0.1874999999999998335 ) ) ;
#156 = DIRECTION ( 'NONE',  ( -0.000000000000000000, -1.000000000000000000, -0.000000000000000000 ) ) ;
#157 = EDGE_LOOP ( 'NONE', ( #266, #361, #129, #159, #100 ) ) ;
#158 = CARTESIAN_POINT ( 'NONE',  ( -0.1874999999999999722, 3.000000000000000444, 0.000000000000000000 ) ) ;
#159 = ORIENTED_EDGE ( 'NONE', *, *, #48, .F. ) ;
#160 = ORIENTED_EDGE ( 'NONE', *, *, #328, .T. ) ;
#161 = ORIENTED_EDGE ( 'NONE', *, *, #48, .T. ) ;
#162 = FILL_AREA_STYLE_COLOUR ( '', #285 ) ;
#163 = FILL_AREA_STYLE_COLOUR ( '', #357 ) ;
#164 = ORIENTED_EDGE ( 'NONE', *, *, #180, .T. ) ;
#165 = DIMENSIONAL_EXPONENTS ( 1.000000000000000000, 0.000000000000000000, 0.000000000000000000, 0.000000000000000000, 0.000000000000000000, 0.000000000000000000, 0.000000000000000000 ) ;
#166 = FACE_OUTER_BOUND ( 'NONE', #216, .T. ) ;
#167 = COLOUR_RGB ( '',1.000000000000000000, 0.000000000000000000, 0.000000000000000000 ) ;
#168 = CIRCLE ( 'NONE', #110, 0.1875000000000000278 ) ;
#169 = PRODUCT_RELATED_PRODUCT_CATEGORY ( 'part', '', ( #233 ) ) ;
#170 = PRESENTATION_LAYER_ASSIGNMENT (  '', '', ( #61 ) ) ;
#171 = DIRECTION ( 'NONE',  ( -1.000000000000000000, 0.000000000000000000, 0.000000000000000000 ) ) ;
#172 = PRESENTATION_STYLE_ASSIGNMENT (( #254 ) ) ;
#173 = FILL_AREA_STYLE_COLOUR ( '', #167 ) ;
#174 = ADVANCED_FACE ( 'NONE', ( #122 ), #231, .T. ) ;
#175 =( LENGTH_UNIT ( ) NAMED_UNIT ( * ) SI_UNIT ( $, .METRE. ) );
#176 = PRESENTATION_LAYER_ASSIGNMENT (  '', '', ( #334 ) ) ;
#177 = COLOUR_RGB ( '',0.7921568627450980005, 0.8196078431372548767, 0.9333333333333333481 ) ;
#178 = FACE_OUTER_BOUND ( 'NONE', #301, .T. ) ;
#179 = CARTESIAN_POINT ( 'NONE',  ( 0.000000000000000000, 0.000000000000000000, -0.1874999999999999167 ) ) ;
#180 = EDGE_CURVE ( 'NONE', #263, #3, #11, .T. ) ;
#181 =( NAMED_UNIT ( * ) SI_UNIT ( $, .STERADIAN. ) SOLID_ANGLE_UNIT ( ) );
#182 = ORIENTED_EDGE ( 'NONE', *, *, #350, .T. ) ;
#183 = APPLICATION_CONTEXT ( 'automotive_design' ) ;
#184 = DIRECTION ( 'NONE',  ( -1.000000000000000000, 0.000000000000000000, 0.000000000000000000 ) ) ;
#185 = PRESENTATION_STYLE_ASSIGNMENT (( #300 ) ) ;
#186 = EDGE_LOOP ( 'NONE', ( #16, #326 ) ) ;
#187 = DIRECTION ( 'NONE',  ( 0.000000000000000000, 0.000000000000000000, -1.000000000000000000 ) ) ;
#188 = AXIS2_PLACEMENT_3D ( 'NONE', #280, #198, #303 ) ;
#189 = MANIFOLD_SOLID_BREP ( 'Revolve - Tool Body (Straight Shanked)', #81 ) ;
#190 = STYLED_ITEM ( 'NONE', ( #86 ), #65 ) ;
#191 = ORIENTED_EDGE ( 'NONE', *, *, #151, .F. ) ;
#192 = VERTEX_POINT ( 'NONE', #265 ) ;
#193 = CARTESIAN_POINT ( 'NONE',  ( 0.1874999999999999722, 0.1875000000000000555, 0.000000000000000000 ) ) ;
#194 = STYLED_ITEM ( 'NONE', ( #116 ), #38 ) ;
#195 = AXIS2_PLACEMENT_3D ( 'NONE', #289, #63, #149 ) ;
#196 = DIRECTION ( 'NONE',  ( 0.000000000000000000, 0.000000000000000000, -1.000000000000000000 ) ) ;
#197 = FILL_AREA_STYLE ('',( #111 ) ) ;
#198 = DIRECTION ( 'NONE',  ( -0.000000000000000000, -1.000000000000000000, -0.000000000000000000 ) ) ;
#199 =( NAMED_UNIT ( * ) PLANE_ANGLE_UNIT ( ) SI_UNIT ( $, .RADIAN. ) );
#200 = MECHANICAL_DESIGN_GEOMETRIC_PRESENTATION_REPRESENTATION (  '', ( #294 ), #268 ) ;
#201 = FILL_AREA_STYLE ('',( #29 ) ) ;
#202 =( NAMED_UNIT ( * ) PLANE_ANGLE_UNIT ( ) SI_UNIT ( $, .RADIAN. ) );
#203 =( GEOMETRIC_REPRESENTATION_CONTEXT ( 3 ) GLOBAL_UNCERTAINTY_ASSIGNED_CONTEXT ( ( #246 ) ) GLOBAL_UNIT_ASSIGNED_CONTEXT ( ( #23, #199, #371 ) ) REPRESENTATION_CONTEXT ( 'NONE', 'WORKASPACE' ) );
#204 = AXIS2_PLACEMENT_3D ( 'NONE', #89, #373, #225 ) ;
#205 = FILL_AREA_STYLE_COLOUR ( '', #71 ) ;
#206 = EDGE_CURVE ( 'NONE', #360, #224, #366, .T. ) ;
#207 = DIRECTION ( 'NONE',  ( 0.000000000000000000, 1.000000000000000000, 0.000000000000000000 ) ) ;
#208 = AXIS2_PLACEMENT_3D ( 'NONE', #42, #349, #286 ) ;
#209 = SURFACE_STYLE_FILL_AREA ( #197 ) ;
#210 = DIRECTION ( 'NONE',  ( -1.924444970088698003E-16, 1.000000000000000000, -0.000000000000000000 ) ) ;
#211 = CARTESIAN_POINT ( 'NONE',  ( 0.1874999999999998335, 3.000000000000000444, 2.296212748401286493E-17 ) ) ;
#212 = CARTESIAN_POINT ( 'NONE',  ( 0.000000000000000000, 1.250000000000000000, 0.000000000000000000 ) ) ;
#213 = MECHANICAL_DESIGN_GEOMETRIC_PRESENTATION_REPRESENTATION (  '', ( #334 ), #203 ) ;
#214 = AXIS2_PLACEMENT_3D ( 'NONE', #278, #248, #332 ) ;
#215 = ORIENTED_EDGE ( 'NONE', *, *, #147, .T. ) ;
#216 = EDGE_LOOP ( 'NONE', ( #215, #241, #271, #164 ) ) ;
#217 = PLANE ( 'NONE',  #214 ) ;
#218 = LENGTH_MEASURE_WITH_UNIT ( LENGTH_MEASURE( 0.02539999999999999897 ), #85 );
#219 = DIRECTION ( 'NONE',  ( -1.000000000000000000, 0.000000000000000000, 0.000000000000000000 ) ) ;
#220 = CARTESIAN_POINT ( 'NONE',  ( 2.296212748401287109E-17, 0.1875000000000000555, 0.1874999999999999722 ) ) ;
#221 = MECHANICAL_DESIGN_GEOMETRIC_PRESENTATION_REPRESENTATION (  '', ( #61 ), #26 ) ;
#222 = ORIENTED_EDGE ( 'NONE', *, *, #273, .F. ) ;
#223 = DIRECTION ( 'NONE',  ( 1.000000000000000000, 0.000000000000000000, 0.000000000000000000 ) ) ;
#224 = VERTEX_POINT ( 'NONE', #211 ) ;
#225 = DIRECTION ( 'NONE',  ( 0.000000000000000000, 0.000000000000000000, -1.000000000000000000 ) ) ;
#226 = DIRECTION ( 'NONE',  ( 0.000000000000000000, 0.000000000000000000, -1.000000000000000000 ) ) ;
#227 =( GEOMETRIC_REPRESENTATION_CONTEXT ( 3 ) GLOBAL_UNCERTAINTY_ASSIGNED_CONTEXT ( ( #44 ) ) GLOBAL_UNIT_ASSIGNED_CONTEXT ( ( #359, #236, #139 ) ) REPRESENTATION_CONTEXT ( 'NONE', 'WORKASPACE' ) );
#228 = CARTESIAN_POINT ( 'NONE',  ( -2.296212748401287726E-17, 0.1875000000000000278, 0.000000000000000000 ) ) ;
#229 = SHAPE_DEFINITION_REPRESENTATION ( #9, #269 ) ;
#230 = DIRECTION ( 'NONE',  ( -1.924444970088698003E-16, 1.000000000000000000, -0.000000000000000000 ) ) ;
#231 = CYLINDRICAL_SURFACE ( 'NONE', #125, 0.1874999999999999167 ) ;
#232 =( CONVERSION_BASED_UNIT ( 'INCH', #92 ) LENGTH_UNIT ( ) NAMED_UNIT ( #142 ) );
#233 = PRODUCT ( '59444', '59444', '', ( #27 ) ) ;
#234 = PRESENTATION_STYLE_ASSIGNMENT (( #126 ) ) ;
#235 = DIMENSIONAL_EXPONENTS ( 1.000000000000000000, 0.000000000000000000, 0.000000000000000000, 0.000000000000000000, 0.000000000000000000, 0.000000000000000000, 0.000000000000000000 ) ;
#236 =( NAMED_UNIT ( * ) PLANE_ANGLE_UNIT ( ) SI_UNIT ( $, .RADIAN. ) );
#237 = ORIENTED_EDGE ( 'NONE', *, *, #154, .F. ) ;
#238 = CLOSED_SHELL ( 'NONE', ( #38, #174, #323, #14, #320 ) ) ;
#239 =( GEOMETRIC_REPRESENTATION_CONTEXT ( 3 ) GLOBAL_UNCERTAINTY_ASSIGNED_CONTEXT ( ( #13 ) ) GLOBAL_UNIT_ASSIGNED_CONTEXT ( ( #232, #202, #127 ) ) REPRESENTATION_CONTEXT ( 'NONE', 'WORKASPACE' ) );
#240 = CYLINDRICAL_SURFACE ( 'NONE', #40, 0.1874999999999998335 ) ;
#241 = ORIENTED_EDGE ( 'NONE', *, *, #24, .T. ) ;
#242 = DIRECTION ( 'NONE',  ( -0.000000000000000000, -1.000000000000000000, -0.000000000000000000 ) ) ;
#243 = ORIENTED_EDGE ( 'NONE', *, *, #24, .F. ) ;
#244 = CIRCLE ( 'NONE', #109, 0.1874999999999999722 ) ;
#245 = ORIENTED_EDGE ( 'NONE', *, *, #53, .T. ) ;
#246 = UNCERTAINTY_MEASURE_WITH_UNIT (LENGTH_MEASURE( 1.000000000000000082E-05 ), #23, 'distance_accuracy_value', 'NONE');
#247 = FACE_OUTER_BOUND ( 'NONE', #356, .T. ) ;
#248 = DIRECTION ( 'NONE',  ( 1.924444970088698003E-16, -1.000000000000000000, 0.000000000000000000 ) ) ;
#249 = COLOUR_RGB ( '',0.7921568627450980005, 0.8196078431372548767, 0.9333333333333333481 ) ;
#250 = PRODUCT_DEFINITION ( 'UNKNOWN', '', #282, #331 ) ;
#251 = DIMENSIONAL_EXPONENTS ( 1.000000000000000000, 0.000000000000000000, 0.000000000000000000, 0.000000000000000000, 0.000000000000000000, 0.000000000000000000, 0.000000000000000000 ) ;
#252 = ORIENTED_EDGE ( 'NONE', *, *, #333, .F. ) ;
#253 = CARTESIAN_POINT ( 'NONE',  ( -0.1874999999999994449, 1.250000000000000000, 0.000000000000000000 ) ) ;
#254 = SURFACE_STYLE_USAGE ( .BOTH. , #348 ) ;
#255 = CARTESIAN_POINT ( 'NONE',  ( 0.000000000000000000, 0.1875000000000000555, 0.000000000000000000 ) ) ;
#256 = DIRECTION ( 'NONE',  ( 0.000000000000000000, 0.000000000000000000, 1.000000000000000000 ) ) ;
#257 = VECTOR ( 'NONE', #105, 39.37007874015748143 ) ;
#258 = CARTESIAN_POINT ( 'NONE',  ( 2.296212748401286185E-17, 0.000000000000000000, 0.1874999999999999167 ) ) ;
#259 = LINE ( 'NONE', #258, #293 ) ;
#260 = COLOUR_RGB ( '',1.000000000000000000, 0.000000000000000000, 0.000000000000000000 ) ;
#261 = CARTESIAN_POINT ( 'NONE',  ( 0.000000000000000000, 1.250000000000000000, 0.000000000000000000 ) ) ;
#262 = DIRECTION ( 'NONE',  ( -1.924444970088698003E-16, 1.000000000000000000, -0.000000000000000000 ) ) ;
#263 = VERTEX_POINT ( 'NONE', #193 ) ;
#264 = CARTESIAN_POINT ( 'NONE',  ( -1.224646799147353700E-16, 3.000000000000000444, 0.000000000000000000 ) ) ;
#265 = CARTESIAN_POINT ( 'NONE',  ( -0.1875000000000001388, 3.000000000000000444, 0.000000000000000000 ) ) ;
#266 = ORIENTED_EDGE ( 'NONE', *, *, #115, .T. ) ;
#267 = CIRCLE ( 'NONE', #97, 0.1874999999999999722 ) ;
#268 =( GEOMETRIC_REPRESENTATION_CONTEXT ( 3 ) GLOBAL_UNCERTAINTY_ASSIGNED_CONTEXT ( ( #51 ) ) GLOBAL_UNIT_ASSIGNED_CONTEXT ( ( #41, #128, #353 ) ) REPRESENTATION_CONTEXT ( 'NONE', 'WORKASPACE' ) );
#269 = ADVANCED_BREP_SHAPE_REPRESENTATION ( '59444', ( #65, #189, #195 ), #287 ) ;
#270 =( LENGTH_UNIT ( ) NAMED_UNIT ( * ) SI_UNIT ( $, .METRE. ) );
#271 = ORIENTED_EDGE ( 'NONE', *, *, #350, .F. ) ;
#272 =( LENGTH_UNIT ( ) NAMED_UNIT ( * ) SI_UNIT ( $, .METRE. ) );
#273 = EDGE_CURVE ( 'NONE', #47, #192, #327, .T. ) ;
#274 = AXIS2_PLACEMENT_3D ( 'NONE', #98, #46, #196 ) ;
#275 = SURFACE_STYLE_FILL_AREA ( #311 ) ;
#276 = UNCERTAINTY_MEASURE_WITH_UNIT (LENGTH_MEASURE( 1.000000000000000082E-05 ), #314, 'distance_accuracy_value', 'NONE');
#277 = DIRECTION ( 'NONE',  ( -0.000000000000000000, -1.000000000000000000, -0.000000000000000000 ) ) ;
#278 = CARTESIAN_POINT ( 'NONE',  ( 0.1874999999999998890, 3.000000000000000444, 0.000000000000000000 ) ) ;
#279 = FACE_OUTER_BOUND ( 'NONE', #135, .T. ) ;
#280 = CARTESIAN_POINT ( 'NONE',  ( 0.000000000000000000, 0.000000000000000000, 0.000000000000000000 ) ) ;
#281 = STYLED_ITEM ( 'NONE', ( #234 ), #174 ) ;
#282 = PRODUCT_DEFINITION_FORMATION_WITH_SPECIFIED_SOURCE ( 'ANY', '', #233, .NOT_KNOWN. ) ;
#283 =( LENGTH_UNIT ( ) NAMED_UNIT ( * ) SI_UNIT ( $, .METRE. ) );
#284 = DIRECTION ( 'NONE',  ( 1.000000000000000000, 0.000000000000000000, 0.000000000000000000 ) ) ;
#285 = COLOUR_RGB ( '',1.000000000000000000, 0.000000000000000000, 0.000000000000000000 ) ;
#286 = DIRECTION ( 'NONE',  ( -1.000000000000000000, -1.924444970088698003E-16, 0.000000000000000000 ) ) ;
#287 =( GEOMETRIC_REPRESENTATION_CONTEXT ( 3 ) GLOBAL_UNCERTAINTY_ASSIGNED_CONTEXT ( ( #276 ) ) GLOBAL_UNIT_ASSIGNED_CONTEXT ( ( #314, #341, #34 ) ) REPRESENTATION_CONTEXT ( 'NONE', 'WORKASPACE' ) );
#288 = SURFACE_STYLE_FILL_AREA ( #107 ) ;
#289 = CARTESIAN_POINT ( 'NONE',  ( 0.000000000000000000, 0.000000000000000000, 0.000000000000000000 ) ) ;
#290 = DIRECTION ( 'NONE',  ( 0.000000000000000000, 0.000000000000000000, -1.000000000000000000 ) ) ;
#291 = SURFACE_STYLE_USAGE ( .BOTH. , #91 ) ;
#292 = FILL_AREA_STYLE ('',( #173 ) ) ;
#293 = VECTOR ( 'NONE', #7, 39.37007874015748143 ) ;
#294 = STYLED_ITEM ( 'NONE', ( #74 ), #323 ) ;
#295 = DIRECTION ( 'NONE',  ( -0.000000000000000000, -1.000000000000000000, -0.000000000000000000 ) ) ;
#296 = UNCERTAINTY_MEASURE_WITH_UNIT (LENGTH_MEASURE( 1.000000000000000082E-05 ), #338, 'distance_accuracy_value', 'NONE');
#297 = ORIENTED_EDGE ( 'NONE', *, *, #66, .F. ) ;
#298 = DIMENSIONAL_EXPONENTS ( 1.000000000000000000, 0.000000000000000000, 0.000000000000000000, 0.000000000000000000, 0.000000000000000000, 0.000000000000000000, 0.000000000000000000 ) ;
#299 = FACE_OUTER_BOUND ( 'NONE', #342, .T. ) ;
#300 = SURFACE_STYLE_USAGE ( .BOTH. , #325 ) ;
#301 = EDGE_LOOP ( 'NONE', ( #297, #104 ) ) ;
#302 = ADVANCED_FACE ( 'NONE', ( #57 ), #217, .F. ) ;
#303 = DIRECTION ( 'NONE',  ( 0.000000000000000000, 0.000000000000000000, -1.000000000000000000 ) ) ;
#304 = DIRECTION ( 'NONE',  ( -1.924444970088698003E-16, 1.000000000000000000, -0.000000000000000000 ) ) ;
#305 = STYLED_ITEM ( 'NONE', ( #185 ), #189 ) ;
#306 = SURFACE_STYLE_USAGE ( .BOTH. , #6 ) ;
#307 = LENGTH_MEASURE_WITH_UNIT ( LENGTH_MEASURE( 0.02539999999999999897 ), #84 );
#308 =( NAMED_UNIT ( * ) PLANE_ANGLE_UNIT ( ) SI_UNIT ( $, .RADIAN. ) );
#309 = DIRECTION ( 'NONE',  ( 1.224646799147353207E-16, -0.000000000000000000, 1.000000000000000000 ) ) ;
#310 = FILL_AREA_STYLE_COLOUR ( '', #260 ) ;
#311 = FILL_AREA_STYLE ('',( #162 ) ) ;
#312 = DIRECTION ( 'NONE',  ( -0.000000000000000000, -1.000000000000000000, -0.000000000000000000 ) ) ;
#313 = EDGE_CURVE ( 'NONE', #360, #47, #143, .T. ) ;
#314 =( CONVERSION_BASED_UNIT ( 'INCH', #4 ) LENGTH_UNIT ( ) NAMED_UNIT ( #165 ) );
#315 = SURFACE_SIDE_STYLE ('',( #114 ) ) ;
#316 = SPHERICAL_SURFACE ( 'NONE', #358, 0.1875000000000000278 ) ;
#317 = CYLINDRICAL_SURFACE ( 'NONE', #77, 0.1874999999999998335 ) ;
#318 = AXIS2_PLACEMENT_3D ( 'NONE', #2, #30, #223 ) ;
#319 = CIRCLE ( 'NONE', #145, 0.1874999999999998335 ) ;
#320 = ADVANCED_FACE ( 'NONE', ( #56 ), #316, .T. ) ;
#321 =( LENGTH_UNIT ( ) NAMED_UNIT ( * ) SI_UNIT ( $, .METRE. ) );
#322 = PRESENTATION_LAYER_ASSIGNMENT (  '', '', ( #305 ) ) ;
#323 = ADVANCED_FACE ( 'NONE', ( #247 ), #90, .T. ) ;
#324 = DIRECTION ( 'NONE',  ( 0.000000000000000000, -0.000000000000000000, 1.000000000000000000 ) ) ;
#325 = SURFACE_SIDE_STYLE ('',( #209 ) ) ;
#326 = ORIENTED_EDGE ( 'NONE', *, *, #333, .T. ) ;
#327 = LINE ( 'NONE', #158, #257 ) ;
#328 = EDGE_CURVE ( 'NONE', #132, #54, #72, .T. ) ;
#329 = DIRECTION ( 'NONE',  ( 0.000000000000000000, 0.000000000000000000, -1.000000000000000000 ) ) ;
#330 = VERTEX_POINT ( 'NONE', #45 ) ;
#331 = PRODUCT_DEFINITION_CONTEXT ( 'detailed design', #183, 'design' ) ;
#332 = DIRECTION ( 'NONE',  ( 1.000000000000000000, 1.924444970088698003E-16, 0.000000000000000000 ) ) ;
#333 = EDGE_CURVE ( 'NONE', #224, #192, #168, .T. ) ;
#334 = STYLED_ITEM ( 'NONE', ( #367 ), #14 ) ;
#335 = DIRECTION ( 'NONE',  ( -1.924444970088698003E-16, 1.000000000000000000, -0.000000000000000000 ) ) ;
#336 = ORIENTED_EDGE ( 'NONE', *, *, #313, .T. ) ;
#337 =( NAMED_UNIT ( * ) PLANE_ANGLE_UNIT ( ) SI_UNIT ( $, .RADIAN. ) );
#338 =( CONVERSION_BASED_UNIT ( 'INCH', #99 ) LENGTH_UNIT ( ) NAMED_UNIT ( #298 ) );
#339 = CARTESIAN_POINT ( 'NONE',  ( 0.000000000000000000, 0.1875000000000000555, -0.1874999999999999722 ) ) ;
#340 =( NAMED_UNIT ( * ) PLANE_ANGLE_UNIT ( ) SI_UNIT ( $, .RADIAN. ) );
#341 =( NAMED_UNIT ( * ) PLANE_ANGLE_UNIT ( ) SI_UNIT ( $, .RADIAN. ) );
#342 = EDGE_LOOP ( 'NONE', ( #102, #336, #73, #252 ) ) ;
#343 = ADVANCED_FACE ( 'NONE', ( #299 ), #240, .T. ) ;
#344 = SURFACE_STYLE_USAGE ( .BOTH. , #315 ) ;
#345 = CIRCLE ( 'NONE', #204, 0.1874999999999999722 ) ;
#346 = AXIS2_PLACEMENT_3D ( 'NONE', #133, #329, #50 ) ;
#347 = DIRECTION ( 'NONE',  ( -1.000000000000000000, 0.000000000000000000, 0.000000000000000000 ) ) ;
#348 = SURFACE_SIDE_STYLE ('',( #288 ) ) ;
#349 = DIRECTION ( 'NONE',  ( -1.924444970088698003E-16, 1.000000000000000000, 0.000000000000000000 ) ) ;
#350 = EDGE_CURVE ( 'NONE', #263, #330, #94, .T. ) ;
#351 = CARTESIAN_POINT ( 'NONE',  ( 2.296212748401285877E-17, 1.250000000000000000, 0.1874999999999998335 ) ) ;
#352 = MECHANICAL_DESIGN_GEOMETRIC_PRESENTATION_REPRESENTATION (  '', ( #194 ), #136 ) ;
#353 =( NAMED_UNIT ( * ) SI_UNIT ( $, .STERADIAN. ) SOLID_ANGLE_UNIT ( ) );
#354 = UNCERTAINTY_MEASURE_WITH_UNIT (LENGTH_MEASURE( 1.000000000000000082E-05 ), #138, 'distance_accuracy_value', 'NONE');
#355 = DIMENSIONAL_EXPONENTS ( 1.000000000000000000, 0.000000000000000000, 0.000000000000000000, 0.000000000000000000, 0.000000000000000000, 0.000000000000000000, 0.000000000000000000 ) ;
#356 = EDGE_LOOP ( 'NONE', ( #365, #82 ) ) ;
#357 = COLOUR_RGB ( '',1.000000000000000000, 0.000000000000000000, 0.000000000000000000 ) ;
#358 = AXIS2_PLACEMENT_3D ( 'NONE', #228, #256, #284 ) ;
#359 =( CONVERSION_BASED_UNIT ( 'INCH', #22 ) LENGTH_UNIT ( ) NAMED_UNIT ( #120 ) );
#360 = VERTEX_POINT ( 'NONE', #103 ) ;
#361 = ORIENTED_EDGE ( 'NONE', *, *, #154, .T. ) ;
#362 = DIRECTION ( 'NONE',  ( -1.924444970088698003E-16, 1.000000000000000000, -0.000000000000000000 ) ) ;
#363 = ORIENTED_EDGE ( 'NONE', *, *, #53, .F. ) ;
#364 = AXIS2_PLACEMENT_3D ( 'NONE', #261, #207, #324 ) ;
#365 = ORIENTED_EDGE ( 'NONE', *, *, #115, .F. ) ;
#366 = LINE ( 'NONE', #17, #93 ) ;
#367 = PRESENTATION_STYLE_ASSIGNMENT (( #1 ) ) ;
#368 = EDGE_CURVE ( 'NONE', #69, #132, #319, .T. ) ;
#369 = UNCERTAINTY_MEASURE_WITH_UNIT (LENGTH_MEASURE( 1.000000000000000082E-05 ), #113, 'distance_accuracy_value', 'NONE');
#370 = DIRECTION ( 'NONE',  ( 0.000000000000000000, 0.000000000000000000, -1.000000000000000000 ) ) ;
#371 =( NAMED_UNIT ( * ) SI_UNIT ( $, .STERADIAN. ) SOLID_ANGLE_UNIT ( ) );
#372 = CIRCLE ( 'NONE', #130, 0.1874999999999996392 ) ;
#373 = DIRECTION ( 'NONE',  ( -0.000000000000000000, -1.000000000000000000, -0.000000000000000000 ) ) ;
ENDSEC;
END-ISO-10303-21;
